ISO-10303-21;
HEADER;
FILE_DESCRIPTION (( 'STEP AP214' ),
    '1' );
FILE_NAME ('84784.STEP',
    '2023-07-05T16:27:12',
    ( '' ),
    ( '' ),
    'SwSTEP 2.0',
    'SolidWorks 2023',
    '' );
FILE_SCHEMA (( 'AUTOMOTIVE_DESIGN' ));
ENDSEC;

DATA;
#1 = PRESENTATION_LAYER_ASSIGNMENT (  '', '', ( #21 ) ) ;
#2 = LENGTH_MEASURE_WITH_UNIT ( LENGTH_MEASURE( 0.02539999999999999897 ), #264 );
#3 =( NAMED_UNIT ( * ) SI_UNIT ( $, .STERADIAN. ) SOLID_ANGLE_UNIT ( ) );
#4 =( GEOMETRIC_REPRESENTATION_CONTEXT ( 3 ) GLOBAL_UNCERTAINTY_ASSIGNED_CONTEXT ( ( #125 ) ) GLOBAL_UNIT_ASSIGNED_CONTEXT ( ( #68, #89, #3 ) ) REPRESENTATION_CONTEXT ( 'NONE', 'WORKASPACE' ) );
#5 = CARTESIAN_POINT ( 'NONE',  ( 0.3124999999999997224, 3.000000000000000444, 3.827021247335476461E-17 ) ) ;
#6 = DIRECTION ( 'NONE',  ( 0.000000000000000000, 1.000000000000000000, 0.000000000000000000 ) ) ;
#7 = EDGE_LOOP ( 'NONE', ( #59, #258, #61 ) ) ;
#8 = DIRECTION ( 'NONE',  ( -1.000000000000000000, 0.000000000000000000, 0.000000000000000000 ) ) ;
#9 = EDGE_LOOP ( 'NONE', ( #217, #100 ) ) ;
#10 = DIRECTION ( 'NONE',  ( -1.452488064105000487E-16, 1.000000000000000000, -0.000000000000000000 ) ) ;
#11 = PRESENTATION_LAYER_ASSIGNMENT (  '', '', ( #43 ) ) ;
#12 = ORIENTED_EDGE ( 'NONE', *, *, #198, .T. ) ;
#13 =( NAMED_UNIT ( * ) SI_UNIT ( $, .STERADIAN. ) SOLID_ANGLE_UNIT ( ) );
#14 = ORIENTED_EDGE ( 'NONE', *, *, #190, .T. ) ;
#15 = EDGE_CURVE ( 'NONE', #186, #37, #106, .T. ) ;
#16 = APPLICATION_PROTOCOL_DEFINITION ( 'draft international standard', 'automotive_design', 1998, #154 ) ;
#17 = ORIENTED_EDGE ( 'NONE', *, *, #240, .T. ) ;
#18 = UNCERTAINTY_MEASURE_WITH_UNIT (LENGTH_MEASURE( 1.000000000000000082E-05 ), #157, 'distance_accuracy_value', 'NONE');
#19 =( LENGTH_UNIT ( ) NAMED_UNIT ( * ) SI_UNIT ( $, .METRE. ) );
#20 = FILL_AREA_STYLE ('',( #220 ) ) ;
#21 = STYLED_ITEM ( 'NONE', ( #128 ), #82 ) ;
#22 = CARTESIAN_POINT ( 'NONE',  ( -6.123233995736770966E-17, 3.000000000000000444, 0.000000000000000000 ) ) ;
#23 = SURFACE_STYLE_FILL_AREA ( #20 ) ;
#24 = SURFACE_STYLE_USAGE ( .BOTH. , #135 ) ;
#25 = DIRECTION ( 'NONE',  ( 0.000000000000000000, 0.7071067811865464625, 0.7071067811865486830 ) ) ;
#26 = FILL_AREA_STYLE ('',( #250 ) ) ;
#27 = CARTESIAN_POINT ( 'NONE',  ( 3.827021247335478926E-17, 0.3124999999999990008, -0.3125000000000000000 ) ) ;
#28 = PRODUCT ( '84784', '84784', '', ( #64 ) ) ;
#29 = PRESENTATION_LAYER_ASSIGNMENT (  '', '', ( #239 ) ) ;
#30 = CARTESIAN_POINT ( 'NONE',  ( 0.000000000000000000, 39.37007874015748143, 0.000000000000000000 ) ) ;
#31 = DIMENSIONAL_EXPONENTS ( 1.000000000000000000, 0.000000000000000000, 0.000000000000000000, 0.000000000000000000, 0.000000000000000000, 0.000000000000000000, 0.000000000000000000 ) ;
#32 = DIRECTION ( 'NONE',  ( -1.452488064105000487E-16, 1.000000000000000000, -0.000000000000000000 ) ) ;
#33 = CARTESIAN_POINT ( 'NONE',  ( 0.000000000000000000, 0.000000000000000000, 0.000000000000000000 ) ) ;
#34 = MECHANICAL_DESIGN_GEOMETRIC_PRESENTATION_REPRESENTATION (  '', ( #115 ), #79 ) ;
#35 =( NAMED_UNIT ( * ) SI_UNIT ( $, .STERADIAN. ) SOLID_ANGLE_UNIT ( ) );
#36 = CARTESIAN_POINT ( 'NONE',  ( 3.291238272708513516E-16, 0.3124999999999989453, 0.000000000000000000 ) ) ;
#37 = VERTEX_POINT ( 'NONE', #63 ) ;
#38 = EDGE_LOOP ( 'NONE', ( #12, #55 ) ) ;
#39 = ADVANCED_FACE ( 'NONE', ( #129 ), #84, .T. ) ;
#40 = DIRECTION ( 'NONE',  ( -1.000000000000000000, 0.000000000000000000, 0.000000000000000000 ) ) ;
#41 =( NAMED_UNIT ( * ) PLANE_ANGLE_UNIT ( ) SI_UNIT ( $, .RADIAN. ) );
#42 = ORIENTED_EDGE ( 'NONE', *, *, #102, .T. ) ;
#43 = STYLED_ITEM ( 'NONE', ( #172 ), #39 ) ;
#44 = DIRECTION ( 'NONE',  ( -1.452488064105000487E-16, 1.000000000000000000, -0.000000000000000000 ) ) ;
#45 = SURFACE_STYLE_FILL_AREA ( #26 ) ;
#46 = COLOUR_RGB ( '',0.7921568627450980005, 0.8196078431372548767, 0.9333333333333333481 ) ;
#47 = PRODUCT_DEFINITION_FORMATION_WITH_SPECIFIED_SOURCE ( 'ANY', '', #28, .NOT_KNOWN. ) ;
#48 = DIRECTION ( 'NONE',  ( 1.000000000000000000, 1.452488064105000487E-16, 0.000000000000000000 ) ) ;
#49 = FACE_OUTER_BOUND ( 'NONE', #200, .T. ) ;
#50 = MECHANICAL_DESIGN_GEOMETRIC_PRESENTATION_REPRESENTATION (  '', ( #43 ), #127 ) ;
#51 = DIMENSIONAL_EXPONENTS ( 1.000000000000000000, 0.000000000000000000, 0.000000000000000000, 0.000000000000000000, 0.000000000000000000, 0.000000000000000000, 0.000000000000000000 ) ;
#52 =( NAMED_UNIT ( * ) SI_UNIT ( $, .STERADIAN. ) SOLID_ANGLE_UNIT ( ) );
#53 = CARTESIAN_POINT ( 'NONE',  ( -6.123233995736770966E-17, 3.000000000000000444, 0.000000000000000000 ) ) ;
#54 =( NAMED_UNIT ( * ) PLANE_ANGLE_UNIT ( ) SI_UNIT ( $, .RADIAN. ) );
#55 = ORIENTED_EDGE ( 'NONE', *, *, #15, .T. ) ;
#56 = AXIS2_PLACEMENT_3D ( 'NONE', #116, #114, #8 ) ;
#57 =( NAMED_UNIT ( * ) PLANE_ANGLE_UNIT ( ) SI_UNIT ( $, .RADIAN. ) );
#58 = FILL_AREA_STYLE_COLOUR ( '', #46 ) ;
#59 = ORIENTED_EDGE ( 'NONE', *, *, #102, .F. ) ;
#60 =( NAMED_UNIT ( * ) PLANE_ANGLE_UNIT ( ) SI_UNIT ( $, .RADIAN. ) );
#61 = ORIENTED_EDGE ( 'NONE', *, *, #259, .T. ) ;
#62 = AXIS2_PLACEMENT_3D ( 'NONE', #233, #215, #111 ) ;
#63 = CARTESIAN_POINT ( 'NONE',  ( -0.3125000000000000555, 3.000000000000000444, 0.000000000000000000 ) ) ;
#64 = PRODUCT_CONTEXT ( 'NONE', #154, 'mechanical' ) ;
#65 = VERTEX_POINT ( 'NONE', #208 ) ;
#66 = SURFACE_SIDE_STYLE ('',( #222 ) ) ;
#67 = CIRCLE ( 'NONE', #101, 0.3125000000000000000 ) ;
#68 =( CONVERSION_BASED_UNIT ( 'INCH', #174 ) LENGTH_UNIT ( ) NAMED_UNIT ( #51 ) );
#69 = DIRECTION ( 'NONE',  ( 1.452488064105000487E-16, -1.000000000000000000, 0.000000000000000000 ) ) ;
#70 =( NAMED_UNIT ( * ) PLANE_ANGLE_UNIT ( ) SI_UNIT ( $, .RADIAN. ) );
#71 = LINE ( 'NONE', #155, #142 ) ;
#72 = LENGTH_MEASURE_WITH_UNIT ( LENGTH_MEASURE( 0.02539999999999999897 ), #229 );
#73 = COLOUR_RGB ( '',1.000000000000000000, 0.000000000000000000, 0.000000000000000000 ) ;
#74 = CARTESIAN_POINT ( 'NONE',  ( 0.3124999999999999445, 3.000000000000000444, 3.827021247335477078E-17 ) ) ;
#75 = DIRECTION ( 'NONE',  ( -1.452488064105000487E-16, 1.000000000000000000, -0.000000000000000000 ) ) ;
#76 = VERTEX_POINT ( 'NONE', #126 ) ;
#77 = LENGTH_MEASURE_WITH_UNIT ( LENGTH_MEASURE( 0.02539999999999999897 ), #201 );
#78 = CLOSED_SHELL ( 'NONE', ( #218, #138, #226, #145 ) ) ;
#79 =( GEOMETRIC_REPRESENTATION_CONTEXT ( 3 ) GLOBAL_UNCERTAINTY_ASSIGNED_CONTEXT ( ( #187 ) ) GLOBAL_UNIT_ASSIGNED_CONTEXT ( ( #162, #57, #52 ) ) REPRESENTATION_CONTEXT ( 'NONE', 'WORKASPACE' ) );
#80 = DIRECTION ( 'NONE',  ( -1.000000000000000000, 0.000000000000000000, 0.000000000000000000 ) ) ;
#81 = ORIENTED_EDGE ( 'NONE', *, *, #262, .T. ) ;
#82 = MANIFOLD_SOLID_BREP ( 'Revolve - Cutting Edge', #230 ) ;
#83 = DIRECTION ( 'NONE',  ( 1.000000000000000000, 0.000000000000000000, 0.000000000000000000 ) ) ;
#84 = PLANE ( 'NONE',  #243 ) ;
#85 = DIRECTION ( 'NONE',  ( -1.452488064105000487E-16, 1.000000000000000000, -0.000000000000000000 ) ) ;
#86 = VECTOR ( 'NONE', #194, 39.37007874015748143 ) ;
#87 = UNCERTAINTY_MEASURE_WITH_UNIT (LENGTH_MEASURE( 1.000000000000000082E-05 ), #94, 'distance_accuracy_value', 'NONE');
#88 = SURFACE_STYLE_USAGE ( .BOTH. , #124 ) ;
#89 =( NAMED_UNIT ( * ) PLANE_ANGLE_UNIT ( ) SI_UNIT ( $, .RADIAN. ) );
#90 = AXIS2_PLACEMENT_3D ( 'NONE', #134, #69, #48 ) ;
#91 = AXIS2_PLACEMENT_3D ( 'NONE', #104, #205, #83 ) ;
#92 = CARTESIAN_POINT ( 'NONE',  ( 0.000000000000000000, 39.37007874015748143, 0.000000000000000000 ) ) ;
#93 = FACE_OUTER_BOUND ( 'NONE', #7, .T. ) ;
#94 =( CONVERSION_BASED_UNIT ( 'INCH', #2 ) LENGTH_UNIT ( ) NAMED_UNIT ( #212 ) );
#95 = AXIS2_PLACEMENT_3D ( 'NONE', #30, #192, #248 ) ;
#96 = FILL_AREA_STYLE ('',( #153 ) ) ;
#97 = DIRECTION ( 'NONE',  ( -0.000000000000000000, -1.000000000000000000, -0.000000000000000000 ) ) ;
#98 = FILL_AREA_STYLE ('',( #58 ) ) ;
#99 = ORIENTED_EDGE ( 'NONE', *, *, #121, .F. ) ;
#100 = ORIENTED_EDGE ( 'NONE', *, *, #259, .F. ) ;
#101 = AXIS2_PLACEMENT_3D ( 'NONE', #53, #75, #80 ) ;
#102 = EDGE_CURVE ( 'NONE', #183, #120, #244, .T. ) ;
#103 = STYLED_ITEM ( 'NONE', ( #158 ), #181 ) ;
#104 = CARTESIAN_POINT ( 'NONE',  ( 0.000000000000000000, 0.000000000000000000, 0.000000000000000000 ) ) ;
#105 = SURFACE_STYLE_USAGE ( .BOTH. , #66 ) ;
#106 = CIRCLE ( 'NONE', #173, 0.3125000000000000000 ) ;
#107 = PRESENTATION_STYLE_ASSIGNMENT (( #24 ) ) ;
#108 =( NAMED_UNIT ( * ) SI_UNIT ( $, .STERADIAN. ) SOLID_ANGLE_UNIT ( ) );
#109 = ADVANCED_FACE ( 'NONE', ( #211 ), #110, .T. ) ;
#110 = CONICAL_SURFACE ( 'NONE', #95, 39.37007874015760223, 0.7853981633974498333 ) ;
#111 = DIRECTION ( 'NONE',  ( -1.000000000000000000, 0.000000000000000000, 0.000000000000000000 ) ) ;
#112 = ORIENTED_EDGE ( 'NONE', *, *, #198, .F. ) ;
#113 = PRODUCT_RELATED_PRODUCT_CATEGORY ( 'part', '', ( #28 ) ) ;
#114 = DIRECTION ( 'NONE',  ( -1.452488064105000487E-16, 1.000000000000000000, -0.000000000000000000 ) ) ;
#115 = STYLED_ITEM ( 'NONE', ( #143 ), #254 ) ;
#116 = CARTESIAN_POINT ( 'NONE',  ( -6.123233995736772199E-17, 3.000000000000000444, 0.000000000000000000 ) ) ;
#117 = ORIENTED_EDGE ( 'NONE', *, *, #15, .F. ) ;
#118 = DIRECTION ( 'NONE',  ( -1.000000000000000000, -2.185478394931413286E-16, 0.000000000000000000 ) ) ;
#119 = CARTESIAN_POINT ( 'NONE',  ( 0.000000000000000000, 0.000000000000000000, 0.000000000000000000 ) ) ;
#120 = VERTEX_POINT ( 'NONE', #225 ) ;
#121 = EDGE_CURVE ( 'NONE', #65, #37, #71, .T. ) ;
#122 = CIRCLE ( 'NONE', #234, 0.3124999999999996114 ) ;
#123 = VERTEX_POINT ( 'NONE', #27 ) ;
#124 = SURFACE_SIDE_STYLE ('',( #23 ) ) ;
#125 = UNCERTAINTY_MEASURE_WITH_UNIT (LENGTH_MEASURE( 1.000000000000000082E-05 ), #68, 'distance_accuracy_value', 'NONE');
#126 = CARTESIAN_POINT ( 'NONE',  ( 0.3124999999999999445, 0.3124999999999990008, 3.827021247335477078E-17 ) ) ;
#127 =( GEOMETRIC_REPRESENTATION_CONTEXT ( 3 ) GLOBAL_UNCERTAINTY_ASSIGNED_CONTEXT ( ( #168 ) ) GLOBAL_UNIT_ASSIGNED_CONTEXT ( ( #188, #41, #260 ) ) REPRESENTATION_CONTEXT ( 'NONE', 'WORKASPACE' ) );
#128 = PRESENTATION_STYLE_ASSIGNMENT (( #105 ) ) ;
#129 = FACE_OUTER_BOUND ( 'NONE', #9, .T. ) ;
#130 = CARTESIAN_POINT ( 'NONE',  ( 3.291238272708513516E-16, 0.3124999999999990008, 0.000000000000000000 ) ) ;
#131 = SURFACE_SIDE_STYLE ('',( #227 ) ) ;
#132 = CONICAL_SURFACE ( 'NONE', #257, 39.37007874015760223, 0.7853981633974498333 ) ;
#133 = CARTESIAN_POINT ( 'NONE',  ( 0.000000000000000000, 0.000000000000000000, 0.000000000000000000 ) ) ;
#134 = CARTESIAN_POINT ( 'NONE',  ( 0.3124999999999999445, 3.000000000000000444, 0.000000000000000000 ) ) ;
#135 = SURFACE_SIDE_STYLE ('',( #45 ) ) ;
#136 = VECTOR ( 'NONE', #10, 39.37007874015748143 ) ;
#137 = LINE ( 'NONE', #5, #136 ) ;
#138 = ADVANCED_FACE ( 'NONE', ( #49 ), #191, .F. ) ;
#139 = CARTESIAN_POINT ( 'NONE',  ( 0.000000000000000000, 0.3124999999999990008, 0.000000000000000000 ) ) ;
#140 = DIRECTION ( 'NONE',  ( -1.000000000000000000, -2.185478394931413286E-16, 0.000000000000000000 ) ) ;
#141 = EDGE_LOOP ( 'NONE', ( #14, #17, #112, #99 ) ) ;
#142 = VECTOR ( 'NONE', #44, 39.37007874015748143 ) ;
#143 = PRESENTATION_STYLE_ASSIGNMENT (( #216 ) ) ;
#144 = SURFACE_STYLE_FILL_AREA ( #98 ) ;
#145 = ADVANCED_FACE ( 'NONE', ( #209 ), #245, .F. ) ;
#146 = EDGE_LOOP ( 'NONE', ( #171, #42, #81 ) ) ;
#147 = LENGTH_MEASURE_WITH_UNIT ( LENGTH_MEASURE( 0.02539999999999999897 ), #238 );
#148 = DIRECTION ( 'NONE',  ( 0.000000000000000000, 1.000000000000000000, 0.000000000000000000 ) ) ;
#149 = PRODUCT_DEFINITION_CONTEXT ( 'detailed design', #175, 'design' ) ;
#150 = PRESENTATION_LAYER_ASSIGNMENT (  '', '', ( #103 ) ) ;
#151 = DIRECTION ( 'NONE',  ( 0.000000000000000000, -0.000000000000000000, 1.000000000000000000 ) ) ;
#152 = PRODUCT_DEFINITION_SHAPE ( 'NONE', 'NONE',  #253 ) ;
#153 = FILL_AREA_STYLE_COLOUR ( '', #73 ) ;
#154 = APPLICATION_CONTEXT ( 'automotive_design' ) ;
#155 = CARTESIAN_POINT ( 'NONE',  ( -0.3124999999999998890, 3.000000000000000444, 0.000000000000000000 ) ) ;
#156 = PRESENTATION_LAYER_ASSIGNMENT (  '', '', ( #115 ) ) ;
#157 =( CONVERSION_BASED_UNIT ( 'INCH', #72 ) LENGTH_UNIT ( ) NAMED_UNIT ( #231 ) );
#158 = PRESENTATION_STYLE_ASSIGNMENT (( #176 ) ) ;
#159 = MECHANICAL_DESIGN_GEOMETRIC_PRESENTATION_REPRESENTATION (  '', ( #239 ), #179 ) ;
#160 = DIRECTION ( 'NONE',  ( -0.000000000000000000, -1.000000000000000000, -0.000000000000000000 ) ) ;
#161 = CYLINDRICAL_SURFACE ( 'NONE', #62, 0.3124999999999998335 ) ;
#162 =( CONVERSION_BASED_UNIT ( 'INCH', #77 ) LENGTH_UNIT ( ) NAMED_UNIT ( #178 ) );
#163 = CARTESIAN_POINT ( 'NONE',  ( 3.291238272708513516E-16, 0.3124999999999989453, 0.000000000000000000 ) ) ;
#164 = ORIENTED_EDGE ( 'NONE', *, *, #240, .F. ) ;
#165 =( CONVERSION_BASED_UNIT ( 'INCH', #170 ) LENGTH_UNIT ( ) NAMED_UNIT ( #249 ) );
#166 = ORIENTED_EDGE ( 'NONE', *, *, #213, .T. ) ;
#167 = COLOUR_RGB ( '',1.000000000000000000, 0.000000000000000000, 0.000000000000000000 ) ;
#168 = UNCERTAINTY_MEASURE_WITH_UNIT (LENGTH_MEASURE( 1.000000000000000082E-05 ), #188, 'distance_accuracy_value', 'NONE');
#169 = AXIS2_PLACEMENT_3D ( 'NONE', #252, #160, #232 ) ;
#170 = LENGTH_MEASURE_WITH_UNIT ( LENGTH_MEASURE( 0.02539999999999999897 ), #19 );
#171 = ORIENTED_EDGE ( 'NONE', *, *, #265, .F. ) ;
#172 = PRESENTATION_STYLE_ASSIGNMENT (( #88 ) ) ;
#173 = AXIS2_PLACEMENT_3D ( 'NONE', #22, #85, #40 ) ;
#174 = LENGTH_MEASURE_WITH_UNIT ( LENGTH_MEASURE( 0.02539999999999999897 ), #206 );
#175 = APPLICATION_CONTEXT ( 'automotive_design' ) ;
#176 = SURFACE_STYLE_USAGE ( .BOTH. , #131 ) ;
#177 =( GEOMETRIC_REPRESENTATION_CONTEXT ( 3 ) GLOBAL_UNCERTAINTY_ASSIGNED_CONTEXT ( ( #87 ) ) GLOBAL_UNIT_ASSIGNED_CONTEXT ( ( #94, #54, #35 ) ) REPRESENTATION_CONTEXT ( 'NONE', 'WORKASPACE' ) );
#178 = DIMENSIONAL_EXPONENTS ( 1.000000000000000000, 0.000000000000000000, 0.000000000000000000, 0.000000000000000000, 0.000000000000000000, 0.000000000000000000, 0.000000000000000000 ) ;
#179 =( GEOMETRIC_REPRESENTATION_CONTEXT ( 3 ) GLOBAL_UNCERTAINTY_ASSIGNED_CONTEXT ( ( #18 ) ) GLOBAL_UNIT_ASSIGNED_CONTEXT ( ( #157, #70, #108 ) ) REPRESENTATION_CONTEXT ( 'NONE', 'WORKASPACE' ) );
#180 = SURFACE_SIDE_STYLE ('',( #144 ) ) ;
#181 = ADVANCED_FACE ( 'NONE', ( #93 ), #132, .T. ) ;
#182 = FACE_OUTER_BOUND ( 'NONE', #141, .T. ) ;
#183 = VERTEX_POINT ( 'NONE', #119 ) ;
#184 = COLOUR_RGB ( '',0.7921568627450980005, 0.8196078431372548767, 0.9333333333333333481 ) ;
#185 = ORIENTED_EDGE ( 'NONE', *, *, #213, .F. ) ;
#186 = VERTEX_POINT ( 'NONE', #74 ) ;
#187 = UNCERTAINTY_MEASURE_WITH_UNIT (LENGTH_MEASURE( 1.000000000000000082E-05 ), #162, 'distance_accuracy_value', 'NONE');
#188 =( CONVERSION_BASED_UNIT ( 'INCH', #147 ) LENGTH_UNIT ( ) NAMED_UNIT ( #31 ) );
#189 = AXIS2_PLACEMENT_3D ( 'NONE', #130, #263, #228 ) ;
#190 = EDGE_CURVE ( 'NONE', #65, #76, #210, .T. ) ;
#191 = PLANE ( 'NONE',  #189 ) ;
#192 = DIRECTION ( 'NONE',  ( 0.000000000000000000, 1.000000000000000000, 0.000000000000000000 ) ) ;
#193 =( GEOMETRIC_REPRESENTATION_CONTEXT ( 3 ) GLOBAL_UNCERTAINTY_ASSIGNED_CONTEXT ( ( #241 ) ) GLOBAL_UNIT_ASSIGNED_CONTEXT ( ( #165, #60, #13 ) ) REPRESENTATION_CONTEXT ( 'NONE', 'WORKASPACE' ) );
#194 = DIRECTION ( 'NONE',  ( 8.659560562354947649E-17, 0.7071067811865464625, -0.7071067811865486830 ) ) ;
#195 = MECHANICAL_DESIGN_GEOMETRIC_PRESENTATION_REPRESENTATION (  '', ( #103 ), #177 ) ;
#196 = AXIS2_PLACEMENT_3D ( 'NONE', #139, #97, #214 ) ;
#197 = CYLINDRICAL_SURFACE ( 'NONE', #56, 0.3124999999999998335 ) ;
#198 = EDGE_CURVE ( 'NONE', #37, #186, #67, .T. ) ;
#199 = FACE_OUTER_BOUND ( 'NONE', #203, .T. ) ;
#200 = EDGE_LOOP ( 'NONE', ( #204, #185 ) ) ;
#201 =( LENGTH_UNIT ( ) NAMED_UNIT ( * ) SI_UNIT ( $, .METRE. ) );
#202 = MECHANICAL_DESIGN_GEOMETRIC_PRESENTATION_REPRESENTATION (  '', ( #21 ), #4 ) ;
#203 = EDGE_LOOP ( 'NONE', ( #164, #166, #221, #117 ) ) ;
#204 = ORIENTED_EDGE ( 'NONE', *, *, #190, .F. ) ;
#205 = DIRECTION ( 'NONE',  ( 0.000000000000000000, 0.000000000000000000, 1.000000000000000000 ) ) ;
#206 =( LENGTH_UNIT ( ) NAMED_UNIT ( * ) SI_UNIT ( $, .METRE. ) );
#207 = SHAPE_DEFINITION_REPRESENTATION ( #152, #246 ) ;
#208 = CARTESIAN_POINT ( 'NONE',  ( -0.3124999999999992784, 0.3124999999999988343, 0.000000000000000000 ) ) ;
#209 = FACE_OUTER_BOUND ( 'NONE', #38, .T. ) ;
#210 = CIRCLE ( 'NONE', #219, 0.3124999999999996114 ) ;
#211 = FACE_OUTER_BOUND ( 'NONE', #146, .T. ) ;
#212 = DIMENSIONAL_EXPONENTS ( 1.000000000000000000, 0.000000000000000000, 0.000000000000000000, 0.000000000000000000, 0.000000000000000000, 0.000000000000000000, 0.000000000000000000 ) ;
#213 = EDGE_CURVE ( 'NONE', #76, #65, #122, .T. ) ;
#214 = DIRECTION ( 'NONE',  ( 0.000000000000000000, 0.000000000000000000, -1.000000000000000000 ) ) ;
#215 = DIRECTION ( 'NONE',  ( -1.452488064105000487E-16, 1.000000000000000000, -0.000000000000000000 ) ) ;
#216 = SURFACE_STYLE_USAGE ( .BOTH. , #180 ) ;
#217 = ORIENTED_EDGE ( 'NONE', *, *, #262, .F. ) ;
#218 = ADVANCED_FACE ( 'NONE', ( #182 ), #161, .T. ) ;
#219 = AXIS2_PLACEMENT_3D ( 'NONE', #36, #256, #140 ) ;
#220 = FILL_AREA_STYLE_COLOUR ( '', #167 ) ;
#221 = ORIENTED_EDGE ( 'NONE', *, *, #121, .T. ) ;
#222 = SURFACE_STYLE_FILL_AREA ( #242 ) ;
#223 = CIRCLE ( 'NONE', #169, 0.3124999999999999445 ) ;
#224 = CARTESIAN_POINT ( 'NONE',  ( 0.000000000000000000, 0.3124999999999990008, 0.000000000000000000 ) ) ;
#225 = CARTESIAN_POINT ( 'NONE',  ( 0.000000000000000000, 0.3124999999999990008, 0.3125000000000000000 ) ) ;
#226 = ADVANCED_FACE ( 'NONE', ( #199 ), #197, .T. ) ;
#227 = SURFACE_STYLE_FILL_AREA ( #96 ) ;
#228 = DIRECTION ( 'NONE',  ( -1.000000000000000000, -1.452488064105000487E-16, 0.000000000000000000 ) ) ;
#229 =( LENGTH_UNIT ( ) NAMED_UNIT ( * ) SI_UNIT ( $, .METRE. ) );
#230 = CLOSED_SHELL ( 'NONE', ( #181, #39, #109 ) ) ;
#231 = DIMENSIONAL_EXPONENTS ( 1.000000000000000000, 0.000000000000000000, 0.000000000000000000, 0.000000000000000000, 0.000000000000000000, 0.000000000000000000, 0.000000000000000000 ) ;
#232 = DIRECTION ( 'NONE',  ( 0.000000000000000000, 0.000000000000000000, -1.000000000000000000 ) ) ;
#233 = CARTESIAN_POINT ( 'NONE',  ( -6.123233995736772199E-17, 3.000000000000000444, 0.000000000000000000 ) ) ;
#234 = AXIS2_PLACEMENT_3D ( 'NONE', #163, #32, #118 ) ;
#235 = CIRCLE ( 'NONE', #196, 0.3124999999999999445 ) ;
#236 = LINE ( 'NONE', #33, #86 ) ;
#237 = APPLICATION_PROTOCOL_DEFINITION ( 'draft international standard', 'automotive_design', 1998, #175 ) ;
#238 =( LENGTH_UNIT ( ) NAMED_UNIT ( * ) SI_UNIT ( $, .METRE. ) );
#239 = STYLED_ITEM ( 'NONE', ( #107 ), #109 ) ;
#240 = EDGE_CURVE ( 'NONE', #76, #186, #137, .T. ) ;
#241 = UNCERTAINTY_MEASURE_WITH_UNIT (LENGTH_MEASURE( 1.000000000000000082E-05 ), #165, 'distance_accuracy_value', 'NONE');
#242 = FILL_AREA_STYLE ('',( #261 ) ) ;
#243 = AXIS2_PLACEMENT_3D ( 'NONE', #224, #148, #151 ) ;
#244 = LINE ( 'NONE', #133, #251 ) ;
#245 = PLANE ( 'NONE',  #90 ) ;
#246 = ADVANCED_BREP_SHAPE_REPRESENTATION ( '84784', ( #82, #254, #91 ), #193 ) ;
#247 = COLOUR_RGB ( '',1.000000000000000000, 0.000000000000000000, 0.000000000000000000 ) ;
#248 = DIRECTION ( 'NONE',  ( 0.000000000000000000, 0.000000000000000000, 1.000000000000000000 ) ) ;
#249 = DIMENSIONAL_EXPONENTS ( 1.000000000000000000, 0.000000000000000000, 0.000000000000000000, 0.000000000000000000, 0.000000000000000000, 0.000000000000000000, 0.000000000000000000 ) ;
#250 = FILL_AREA_STYLE_COLOUR ( '', #247 ) ;
#251 = VECTOR ( 'NONE', #25, 39.37007874015748143 ) ;
#252 = CARTESIAN_POINT ( 'NONE',  ( 0.000000000000000000, 0.3124999999999990008, 0.000000000000000000 ) ) ;
#253 = PRODUCT_DEFINITION ( 'UNKNOWN', '', #47, #149 ) ;
#254 = MANIFOLD_SOLID_BREP ( 'Revolve - Tool Body (Pointed)', #78 ) ;
#255 = DIRECTION ( 'NONE',  ( 0.000000000000000000, 0.000000000000000000, 1.000000000000000000 ) ) ;
#256 = DIRECTION ( 'NONE',  ( -1.452488064105000487E-16, 1.000000000000000000, -0.000000000000000000 ) ) ;
#257 = AXIS2_PLACEMENT_3D ( 'NONE', #92, #6, #255 ) ;
#258 = ORIENTED_EDGE ( 'NONE', *, *, #265, .T. ) ;
#259 = EDGE_CURVE ( 'NONE', #123, #120, #223, .T. ) ;
#260 =( NAMED_UNIT ( * ) SI_UNIT ( $, .STERADIAN. ) SOLID_ANGLE_UNIT ( ) );
#261 = FILL_AREA_STYLE_COLOUR ( '', #184 ) ;
#262 = EDGE_CURVE ( 'NONE', #120, #123, #235, .T. ) ;
#263 = DIRECTION ( 'NONE',  ( -1.452488064105000487E-16, 1.000000000000000000, 0.000000000000000000 ) ) ;
#264 =( LENGTH_UNIT ( ) NAMED_UNIT ( * ) SI_UNIT ( $, .METRE. ) );
#265 = EDGE_CURVE ( 'NONE', #183, #123, #236, .T. ) ;
ENDSEC;
END-ISO-10303-21;
