ISO-10303-21;
HEADER;
FILE_DESCRIPTION (( 'STEP AP214' ),
    '1' );
FILE_NAME ('81898.STEP',
    '2023-06-23T03:53:38',
    ( '' ),
    ( '' ),
    'SwSTEP 2.0',
    'SolidWorks 2023',
    '' );
FILE_SCHEMA (( 'AUTOMOTIVE_DESIGN' ));
ENDSEC;

DATA;
#1 = FILL_AREA_STYLE_COLOUR ( '', #92 ) ;
#2 = DIRECTION ( 'NONE',  ( 1.000000000000000000, 4.453261087808557677E-17, 0.000000000000000000 ) ) ;
#3 = DIRECTION ( 'NONE',  ( -4.453261087808557677E-17, 1.000000000000000000, -0.000000000000000000 ) ) ;
#4 = MECHANICAL_DESIGN_GEOMETRIC_PRESENTATION_REPRESENTATION (  '', ( #283 ), #173 ) ;
#5 = PRESENTATION_LAYER_ASSIGNMENT (  '', '', ( #205 ) ) ;
#6 = DIRECTION ( 'NONE',  ( -0.000000000000000000, -1.000000000000000000, -0.000000000000000000 ) ) ;
#7 = SURFACE_SIDE_STYLE ('',( #84 ) ) ;
#8 = VERTEX_POINT ( 'NONE', #9 ) ;
#9 = CARTESIAN_POINT ( 'NONE',  ( 0.000000000000000000, 2.250000000000000000, -0.3750000000000000555 ) ) ;
#10 =( NAMED_UNIT ( * ) PLANE_ANGLE_UNIT ( ) SI_UNIT ( $, .RADIAN. ) );
#11 = AXIS2_PLACEMENT_3D ( 'NONE', #29, #3, #198 ) ;
#12 = FILL_AREA_STYLE ('',( #233 ) ) ;
#13 = AXIS2_PLACEMENT_3D ( 'NONE', #230, #57, #16 ) ;
#14 = ORIENTED_EDGE ( 'NONE', *, *, #154, .F. ) ;
#15 = EDGE_CURVE ( 'NONE', #271, #253, #75, .T. ) ;
#16 = DIRECTION ( 'NONE',  ( 0.000000000000000000, 0.000000000000000000, -1.000000000000000000 ) ) ;
#17 = FILL_AREA_STYLE ('',( #81 ) ) ;
#18 = PRODUCT_RELATED_PRODUCT_CATEGORY ( 'part', '', ( #19 ) ) ;
#19 = PRODUCT ( '81898', '81898', '', ( #59 ) ) ;
#20 = CARTESIAN_POINT ( 'NONE',  ( 0.000000000000000000, 2.250000000000000000, 0.000000000000000000 ) ) ;
#21 = UNCERTAINTY_MEASURE_WITH_UNIT (LENGTH_MEASURE( 1.000000000000000082E-05 ), #229, 'distance_accuracy_value', 'NONE');
#22 =( CONVERSION_BASED_UNIT ( 'INCH', #145 ) LENGTH_UNIT ( ) NAMED_UNIT ( #194 ) );
#23 = AXIS2_PLACEMENT_3D ( 'NONE', #103, #178, #26 ) ;
#24 =( GEOMETRIC_REPRESENTATION_CONTEXT ( 3 ) GLOBAL_UNCERTAINTY_ASSIGNED_CONTEXT ( ( #21 ) ) GLOBAL_UNIT_ASSIGNED_CONTEXT ( ( #229, #10, #202 ) ) REPRESENTATION_CONTEXT ( 'NONE', 'WORKASPACE' ) );
#25 = CYLINDRICAL_SURFACE ( 'NONE', #269, 0.3750000000000001110 ) ;
#26 = DIRECTION ( 'NONE',  ( -1.000000000000000000, 0.000000000000000000, 0.000000000000000000 ) ) ;
#27 =( LENGTH_UNIT ( ) NAMED_UNIT ( * ) SI_UNIT ( $, .METRE. ) );
#28 = CIRCLE ( 'NONE', #212, 0.3750000000000000555 ) ;
#29 = CARTESIAN_POINT ( 'NONE',  ( 1.516480271171051896E-32, 2.250000000000000444, 0.000000000000000000 ) ) ;
#30 = DIMENSIONAL_EXPONENTS ( 1.000000000000000000, 0.000000000000000000, 0.000000000000000000, 0.000000000000000000, 0.000000000000000000, 0.000000000000000000, 0.000000000000000000 ) ;
#31 = CARTESIAN_POINT ( 'NONE',  ( -0.3750000000000002776, 5.000000000000000000, 0.000000000000000000 ) ) ;
#32 = LINE ( 'NONE', #268, #97 ) ;
#33 = DIRECTION ( 'NONE',  ( -0.000000000000000000, -1.000000000000000000, -0.000000000000000000 ) ) ;
#34 = AXIS2_PLACEMENT_3D ( 'NONE', #213, #108, #208 ) ;
#35 = DIRECTION ( 'NONE',  ( -1.000000000000000000, 0.000000000000000000, 0.000000000000000000 ) ) ;
#36 = MANIFOLD_SOLID_BREP ( 'Revolve - Tool Body (Straight Shanked)', #144 ) ;
#37 = EDGE_LOOP ( 'NONE', ( #255, #295 ) ) ;
#38 = ORIENTED_EDGE ( 'NONE', *, *, #165, .T. ) ;
#39 = LINE ( 'NONE', #140, #112 ) ;
#40 = VERTEX_POINT ( 'NONE', #74 ) ;
#41 = ORIENTED_EDGE ( 'NONE', *, *, #176, .T. ) ;
#42 = FILL_AREA_STYLE ('',( #216 ) ) ;
#43 = ADVANCED_BREP_SHAPE_REPRESENTATION ( '81898', ( #129, #36, #70 ), #24 ) ;
#44 = ORIENTED_EDGE ( 'NONE', *, *, #127, .T. ) ;
#45 =( LENGTH_UNIT ( ) NAMED_UNIT ( * ) SI_UNIT ( $, .METRE. ) );
#46 = CIRCLE ( 'NONE', #11, 0.3750000000000000555 ) ;
#47 = COLOUR_RGB ( '',0.7921568627450980005, 0.8196078431372548767, 0.9333333333333333481 ) ;
#48 = EDGE_CURVE ( 'NONE', #228, #40, #188, .T. ) ;
#49 = STYLED_ITEM ( 'NONE', ( #90 ), #232 ) ;
#50 = DIRECTION ( 'NONE',  ( -0.000000000000000000, -1.000000000000000000, -0.000000000000000000 ) ) ;
#51 = PRESENTATION_STYLE_ASSIGNMENT (( #267 ) ) ;
#52 = EDGE_CURVE ( 'NONE', #184, #253, #32, .T. ) ;
#53 = DIRECTION ( 'NONE',  ( -4.453261087808557677E-17, 1.000000000000000000, -0.000000000000000000 ) ) ;
#54 = COLOUR_RGB ( '',1.000000000000000000, 0.000000000000000000, 0.000000000000000000 ) ;
#55 =( NAMED_UNIT ( * ) PLANE_ANGLE_UNIT ( ) SI_UNIT ( $, .RADIAN. ) );
#56 = PRESENTATION_LAYER_ASSIGNMENT (  '', '', ( #174 ) ) ;
#57 = DIRECTION ( 'NONE',  ( -0.000000000000000000, -1.000000000000000000, -0.000000000000000000 ) ) ;
#58 = ORIENTED_EDGE ( 'NONE', *, *, #122, .T. ) ;
#59 = PRODUCT_CONTEXT ( 'NONE', #270, 'mechanical' ) ;
#60 = PRESENTATION_STYLE_ASSIGNMENT (( #276 ) ) ;
#61 = ORIENTED_EDGE ( 'NONE', *, *, #303, .T. ) ;
#62 = DIRECTION ( 'NONE',  ( 0.000000000000000000, -0.000000000000000000, 1.000000000000000000 ) ) ;
#63 = STYLED_ITEM ( 'NONE', ( #298 ), #129 ) ;
#64 = EDGE_LOOP ( 'NONE', ( #231, #249, #156, #187 ) ) ;
#65 =( CONVERSION_BASED_UNIT ( 'INCH', #254 ) LENGTH_UNIT ( ) NAMED_UNIT ( #196 ) );
#66 = SURFACE_STYLE_FILL_AREA ( #281 ) ;
#67 = CARTESIAN_POINT ( 'NONE',  ( 0.000000000000000000, 0.000000000000000000, 0.000000000000000000 ) ) ;
#68 = CIRCLE ( 'NONE', #13, 0.3750000000000000555 ) ;
#69 = UNCERTAINTY_MEASURE_WITH_UNIT (LENGTH_MEASURE( 1.000000000000000082E-05 ), #302, 'distance_accuracy_value', 'NONE');
#70 = AXIS2_PLACEMENT_3D ( 'NONE', #180, #102, #161 ) ;
#71 = EDGE_CURVE ( 'NONE', #206, #271, #225, .T. ) ;
#72 = CARTESIAN_POINT ( 'NONE',  ( 3.718412684285598933E-34, 2.250000000000000000, 0.000000000000000000 ) ) ;
#73 = DIRECTION ( 'NONE',  ( -4.453261087808557677E-17, 1.000000000000000000, 0.000000000000000000 ) ) ;
#74 = CARTESIAN_POINT ( 'NONE',  ( 4.592425496802575451E-17, 0.000000000000000000, 0.3750000000000000555 ) ) ;
#75 = CIRCLE ( 'NONE', #204, 0.3750000000000001665 ) ;
#76 = AXIS2_PLACEMENT_3D ( 'NONE', #110, #33, #134 ) ;
#77 = SURFACE_STYLE_USAGE ( .BOTH. , #109 ) ;
#78 =( CONVERSION_BASED_UNIT ( 'INCH', #201 ) LENGTH_UNIT ( ) NAMED_UNIT ( #280 ) );
#79 = EDGE_CURVE ( 'NONE', #206, #184, #46, .T. ) ;
#80 = DIRECTION ( 'NONE',  ( -4.453261087808557677E-17, 1.000000000000000000, -0.000000000000000000 ) ) ;
#81 = FILL_AREA_STYLE_COLOUR ( '', #237 ) ;
#82 = SURFACE_SIDE_STYLE ('',( #113 ) ) ;
#83 = ORIENTED_EDGE ( 'NONE', *, *, #15, .T. ) ;
#84 = SURFACE_STYLE_FILL_AREA ( #136 ) ;
#85 = ADVANCED_FACE ( 'NONE', ( #265 ), #150, .F. ) ;
#86 = AXIS2_PLACEMENT_3D ( 'NONE', #297, #203, #290 ) ;
#87 = SURFACE_SIDE_STYLE ('',( #299 ) ) ;
#88 = STYLED_ITEM ( 'NONE', ( #169 ), #240 ) ;
#89 = CARTESIAN_POINT ( 'NONE',  ( 0.3750000000000000555, 2.250000000000000444, 4.592425496802576684E-17 ) ) ;
#90 = PRESENTATION_STYLE_ASSIGNMENT (( #236 ) ) ;
#91 = SURFACE_SIDE_STYLE ('',( #66 ) ) ;
#92 = COLOUR_RGB ( '',1.000000000000000000, 0.000000000000000000, 0.000000000000000000 ) ;
#93 = ADVANCED_FACE ( 'NONE', ( #293 ), #243, .T. ) ;
#94 = CIRCLE ( 'NONE', #138, 0.3750000000000000555 ) ;
#95 = CYLINDRICAL_SURFACE ( 'NONE', #192, 0.3750000000000000555 ) ;
#96 = SURFACE_STYLE_FILL_AREA ( #126 ) ;
#97 = VECTOR ( 'NONE', #53, 39.37007874015748143 ) ;
#98 = COLOUR_RGB ( '',1.000000000000000000, 0.000000000000000000, 0.000000000000000000 ) ;
#99 = DIRECTION ( 'NONE',  ( 0.000000000000000000, 0.000000000000000000, -1.000000000000000000 ) ) ;
#100 = CARTESIAN_POINT ( 'NONE',  ( 0.3749999999999999445, 5.000000000000000000, 4.592425496802576068E-17 ) ) ;
#101 = DIRECTION ( 'NONE',  ( -4.453261087808557677E-17, 1.000000000000000000, -0.000000000000000000 ) ) ;
#102 = DIRECTION ( 'NONE',  ( 0.000000000000000000, 0.000000000000000000, 1.000000000000000000 ) ) ;
#103 = CARTESIAN_POINT ( 'NONE',  ( -1.224646799147353207E-16, 5.000000000000000000, 0.000000000000000000 ) ) ;
#104 = ADVANCED_FACE ( 'NONE', ( #222 ), #307, .T. ) ;
#105 = UNCERTAINTY_MEASURE_WITH_UNIT (LENGTH_MEASURE( 1.000000000000000082E-05 ), #242, 'distance_accuracy_value', 'NONE');
#106 = SURFACE_STYLE_USAGE ( .BOTH. , #7 ) ;
#107 = ORIENTED_EDGE ( 'NONE', *, *, #71, .T. ) ;
#108 = DIRECTION ( 'NONE',  ( -4.453261087808557677E-17, 1.000000000000000000, -0.000000000000000000 ) ) ;
#109 = SURFACE_SIDE_STYLE ('',( #115 ) ) ;
#110 = CARTESIAN_POINT ( 'NONE',  ( 0.000000000000000000, 0.000000000000000000, 0.000000000000000000 ) ) ;
#111 = ORIENTED_EDGE ( 'NONE', *, *, #127, .F. ) ;
#112 = VECTOR ( 'NONE', #130, 39.37007874015748143 ) ;
#113 = SURFACE_STYLE_FILL_AREA ( #12 ) ;
#114 = EDGE_LOOP ( 'NONE', ( #137, #61 ) ) ;
#115 = SURFACE_STYLE_FILL_AREA ( #17 ) ;
#116 = PLANE ( 'NONE',  #211 ) ;
#117 =( NAMED_UNIT ( * ) PLANE_ANGLE_UNIT ( ) SI_UNIT ( $, .RADIAN. ) );
#118 = CARTESIAN_POINT ( 'NONE',  ( 0.000000000000000000, 0.000000000000000000, -0.3750000000000000555 ) ) ;
#119 = MECHANICAL_DESIGN_GEOMETRIC_PRESENTATION_REPRESENTATION (  '', ( #174 ), #219 ) ;
#120 =( LENGTH_UNIT ( ) NAMED_UNIT ( * ) SI_UNIT ( $, .METRE. ) );
#121 = UNCERTAINTY_MEASURE_WITH_UNIT (LENGTH_MEASURE( 1.000000000000000082E-05 ), #78, 'distance_accuracy_value', 'NONE');
#122 = EDGE_CURVE ( 'NONE', #184, #206, #248, .T. ) ;
#123 = UNCERTAINTY_MEASURE_WITH_UNIT (LENGTH_MEASURE( 1.000000000000000082E-05 ), #22, 'distance_accuracy_value', 'NONE');
#124 = CARTESIAN_POINT ( 'NONE',  ( 0.000000000000000000, 0.000000000000000000, 0.000000000000000000 ) ) ;
#125 =( NAMED_UNIT ( * ) SI_UNIT ( $, .STERADIAN. ) SOLID_ANGLE_UNIT ( ) );
#126 = FILL_AREA_STYLE ('',( #1 ) ) ;
#127 = EDGE_CURVE ( 'NONE', #8, #273, #28, .T. ) ;
#128 = PLANE ( 'NONE',  #258 ) ;
#129 = MANIFOLD_SOLID_BREP ( 'Revolve - Cutting Edge', #261 ) ;
#130 = DIRECTION ( 'NONE',  ( -0.000000000000000000, -1.000000000000000000, -0.000000000000000000 ) ) ;
#131 = EDGE_CURVE ( 'NONE', #273, #40, #39, .T. ) ;
#132 = PRESENTATION_STYLE_ASSIGNMENT (( #77 ) ) ;
#133 = APPLICATION_CONTEXT ( 'automotive_design' ) ;
#134 = DIRECTION ( 'NONE',  ( 0.000000000000000000, 0.000000000000000000, -1.000000000000000000 ) ) ;
#135 = ORIENTED_EDGE ( 'NONE', *, *, #303, .F. ) ;
#136 = FILL_AREA_STYLE ('',( #163 ) ) ;
#137 = ORIENTED_EDGE ( 'NONE', *, *, #48, .T. ) ;
#138 = AXIS2_PLACEMENT_3D ( 'NONE', #286, #50, #306 ) ;
#139 = APPLICATION_PROTOCOL_DEFINITION ( 'draft international standard', 'automotive_design', 1998, #133 ) ;
#140 = CARTESIAN_POINT ( 'NONE',  ( 4.592425496802575451E-17, 0.000000000000000000, 0.3750000000000000555 ) ) ;
#141 = EDGE_LOOP ( 'NONE', ( #58, #107, #164, #182 ) ) ;
#142 = ORIENTED_EDGE ( 'NONE', *, *, #165, .F. ) ;
#143 = SURFACE_STYLE_USAGE ( .BOTH. , #87 ) ;
#144 = CLOSED_SHELL ( 'NONE', ( #93, #85, #291, #285 ) ) ;
#145 = LENGTH_MEASURE_WITH_UNIT ( LENGTH_MEASURE( 0.02539999999999999897 ), #234 );
#146 = DIRECTION ( 'NONE',  ( 0.000000000000000000, -1.000000000000000000, -0.000000000000000000 ) ) ;
#147 = CARTESIAN_POINT ( 'NONE',  ( 4.592425496802575451E-17, 2.250000000000000000, 0.3750000000000000555 ) ) ;
#148 = PRESENTATION_LAYER_ASSIGNMENT (  '', '', ( #283 ) ) ;
#149 = CIRCLE ( 'NONE', #284, 0.3750000000000001665 ) ;
#150 = PLANE ( 'NONE',  #191 ) ;
#151 = PRODUCT_DEFINITION_SHAPE ( 'NONE', 'NONE',  #263 ) ;
#152 = DIRECTION ( 'NONE',  ( -1.000000000000000000, -4.453261087808557677E-17, 0.000000000000000000 ) ) ;
#153 = MECHANICAL_DESIGN_GEOMETRIC_PRESENTATION_REPRESENTATION (  '', ( #63 ), #166 ) ;
#154 = EDGE_CURVE ( 'NONE', #8, #228, #272, .T. ) ;
#155 =( NAMED_UNIT ( * ) PLANE_ANGLE_UNIT ( ) SI_UNIT ( $, .RADIAN. ) );
#156 = ORIENTED_EDGE ( 'NONE', *, *, #52, .T. ) ;
#157 = AXIS2_PLACEMENT_3D ( 'NONE', #20, #193, #62 ) ;
#158 = LENGTH_MEASURE_WITH_UNIT ( LENGTH_MEASURE( 0.02539999999999999897 ), #266 );
#159 = CARTESIAN_POINT ( 'NONE',  ( -1.224646799147353207E-16, 5.000000000000000000, 0.000000000000000000 ) ) ;
#160 = ORIENTED_EDGE ( 'NONE', *, *, #154, .T. ) ;
#161 = DIRECTION ( 'NONE',  ( 1.000000000000000000, 0.000000000000000000, 0.000000000000000000 ) ) ;
#162 = FACE_OUTER_BOUND ( 'NONE', #250, .T. ) ;
#163 = FILL_AREA_STYLE_COLOUR ( '', #47 ) ;
#164 = ORIENTED_EDGE ( 'NONE', *, *, #176, .F. ) ;
#165 = EDGE_CURVE ( 'NONE', #273, #8, #68, .T. ) ;
#166 =( GEOMETRIC_REPRESENTATION_CONTEXT ( 3 ) GLOBAL_UNCERTAINTY_ASSIGNED_CONTEXT ( ( #244 ) ) GLOBAL_UNIT_ASSIGNED_CONTEXT ( ( #186, #181, #183 ) ) REPRESENTATION_CONTEXT ( 'NONE', 'WORKASPACE' ) );
#167 = DIMENSIONAL_EXPONENTS ( 1.000000000000000000, 0.000000000000000000, 0.000000000000000000, 0.000000000000000000, 0.000000000000000000, 0.000000000000000000, 0.000000000000000000 ) ;
#168 = ORIENTED_EDGE ( 'NONE', *, *, #48, .F. ) ;
#169 = PRESENTATION_STYLE_ASSIGNMENT (( #143 ) ) ;
#170 = MECHANICAL_DESIGN_GEOMETRIC_PRESENTATION_REPRESENTATION (  '', ( #49 ), #300 ) ;
#171 = DIMENSIONAL_EXPONENTS ( 1.000000000000000000, 0.000000000000000000, 0.000000000000000000, 0.000000000000000000, 0.000000000000000000, 0.000000000000000000, 0.000000000000000000 ) ;
#172 = FACE_OUTER_BOUND ( 'NONE', #185, .T. ) ;
#173 =( GEOMETRIC_REPRESENTATION_CONTEXT ( 3 ) GLOBAL_UNCERTAINTY_ASSIGNED_CONTEXT ( ( #69 ) ) GLOBAL_UNIT_ASSIGNED_CONTEXT ( ( #302, #177, #175 ) ) REPRESENTATION_CONTEXT ( 'NONE', 'WORKASPACE' ) );
#174 = STYLED_ITEM ( 'NONE', ( #51 ), #104 ) ;
#175 =( NAMED_UNIT ( * ) SI_UNIT ( $, .STERADIAN. ) SOLID_ANGLE_UNIT ( ) );
#176 = EDGE_CURVE ( 'NONE', #253, #271, #149, .T. ) ;
#177 =( NAMED_UNIT ( * ) PLANE_ANGLE_UNIT ( ) SI_UNIT ( $, .RADIAN. ) );
#178 = DIRECTION ( 'NONE',  ( -4.453261087808557677E-17, 1.000000000000000000, -0.000000000000000000 ) ) ;
#179 = ADVANCED_FACE ( 'NONE', ( #162 ), #251, .T. ) ;
#180 = CARTESIAN_POINT ( 'NONE',  ( 0.000000000000000000, 0.000000000000000000, 0.000000000000000000 ) ) ;
#181 =( NAMED_UNIT ( * ) PLANE_ANGLE_UNIT ( ) SI_UNIT ( $, .RADIAN. ) );
#182 = ORIENTED_EDGE ( 'NONE', *, *, #52, .F. ) ;
#183 =( NAMED_UNIT ( * ) SI_UNIT ( $, .STERADIAN. ) SOLID_ANGLE_UNIT ( ) );
#184 = VERTEX_POINT ( 'NONE', #304 ) ;
#185 = EDGE_LOOP ( 'NONE', ( #41, #83 ) ) ;
#186 =( CONVERSION_BASED_UNIT ( 'INCH', #246 ) LENGTH_UNIT ( ) NAMED_UNIT ( #30 ) );
#187 = ORIENTED_EDGE ( 'NONE', *, *, #15, .F. ) ;
#188 = CIRCLE ( 'NONE', #86, 0.3750000000000000555 ) ;
#189 =( GEOMETRIC_REPRESENTATION_CONTEXT ( 3 ) GLOBAL_UNCERTAINTY_ASSIGNED_CONTEXT ( ( #123 ) ) GLOBAL_UNIT_ASSIGNED_CONTEXT ( ( #22, #239, #256 ) ) REPRESENTATION_CONTEXT ( 'NONE', 'WORKASPACE' ) );
#190 = PRODUCT_DEFINITION_CONTEXT ( 'detailed design', #133, 'design' ) ;
#191 = AXIS2_PLACEMENT_3D ( 'NONE', #72, #73, #152 ) ;
#192 = AXIS2_PLACEMENT_3D ( 'NONE', #124, #245, #99 ) ;
#193 = DIRECTION ( 'NONE',  ( 0.000000000000000000, 1.000000000000000000, 0.000000000000000000 ) ) ;
#194 = DIMENSIONAL_EXPONENTS ( 1.000000000000000000, 0.000000000000000000, 0.000000000000000000, 0.000000000000000000, 0.000000000000000000, 0.000000000000000000, 0.000000000000000000 ) ;
#195 = DIRECTION ( 'NONE',  ( -4.453261087808557677E-17, 1.000000000000000000, -0.000000000000000000 ) ) ;
#196 = DIMENSIONAL_EXPONENTS ( 1.000000000000000000, 0.000000000000000000, 0.000000000000000000, 0.000000000000000000, 0.000000000000000000, 0.000000000000000000, 0.000000000000000000 ) ;
#197 = PRESENTATION_LAYER_ASSIGNMENT (  '', '', ( #49 ) ) ;
#198 = DIRECTION ( 'NONE',  ( -1.000000000000000000, 0.000000000000000000, 0.000000000000000000 ) ) ;
#199 = PRODUCT_DEFINITION_FORMATION_WITH_SPECIFIED_SOURCE ( 'ANY', '', #19, .NOT_KNOWN. ) ;
#200 = FACE_OUTER_BOUND ( 'NONE', #64, .T. ) ;
#201 = LENGTH_MEASURE_WITH_UNIT ( LENGTH_MEASURE( 0.02539999999999999897 ), #27 );
#202 =( NAMED_UNIT ( * ) SI_UNIT ( $, .STERADIAN. ) SOLID_ANGLE_UNIT ( ) );
#203 = DIRECTION ( 'NONE',  ( -0.000000000000000000, -1.000000000000000000, -0.000000000000000000 ) ) ;
#204 = AXIS2_PLACEMENT_3D ( 'NONE', #252, #235, #210 ) ;
#205 = STYLED_ITEM ( 'NONE', ( #60 ), #179 ) ;
#206 = VERTEX_POINT ( 'NONE', #89 ) ;
#207 = APPLICATION_PROTOCOL_DEFINITION ( 'draft international standard', 'automotive_design', 1998, #270 ) ;
#208 = DIRECTION ( 'NONE',  ( -1.000000000000000000, 0.000000000000000000, 0.000000000000000000 ) ) ;
#209 = CARTESIAN_POINT ( 'NONE',  ( 0.000000000000000000, 2.250000000000000000, 0.000000000000000000 ) ) ;
#210 = DIRECTION ( 'NONE',  ( -1.000000000000000000, 0.000000000000000000, 0.000000000000000000 ) ) ;
#211 = AXIS2_PLACEMENT_3D ( 'NONE', #67, #146, #282 ) ;
#212 = AXIS2_PLACEMENT_3D ( 'NONE', #209, #6, #227 ) ;
#213 = CARTESIAN_POINT ( 'NONE',  ( 1.516480271171051896E-32, 2.250000000000000444, 0.000000000000000000 ) ) ;
#214 =( NAMED_UNIT ( * ) SI_UNIT ( $, .STERADIAN. ) SOLID_ANGLE_UNIT ( ) );
#215 = EDGE_LOOP ( 'NONE', ( #44, #275, #168, #14 ) ) ;
#216 = FILL_AREA_STYLE_COLOUR ( '', #98 ) ;
#217 = PRESENTATION_LAYER_ASSIGNMENT (  '', '', ( #63 ) ) ;
#218 = FILL_AREA_STYLE_COLOUR ( '', #54 ) ;
#219 =( GEOMETRIC_REPRESENTATION_CONTEXT ( 3 ) GLOBAL_UNCERTAINTY_ASSIGNED_CONTEXT ( ( #121 ) ) GLOBAL_UNIT_ASSIGNED_CONTEXT ( ( #78, #55, #214 ) ) REPRESENTATION_CONTEXT ( 'NONE', 'WORKASPACE' ) );
#220 = CARTESIAN_POINT ( 'NONE',  ( -1.224646799147353207E-16, 5.000000000000000000, 0.000000000000000000 ) ) ;
#221 = CARTESIAN_POINT ( 'NONE',  ( 0.3750000000000000555, 5.000000000000000000, 0.000000000000000000 ) ) ;
#222 = FACE_OUTER_BOUND ( 'NONE', #215, .T. ) ;
#223 = MECHANICAL_DESIGN_GEOMETRIC_PRESENTATION_REPRESENTATION (  '', ( #205 ), #189 ) ;
#224 = DIRECTION ( 'NONE',  ( 4.453261087808557677E-17, -1.000000000000000000, 0.000000000000000000 ) ) ;
#225 = LINE ( 'NONE', #100, #308 ) ;
#226 = UNCERTAINTY_MEASURE_WITH_UNIT (LENGTH_MEASURE( 1.000000000000000082E-05 ), #65, 'distance_accuracy_value', 'NONE');
#227 = DIRECTION ( 'NONE',  ( 0.000000000000000000, 0.000000000000000000, -1.000000000000000000 ) ) ;
#228 = VERTEX_POINT ( 'NONE', #118 ) ;
#229 =( CONVERSION_BASED_UNIT ( 'INCH', #158 ) LENGTH_UNIT ( ) NAMED_UNIT ( #287 ) );
#230 = CARTESIAN_POINT ( 'NONE',  ( 0.000000000000000000, 2.250000000000000000, 0.000000000000000000 ) ) ;
#231 = ORIENTED_EDGE ( 'NONE', *, *, #71, .F. ) ;
#232 = ADVANCED_FACE ( 'NONE', ( #259 ), #116, .T. ) ;
#233 = FILL_AREA_STYLE_COLOUR ( '', #292 ) ;
#234 =( LENGTH_UNIT ( ) NAMED_UNIT ( * ) SI_UNIT ( $, .METRE. ) );
#235 = DIRECTION ( 'NONE',  ( -4.453261087808557677E-17, 1.000000000000000000, -0.000000000000000000 ) ) ;
#236 = SURFACE_STYLE_USAGE ( .BOTH. , #91 ) ;
#237 = COLOUR_RGB ( '',0.7921568627450980005, 0.8196078431372548767, 0.9333333333333333481 ) ;
#238 = PRESENTATION_LAYER_ASSIGNMENT (  '', '', ( #88 ) ) ;
#239 =( NAMED_UNIT ( * ) PLANE_ANGLE_UNIT ( ) SI_UNIT ( $, .RADIAN. ) );
#240 = ADVANCED_FACE ( 'NONE', ( #241 ), #95, .T. ) ;
#241 = FACE_OUTER_BOUND ( 'NONE', #277, .T. ) ;
#242 =( CONVERSION_BASED_UNIT ( 'INCH', #260 ) LENGTH_UNIT ( ) NAMED_UNIT ( #167 ) );
#243 = CYLINDRICAL_SURFACE ( 'NONE', #23, 0.3750000000000001110 ) ;
#244 = UNCERTAINTY_MEASURE_WITH_UNIT (LENGTH_MEASURE( 1.000000000000000082E-05 ), #186, 'distance_accuracy_value', 'NONE');
#245 = DIRECTION ( 'NONE',  ( -0.000000000000000000, -1.000000000000000000, -0.000000000000000000 ) ) ;
#246 = LENGTH_MEASURE_WITH_UNIT ( LENGTH_MEASURE( 0.02539999999999999897 ), #296 );
#247 = SHAPE_DEFINITION_REPRESENTATION ( #151, #43 ) ;
#248 = CIRCLE ( 'NONE', #34, 0.3750000000000000555 ) ;
#249 = ORIENTED_EDGE ( 'NONE', *, *, #79, .T. ) ;
#250 = EDGE_LOOP ( 'NONE', ( #111, #142 ) ) ;
#251 = PLANE ( 'NONE',  #157 ) ;
#252 = CARTESIAN_POINT ( 'NONE',  ( -1.224646799147353207E-16, 5.000000000000000000, 0.000000000000000000 ) ) ;
#253 = VERTEX_POINT ( 'NONE', #31 ) ;
#254 = LENGTH_MEASURE_WITH_UNIT ( LENGTH_MEASURE( 0.02539999999999999897 ), #301 );
#255 = ORIENTED_EDGE ( 'NONE', *, *, #122, .F. ) ;
#256 =( NAMED_UNIT ( * ) SI_UNIT ( $, .STERADIAN. ) SOLID_ANGLE_UNIT ( ) );
#257 = LENGTH_MEASURE_WITH_UNIT ( LENGTH_MEASURE( 0.02539999999999999897 ), #120 );
#258 = AXIS2_PLACEMENT_3D ( 'NONE', #221, #224, #2 ) ;
#259 = FACE_OUTER_BOUND ( 'NONE', #114, .T. ) ;
#260 = LENGTH_MEASURE_WITH_UNIT ( LENGTH_MEASURE( 0.02539999999999999897 ), #45 );
#261 = CLOSED_SHELL ( 'NONE', ( #104, #179, #240, #232 ) ) ;
#262 = MECHANICAL_DESIGN_GEOMETRIC_PRESENTATION_REPRESENTATION (  '', ( #88 ), #309 ) ;
#263 = PRODUCT_DEFINITION ( 'UNKNOWN', '', #199, #190 ) ;
#264 = CARTESIAN_POINT ( 'NONE',  ( 0.3750000000000000555, 5.000000000000000000, 4.592425496802576684E-17 ) ) ;
#265 = FACE_OUTER_BOUND ( 'NONE', #37, .T. ) ;
#266 =( LENGTH_UNIT ( ) NAMED_UNIT ( * ) SI_UNIT ( $, .METRE. ) );
#267 = SURFACE_STYLE_USAGE ( .BOTH. , #288 ) ;
#268 = CARTESIAN_POINT ( 'NONE',  ( -0.3750000000000002220, 5.000000000000000000, 0.000000000000000000 ) ) ;
#269 = AXIS2_PLACEMENT_3D ( 'NONE', #220, #195, #289 ) ;
#270 = APPLICATION_CONTEXT ( 'automotive_design' ) ;
#271 = VERTEX_POINT ( 'NONE', #264 ) ;
#272 = LINE ( 'NONE', #294, #279 ) ;
#273 = VERTEX_POINT ( 'NONE', #147 ) ;
#274 = DIRECTION ( 'NONE',  ( -0.000000000000000000, -1.000000000000000000, -0.000000000000000000 ) ) ;
#275 = ORIENTED_EDGE ( 'NONE', *, *, #131, .T. ) ;
#276 = SURFACE_STYLE_USAGE ( .BOTH. , #82 ) ;
#277 = EDGE_LOOP ( 'NONE', ( #278, #38, #160, #135 ) ) ;
#278 = ORIENTED_EDGE ( 'NONE', *, *, #131, .F. ) ;
#279 = VECTOR ( 'NONE', #274, 39.37007874015748143 ) ;
#280 = DIMENSIONAL_EXPONENTS ( 1.000000000000000000, 0.000000000000000000, 0.000000000000000000, 0.000000000000000000, 0.000000000000000000, 0.000000000000000000, 0.000000000000000000 ) ;
#281 = FILL_AREA_STYLE ('',( #218 ) ) ;
#282 = DIRECTION ( 'NONE',  ( 0.000000000000000000, 0.000000000000000000, -1.000000000000000000 ) ) ;
#283 = STYLED_ITEM ( 'NONE', ( #132 ), #36 ) ;
#284 = AXIS2_PLACEMENT_3D ( 'NONE', #159, #80, #35 ) ;
#285 = ADVANCED_FACE ( 'NONE', ( #172 ), #128, .F. ) ;
#286 = CARTESIAN_POINT ( 'NONE',  ( 0.000000000000000000, 0.000000000000000000, 0.000000000000000000 ) ) ;
#287 = DIMENSIONAL_EXPONENTS ( 1.000000000000000000, 0.000000000000000000, 0.000000000000000000, 0.000000000000000000, 0.000000000000000000, 0.000000000000000000, 0.000000000000000000 ) ;
#288 = SURFACE_SIDE_STYLE ('',( #96 ) ) ;
#289 = DIRECTION ( 'NONE',  ( -1.000000000000000000, 0.000000000000000000, 0.000000000000000000 ) ) ;
#290 = DIRECTION ( 'NONE',  ( 0.000000000000000000, 0.000000000000000000, -1.000000000000000000 ) ) ;
#291 = ADVANCED_FACE ( 'NONE', ( #200 ), #25, .T. ) ;
#292 = COLOUR_RGB ( '',1.000000000000000000, 0.000000000000000000, 0.000000000000000000 ) ;
#293 = FACE_OUTER_BOUND ( 'NONE', #141, .T. ) ;
#294 = CARTESIAN_POINT ( 'NONE',  ( 0.000000000000000000, 0.000000000000000000, -0.3750000000000000555 ) ) ;
#295 = ORIENTED_EDGE ( 'NONE', *, *, #79, .F. ) ;
#296 =( LENGTH_UNIT ( ) NAMED_UNIT ( * ) SI_UNIT ( $, .METRE. ) );
#297 = CARTESIAN_POINT ( 'NONE',  ( 0.000000000000000000, 0.000000000000000000, 0.000000000000000000 ) ) ;
#298 = PRESENTATION_STYLE_ASSIGNMENT (( #106 ) ) ;
#299 = SURFACE_STYLE_FILL_AREA ( #42 ) ;
#300 =( GEOMETRIC_REPRESENTATION_CONTEXT ( 3 ) GLOBAL_UNCERTAINTY_ASSIGNED_CONTEXT ( ( #226 ) ) GLOBAL_UNIT_ASSIGNED_CONTEXT ( ( #65, #117, #305 ) ) REPRESENTATION_CONTEXT ( 'NONE', 'WORKASPACE' ) );
#301 =( LENGTH_UNIT ( ) NAMED_UNIT ( * ) SI_UNIT ( $, .METRE. ) );
#302 =( CONVERSION_BASED_UNIT ( 'INCH', #257 ) LENGTH_UNIT ( ) NAMED_UNIT ( #171 ) );
#303 = EDGE_CURVE ( 'NONE', #40, #228, #94, .T. ) ;
#304 = CARTESIAN_POINT ( 'NONE',  ( -0.3750000000000000555, 2.250000000000000444, 0.000000000000000000 ) ) ;
#305 =( NAMED_UNIT ( * ) SI_UNIT ( $, .STERADIAN. ) SOLID_ANGLE_UNIT ( ) );
#306 = DIRECTION ( 'NONE',  ( 0.000000000000000000, 0.000000000000000000, -1.000000000000000000 ) ) ;
#307 = CYLINDRICAL_SURFACE ( 'NONE', #76, 0.3750000000000000555 ) ;
#308 = VECTOR ( 'NONE', #101, 39.37007874015748143 ) ;
#309 =( GEOMETRIC_REPRESENTATION_CONTEXT ( 3 ) GLOBAL_UNCERTAINTY_ASSIGNED_CONTEXT ( ( #105 ) ) GLOBAL_UNIT_ASSIGNED_CONTEXT ( ( #242, #155, #125 ) ) REPRESENTATION_CONTEXT ( 'NONE', 'WORKASPACE' ) );
ENDSEC;
END-ISO-10303-21;
