ISO-10303-21;
HEADER;
FILE_DESCRIPTION (( 'STEP AP214' ),
    '1' );
FILE_NAME ('81848.STEP',
    '2023-06-23T03:41:34',
    ( '' ),
    ( '' ),
    'SwSTEP 2.0',
    'SolidWorks 2023',
    '' );
FILE_SCHEMA (( 'AUTOMOTIVE_DESIGN' ));
ENDSEC;

DATA;
#1 = SURFACE_STYLE_FILL_AREA ( #186 ) ;
#2 = AXIS2_PLACEMENT_3D ( 'NONE', #233, #65, #159 ) ;
#3 = PLANE ( 'NONE',  #235 ) ;
#4 = PRESENTATION_LAYER_ASSIGNMENT (  '', '', ( #56 ) ) ;
#5 = PRODUCT_RELATED_PRODUCT_CATEGORY ( 'part', '', ( #71 ) ) ;
#6 =( NAMED_UNIT ( * ) SI_UNIT ( $, .STERADIAN. ) SOLID_ANGLE_UNIT ( ) );
#7 = DIRECTION ( 'NONE',  ( 0.000000000000000000, 0.000000000000000000, -1.000000000000000000 ) ) ;
#8 = ORIENTED_EDGE ( 'NONE', *, *, #47, .T. ) ;
#9 = DIRECTION ( 'NONE',  ( -1.000000000000000000, 0.000000000000000000, 0.000000000000000000 ) ) ;
#10 = ORIENTED_EDGE ( 'NONE', *, *, #57, .F. ) ;
#11 = APPLICATION_PROTOCOL_DEFINITION ( 'draft international standard', 'automotive_design', 1998, #88 ) ;
#12 =( NAMED_UNIT ( * ) SI_UNIT ( $, .STERADIAN. ) SOLID_ANGLE_UNIT ( ) );
#13 = EDGE_CURVE ( 'NONE', #226, #172, #48, .T. ) ;
#14 = MECHANICAL_DESIGN_GEOMETRIC_PRESENTATION_REPRESENTATION (  '', ( #101 ), #243 ) ;
#15 = PRESENTATION_LAYER_ASSIGNMENT (  '', '', ( #20 ) ) ;
#16 = PRESENTATION_STYLE_ASSIGNMENT (( #263 ) ) ;
#17 = FILL_AREA_STYLE ('',( #112 ) ) ;
#18 =( NAMED_UNIT ( * ) PLANE_ANGLE_UNIT ( ) SI_UNIT ( $, .RADIAN. ) );
#19 = DIMENSIONAL_EXPONENTS ( 1.000000000000000000, 0.000000000000000000, 0.000000000000000000, 0.000000000000000000, 0.000000000000000000, 0.000000000000000000, 0.000000000000000000 ) ;
#20 = STYLED_ITEM ( 'NONE', ( #76 ), #280 ) ;
#21 = APPLICATION_CONTEXT ( 'automotive_design' ) ;
#22 = FACE_OUTER_BOUND ( 'NONE', #282, .T. ) ;
#23 = CARTESIAN_POINT ( 'NONE',  ( 0.000000000000000000, 0.000000000000000000, -0.5000000000000000000 ) ) ;
#24 = VECTOR ( 'NONE', #51, 39.37007874015748143 ) ;
#25 =( CONVERSION_BASED_UNIT ( 'INCH', #267 ) LENGTH_UNIT ( ) NAMED_UNIT ( #190 ) );
#26 = ORIENTED_EDGE ( 'NONE', *, *, #13, .T. ) ;
#27 = DIRECTION ( 'NONE',  ( -1.000000000000000000, 0.000000000000000000, 0.000000000000000000 ) ) ;
#28 =( CONVERSION_BASED_UNIT ( 'INCH', #143 ) LENGTH_UNIT ( ) NAMED_UNIT ( #120 ) );
#29 = ORIENTED_EDGE ( 'NONE', *, *, #31, .T. ) ;
#30 = ORIENTED_EDGE ( 'NONE', *, *, #231, .T. ) ;
#31 = EDGE_CURVE ( 'NONE', #177, #247, #74, .T. ) ;
#32 = UNCERTAINTY_MEASURE_WITH_UNIT (LENGTH_MEASURE( 1.000000000000000082E-05 ), #139, 'distance_accuracy_value', 'NONE');
#33 = CYLINDRICAL_SURFACE ( 'NONE', #110, 0.5000000000000000000 ) ;
#34 = CARTESIAN_POINT ( 'NONE',  ( 0.000000000000000000, 0.000000000000000000, -0.5000000000000000000 ) ) ;
#35 =( NAMED_UNIT ( * ) PLANE_ANGLE_UNIT ( ) SI_UNIT ( $, .RADIAN. ) );
#36 = DIRECTION ( 'NONE',  ( -2.449293598294703764E-17, -1.000000000000000000, 0.000000000000000000 ) ) ;
#37 = DIMENSIONAL_EXPONENTS ( 1.000000000000000000, 0.000000000000000000, 0.000000000000000000, 0.000000000000000000, 0.000000000000000000, 0.000000000000000000, 0.000000000000000000 ) ;
#38 = EDGE_CURVE ( 'NONE', #242, #145, #123, .T. ) ;
#39 =( GEOMETRIC_REPRESENTATION_CONTEXT ( 3 ) GLOBAL_UNCERTAINTY_ASSIGNED_CONTEXT ( ( #32 ) ) GLOBAL_UNIT_ASSIGNED_CONTEXT ( ( #139, #18, #93 ) ) REPRESENTATION_CONTEXT ( 'NONE', 'WORKASPACE' ) );
#40 =( CONVERSION_BASED_UNIT ( 'INCH', #299 ) LENGTH_UNIT ( ) NAMED_UNIT ( #137 ) );
#41 = ADVANCED_FACE ( 'NONE', ( #84 ), #3, .F. ) ;
#42 = PRESENTATION_STYLE_ASSIGNMENT (( #251 ) ) ;
#43 = CYLINDRICAL_SURFACE ( 'NONE', #204, 0.5000000000000000000 ) ;
#44 = COLOUR_RGB ( '',1.000000000000000000, 0.000000000000000000, 0.000000000000000000 ) ;
#45 = CARTESIAN_POINT ( 'NONE',  ( -0.4999999999999998335, 4.500000000000000000, 0.000000000000000000 ) ) ;
#46 = DIRECTION ( 'NONE',  ( 2.449293598294703764E-17, 1.000000000000000000, -0.000000000000000000 ) ) ;
#47 = EDGE_CURVE ( 'NONE', #196, #72, #298, .T. ) ;
#48 = CIRCLE ( 'NONE', #229, 0.4999999999999999445 ) ;
#49 = DIRECTION ( 'NONE',  ( -1.000000000000000000, 2.449293598294703764E-17, 0.000000000000000000 ) ) ;
#50 = FACE_OUTER_BOUND ( 'NONE', #96, .T. ) ;
#51 = DIRECTION ( 'NONE',  ( -0.000000000000000000, -1.000000000000000000, -0.000000000000000000 ) ) ;
#52 = CARTESIAN_POINT ( 'NONE',  ( 0.000000000000000000, 0.000000000000000000, 0.000000000000000000 ) ) ;
#53 = CARTESIAN_POINT ( 'NONE',  ( 0.5000000000000000000, 4.500000000000000000, 0.000000000000000000 ) ) ;
#54 = FILL_AREA_STYLE_COLOUR ( '', #44 ) ;
#55 = EDGE_LOOP ( 'NONE', ( #289, #122 ) ) ;
#56 = STYLED_ITEM ( 'NONE', ( #78 ), #286 ) ;
#57 = EDGE_CURVE ( 'NONE', #177, #242, #246, .T. ) ;
#58 = EDGE_LOOP ( 'NONE', ( #202, #198, #154, #119 ) ) ;
#59 = UNCERTAINTY_MEASURE_WITH_UNIT (LENGTH_MEASURE( 1.000000000000000082E-05 ), #25, 'distance_accuracy_value', 'NONE');
#60 = SHAPE_DEFINITION_REPRESENTATION ( #239, #254 ) ;
#61 = DIRECTION ( 'NONE',  ( -0.000000000000000000, -1.000000000000000000, -0.000000000000000000 ) ) ;
#62 = DIRECTION ( 'NONE',  ( 2.449293598294704072E-17, 1.000000000000000000, -0.000000000000000000 ) ) ;
#63 = EDGE_CURVE ( 'NONE', #247, #177, #199, .T. ) ;
#64 =( CONVERSION_BASED_UNIT ( 'INCH', #91 ) LENGTH_UNIT ( ) NAMED_UNIT ( #19 ) );
#65 = DIRECTION ( 'NONE',  ( 0.000000000000000000, 1.000000000000000000, 0.000000000000000000 ) ) ;
#66 = COLOUR_RGB ( '',0.7921568627450980005, 0.8196078431372548767, 0.9333333333333333481 ) ;
#67 = SURFACE_STYLE_FILL_AREA ( #157 ) ;
#68 =( NAMED_UNIT ( * ) PLANE_ANGLE_UNIT ( ) SI_UNIT ( $, .RADIAN. ) );
#69 = MECHANICAL_DESIGN_GEOMETRIC_PRESENTATION_REPRESENTATION (  '', ( #269 ), #244 ) ;
#70 = DIRECTION ( 'NONE',  ( 2.449293598294704072E-17, 1.000000000000000000, -0.000000000000000000 ) ) ;
#71 = PRODUCT ( '81848', '81848', '', ( #130 ) ) ;
#72 = VERTEX_POINT ( 'NONE', #131 ) ;
#73 = LINE ( 'NONE', #167, #176 ) ;
#74 = CIRCLE ( 'NONE', #97, 0.5000000000000000000 ) ;
#75 = AXIS2_PLACEMENT_3D ( 'NONE', #223, #201, #9 ) ;
#76 = PRESENTATION_STYLE_ASSIGNMENT (( #284 ) ) ;
#77 = EDGE_LOOP ( 'NONE', ( #127, #256, #245, #109 ) ) ;
#78 = PRESENTATION_STYLE_ASSIGNMENT (( #241 ) ) ;
#79 = ORIENTED_EDGE ( 'NONE', *, *, #38, .F. ) ;
#80 = FILL_AREA_STYLE_COLOUR ( '', #66 ) ;
#81 = SURFACE_STYLE_FILL_AREA ( #288 ) ;
#82 = ADVANCED_FACE ( 'NONE', ( #261 ), #224, .T. ) ;
#83 = EDGE_LOOP ( 'NONE', ( #26, #195 ) ) ;
#84 = FACE_OUTER_BOUND ( 'NONE', #83, .T. ) ;
#85 = MANIFOLD_SOLID_BREP ( 'Revolve - Cutting Edge', #271 ) ;
#86 = PRESENTATION_STYLE_ASSIGNMENT (( #115 ) ) ;
#87 = AXIS2_PLACEMENT_3D ( 'NONE', #213, #292, #178 ) ;
#88 = APPLICATION_CONTEXT ( 'automotive_design' ) ;
#89 = CARTESIAN_POINT ( 'NONE',  ( 6.123233995736759873E-17, 4.500000000000000000, 0.000000000000000000 ) ) ;
#90 = ADVANCED_FACE ( 'NONE', ( #206 ), #184, .T. ) ;
#91 = LENGTH_MEASURE_WITH_UNIT ( LENGTH_MEASURE( 0.02539999999999999897 ), #158 );
#92 = AXIS2_PLACEMENT_3D ( 'NONE', #181, #203, #273 ) ;
#93 =( NAMED_UNIT ( * ) SI_UNIT ( $, .STERADIAN. ) SOLID_ANGLE_UNIT ( ) );
#94 = ADVANCED_FACE ( 'NONE', ( #132 ), #300, .T. ) ;
#95 = CARTESIAN_POINT ( 'NONE',  ( 1.499759782661854657E-34, 2.000000000000000000, 0.000000000000000000 ) ) ;
#96 = EDGE_LOOP ( 'NONE', ( #29, #30, #79, #10 ) ) ;
#97 = AXIS2_PLACEMENT_3D ( 'NONE', #266, #262, #216 ) ;
#98 = LENGTH_MEASURE_WITH_UNIT ( LENGTH_MEASURE( 0.02539999999999999897 ), #227 );
#99 = ADVANCED_FACE ( 'NONE', ( #183 ), #205, .T. ) ;
#100 = ORIENTED_EDGE ( 'NONE', *, *, #63, .F. ) ;
#101 = STYLED_ITEM ( 'NONE', ( #16 ), #82 ) ;
#102 = SURFACE_SIDE_STYLE ('',( #106 ) ) ;
#103 = ORIENTED_EDGE ( 'NONE', *, *, #47, .F. ) ;
#104 = FILL_AREA_STYLE_COLOUR ( '', #142 ) ;
#105 = EDGE_CURVE ( 'NONE', #172, #226, #306, .T. ) ;
#106 = SURFACE_STYLE_FILL_AREA ( #260 ) ;
#107 = ORIENTED_EDGE ( 'NONE', *, *, #193, .F. ) ;
#108 = UNCERTAINTY_MEASURE_WITH_UNIT (LENGTH_MEASURE( 1.000000000000000082E-05 ), #28, 'distance_accuracy_value', 'NONE');
#109 = ORIENTED_EDGE ( 'NONE', *, *, #105, .F. ) ;
#110 = AXIS2_PLACEMENT_3D ( 'NONE', #52, #218, #128 ) ;
#111 = DIRECTION ( 'NONE',  ( 1.000000000000000000, 0.000000000000000000, 0.000000000000000000 ) ) ;
#112 = FILL_AREA_STYLE_COLOUR ( '', #248 ) ;
#113 = CARTESIAN_POINT ( 'NONE',  ( 0.000000000000000000, 0.000000000000000000, 0.000000000000000000 ) ) ;
#114 = STYLED_ITEM ( 'NONE', ( #86 ), #85 ) ;
#115 = SURFACE_STYLE_USAGE ( .BOTH. , #228 ) ;
#116 = AXIS2_PLACEMENT_3D ( 'NONE', #153, #268, #146 ) ;
#117 = PLANE ( 'NONE',  #200 ) ;
#118 = DIRECTION ( 'NONE',  ( -0.000000000000000000, -1.000000000000000000, -0.000000000000000000 ) ) ;
#119 = ORIENTED_EDGE ( 'NONE', *, *, #307, .F. ) ;
#120 = DIMENSIONAL_EXPONENTS ( 1.000000000000000000, 0.000000000000000000, 0.000000000000000000, 0.000000000000000000, 0.000000000000000000, 0.000000000000000000, 0.000000000000000000 ) ;
#121 = PRODUCT_DEFINITION ( 'UNKNOWN', '', #212, #136 ) ;
#122 = ORIENTED_EDGE ( 'NONE', *, *, #307, .T. ) ;
#123 = CIRCLE ( 'NONE', #134, 0.5000000000000000000 ) ;
#124 = PRESENTATION_LAYER_ASSIGNMENT (  '', '', ( #269 ) ) ;
#125 = EDGE_LOOP ( 'NONE', ( #8, #192, #140, #107 ) ) ;
#126 = FILL_AREA_STYLE ('',( #54 ) ) ;
#127 = ORIENTED_EDGE ( 'NONE', *, *, #278, .F. ) ;
#128 = DIRECTION ( 'NONE',  ( 0.000000000000000000, 0.000000000000000000, -1.000000000000000000 ) ) ;
#129 = CARTESIAN_POINT ( 'NONE',  ( 0.000000000000000000, 2.000000000000000000, 0.000000000000000000 ) ) ;
#130 = PRODUCT_CONTEXT ( 'NONE', #21, 'mechanical' ) ;
#131 = CARTESIAN_POINT ( 'NONE',  ( 0.5000000000000000000, 2.000000000000000000, 6.123233995736766036E-17 ) ) ;
#132 = FACE_OUTER_BOUND ( 'NONE', #125, .T. ) ;
#133 = DIRECTION ( 'NONE',  ( -1.000000000000000000, 0.000000000000000000, 0.000000000000000000 ) ) ;
#134 = AXIS2_PLACEMENT_3D ( 'NONE', #285, #219, #293 ) ;
#135 =( NAMED_UNIT ( * ) SI_UNIT ( $, .STERADIAN. ) SOLID_ANGLE_UNIT ( ) );
#136 = PRODUCT_DEFINITION_CONTEXT ( 'detailed design', #88, 'design' ) ;
#137 = DIMENSIONAL_EXPONENTS ( 1.000000000000000000, 0.000000000000000000, 0.000000000000000000, 0.000000000000000000, 0.000000000000000000, 0.000000000000000000, 0.000000000000000000 ) ;
#138 = MECHANICAL_DESIGN_GEOMETRIC_PRESENTATION_REPRESENTATION (  '', ( #20 ), #291 ) ;
#139 =( CONVERSION_BASED_UNIT ( 'INCH', #98 ) LENGTH_UNIT ( ) NAMED_UNIT ( #37 ) );
#140 = ORIENTED_EDGE ( 'NONE', *, *, #13, .F. ) ;
#141 = ADVANCED_FACE ( 'NONE', ( #189 ), #43, .T. ) ;
#142 = COLOUR_RGB ( '',1.000000000000000000, 0.000000000000000000, 0.000000000000000000 ) ;
#143 = LENGTH_MEASURE_WITH_UNIT ( LENGTH_MEASURE( 0.02539999999999999897 ), #171 );
#144 =( LENGTH_UNIT ( ) NAMED_UNIT ( * ) SI_UNIT ( $, .METRE. ) );
#145 = VERTEX_POINT ( 'NONE', #210 ) ;
#146 = DIRECTION ( 'NONE',  ( -1.000000000000000000, 0.000000000000000000, 0.000000000000000000 ) ) ;
#147 =( GEOMETRIC_REPRESENTATION_CONTEXT ( 3 ) GLOBAL_UNCERTAINTY_ASSIGNED_CONTEXT ( ( #182 ) ) GLOBAL_UNIT_ASSIGNED_CONTEXT ( ( #40, #297, #135 ) ) REPRESENTATION_CONTEXT ( 'NONE', 'WORKASPACE' ) );
#148 = AXIS2_PLACEMENT_3D ( 'NONE', #277, #275, #166 ) ;
#149 = SURFACE_SIDE_STYLE ('',( #265 ) ) ;
#150 = EDGE_LOOP ( 'NONE', ( #305, #100 ) ) ;
#151 = UNCERTAINTY_MEASURE_WITH_UNIT (LENGTH_MEASURE( 1.000000000000000082E-05 ), #64, 'distance_accuracy_value', 'NONE');
#152 =( NAMED_UNIT ( * ) SI_UNIT ( $, .STERADIAN. ) SOLID_ANGLE_UNIT ( ) );
#153 = CARTESIAN_POINT ( 'NONE',  ( -7.582401355855259480E-33, 2.000000000000000000, 0.000000000000000000 ) ) ;
#154 = ORIENTED_EDGE ( 'NONE', *, *, #57, .T. ) ;
#155 = AXIS2_PLACEMENT_3D ( 'NONE', #129, #61, #7 ) ;
#156 = MECHANICAL_DESIGN_GEOMETRIC_PRESENTATION_REPRESENTATION (  '', ( #56 ), #180 ) ;
#157 = FILL_AREA_STYLE ('',( #296 ) ) ;
#158 =( LENGTH_UNIT ( ) NAMED_UNIT ( * ) SI_UNIT ( $, .METRE. ) );
#159 = DIRECTION ( 'NONE',  ( 0.000000000000000000, -0.000000000000000000, 1.000000000000000000 ) ) ;
#160 = VECTOR ( 'NONE', #279, 39.37007874015748143 ) ;
#161 = UNCERTAINTY_MEASURE_WITH_UNIT (LENGTH_MEASURE( 1.000000000000000082E-05 ), #188, 'distance_accuracy_value', 'NONE');
#162 = SURFACE_SIDE_STYLE ('',( #67 ) ) ;
#163 = CARTESIAN_POINT ( 'NONE',  ( 0.000000000000000000, 2.000000000000000000, -0.5000000000000000000 ) ) ;
#164 = CIRCLE ( 'NONE', #75, 0.5000000000000000000 ) ;
#165 =( NAMED_UNIT ( * ) SI_UNIT ( $, .STERADIAN. ) SOLID_ANGLE_UNIT ( ) );
#166 = DIRECTION ( 'NONE',  ( 0.000000000000000000, 0.000000000000000000, -1.000000000000000000 ) ) ;
#167 = CARTESIAN_POINT ( 'NONE',  ( 6.123233995736766036E-17, 0.000000000000000000, 0.5000000000000000000 ) ) ;
#168 = MECHANICAL_DESIGN_GEOMETRIC_PRESENTATION_REPRESENTATION (  '', ( #259 ), #39 ) ;
#169 =( NAMED_UNIT ( * ) PLANE_ANGLE_UNIT ( ) SI_UNIT ( $, .RADIAN. ) );
#170 = DIRECTION ( 'NONE',  ( 1.000000000000000000, -2.449293598294703764E-17, 0.000000000000000000 ) ) ;
#171 =( LENGTH_UNIT ( ) NAMED_UNIT ( * ) SI_UNIT ( $, .METRE. ) );
#172 = VERTEX_POINT ( 'NONE', #187 ) ;
#173 = CARTESIAN_POINT ( 'NONE',  ( 0.5000000000000001110, 4.500000000000000000, 6.123233995736766036E-17 ) ) ;
#174 = SURFACE_SIDE_STYLE ('',( #81 ) ) ;
#175 = MECHANICAL_DESIGN_GEOMETRIC_PRESENTATION_REPRESENTATION (  '', ( #114 ), #147 ) ;
#176 = VECTOR ( 'NONE', #258, 39.37007874015748143 ) ;
#177 = VERTEX_POINT ( 'NONE', #163 ) ;
#178 = DIRECTION ( 'NONE',  ( 0.000000000000000000, 0.000000000000000000, -1.000000000000000000 ) ) ;
#179 = APPLICATION_PROTOCOL_DEFINITION ( 'draft international standard', 'automotive_design', 1998, #21 ) ;
#180 =( GEOMETRIC_REPRESENTATION_CONTEXT ( 3 ) GLOBAL_UNCERTAINTY_ASSIGNED_CONTEXT ( ( #108 ) ) GLOBAL_UNIT_ASSIGNED_CONTEXT ( ( #28, #169, #6 ) ) REPRESENTATION_CONTEXT ( 'NONE', 'WORKASPACE' ) );
#181 = CARTESIAN_POINT ( 'NONE',  ( 6.123233995736759873E-17, 4.500000000000000000, 0.000000000000000000 ) ) ;
#182 = UNCERTAINTY_MEASURE_WITH_UNIT (LENGTH_MEASURE( 1.000000000000000082E-05 ), #40, 'distance_accuracy_value', 'NONE');
#183 = FACE_OUTER_BOUND ( 'NONE', #55, .T. ) ;
#184 = CYLINDRICAL_SURFACE ( 'NONE', #185, 0.5000000000000000000 ) ;
#185 = AXIS2_PLACEMENT_3D ( 'NONE', #89, #62, #133 ) ;
#186 = FILL_AREA_STYLE ('',( #276 ) ) ;
#187 = CARTESIAN_POINT ( 'NONE',  ( 0.5000000000000000000, 4.500000000000000000, 6.123233995736766036E-17 ) ) ;
#188 =( CONVERSION_BASED_UNIT ( 'INCH', #207 ) LENGTH_UNIT ( ) NAMED_UNIT ( #252 ) );
#189 = FACE_OUTER_BOUND ( 'NONE', #58, .T. ) ;
#190 = DIMENSIONAL_EXPONENTS ( 1.000000000000000000, 0.000000000000000000, 0.000000000000000000, 0.000000000000000000, 0.000000000000000000, 0.000000000000000000, 0.000000000000000000 ) ;
#191 = CARTESIAN_POINT ( 'NONE',  ( -0.4999999999999999445, 4.500000000000000000, 0.000000000000000000 ) ) ;
#192 = ORIENTED_EDGE ( 'NONE', *, *, #278, .T. ) ;
#193 = EDGE_CURVE ( 'NONE', #196, #226, #253, .T. ) ;
#194 = AXIS2_PLACEMENT_3D ( 'NONE', #113, #232, #111 ) ;
#195 = ORIENTED_EDGE ( 'NONE', *, *, #105, .T. ) ;
#196 = VERTEX_POINT ( 'NONE', #304 ) ;
#197 = LENGTH_MEASURE_WITH_UNIT ( LENGTH_MEASURE( 0.02539999999999999897 ), #144 );
#198 = ORIENTED_EDGE ( 'NONE', *, *, #63, .T. ) ;
#199 = CIRCLE ( 'NONE', #155, 0.5000000000000000000 ) ;
#200 = AXIS2_PLACEMENT_3D ( 'NONE', #95, #46, #49 ) ;
#201 = DIRECTION ( 'NONE',  ( 2.449293598294704072E-17, 1.000000000000000000, -0.000000000000000000 ) ) ;
#202 = ORIENTED_EDGE ( 'NONE', *, *, #231, .F. ) ;
#203 = DIRECTION ( 'NONE',  ( 2.449293598294704072E-17, 1.000000000000000000, -0.000000000000000000 ) ) ;
#204 = AXIS2_PLACEMENT_3D ( 'NONE', #255, #118, #209 ) ;
#205 = PLANE ( 'NONE',  #148 ) ;
#206 = FACE_OUTER_BOUND ( 'NONE', #77, .T. ) ;
#207 = LENGTH_MEASURE_WITH_UNIT ( LENGTH_MEASURE( 0.02539999999999999897 ), #274 );
#208 = AXIS2_PLACEMENT_3D ( 'NONE', #237, #70, #303 ) ;
#209 = DIRECTION ( 'NONE',  ( 0.000000000000000000, 0.000000000000000000, -1.000000000000000000 ) ) ;
#210 = CARTESIAN_POINT ( 'NONE',  ( 6.123233995736766036E-17, 0.000000000000000000, 0.5000000000000000000 ) ) ;
#211 = CARTESIAN_POINT ( 'NONE',  ( 6.123233995736766036E-17, 2.000000000000000000, 0.5000000000000000000 ) ) ;
#212 = PRODUCT_DEFINITION_FORMATION_WITH_SPECIFIED_SOURCE ( 'ANY', '', #71, .NOT_KNOWN. ) ;
#213 = CARTESIAN_POINT ( 'NONE',  ( 0.000000000000000000, 0.000000000000000000, 0.000000000000000000 ) ) ;
#214 = ORIENTED_EDGE ( 'NONE', *, *, #294, .F. ) ;
#215 =( LENGTH_UNIT ( ) NAMED_UNIT ( * ) SI_UNIT ( $, .METRE. ) );
#216 = DIRECTION ( 'NONE',  ( 0.000000000000000000, 0.000000000000000000, -1.000000000000000000 ) ) ;
#217 = CIRCLE ( 'NONE', #87, 0.5000000000000000000 ) ;
#218 = DIRECTION ( 'NONE',  ( -0.000000000000000000, -1.000000000000000000, -0.000000000000000000 ) ) ;
#219 = DIRECTION ( 'NONE',  ( -0.000000000000000000, -1.000000000000000000, -0.000000000000000000 ) ) ;
#220 = DIRECTION ( 'NONE',  ( 2.449293598294703764E-17, 1.000000000000000000, -0.000000000000000000 ) ) ;
#221 = DIRECTION ( 'NONE',  ( 2.449293598294704072E-17, 1.000000000000000000, -0.000000000000000000 ) ) ;
#222 = UNCERTAINTY_MEASURE_WITH_UNIT (LENGTH_MEASURE( 1.000000000000000082E-05 ), #287, 'distance_accuracy_value', 'NONE');
#223 = CARTESIAN_POINT ( 'NONE',  ( -7.582401355855259480E-33, 2.000000000000000000, 0.000000000000000000 ) ) ;
#224 = PLANE ( 'NONE',  #2 ) ;
#225 = COLOUR_RGB ( '',1.000000000000000000, 0.000000000000000000, 0.000000000000000000 ) ;
#226 = VERTEX_POINT ( 'NONE', #45 ) ;
#227 =( LENGTH_UNIT ( ) NAMED_UNIT ( * ) SI_UNIT ( $, .METRE. ) );
#228 = SURFACE_SIDE_STYLE ('',( #250 ) ) ;
#229 = AXIS2_PLACEMENT_3D ( 'NONE', #240, #221, #27 ) ;
#230 = COLOUR_RGB ( '',1.000000000000000000, 0.000000000000000000, 0.000000000000000000 ) ;
#231 = EDGE_CURVE ( 'NONE', #247, #145, #73, .T. ) ;
#232 = DIRECTION ( 'NONE',  ( 0.000000000000000000, 0.000000000000000000, 1.000000000000000000 ) ) ;
#233 = CARTESIAN_POINT ( 'NONE',  ( 0.000000000000000000, 2.000000000000000000, 0.000000000000000000 ) ) ;
#234 = SURFACE_STYLE_USAGE ( .BOTH. , #257 ) ;
#235 = AXIS2_PLACEMENT_3D ( 'NONE', #53, #36, #170 ) ;
#236 = PRESENTATION_STYLE_ASSIGNMENT (( #234 ) ) ;
#237 = CARTESIAN_POINT ( 'NONE',  ( 6.123233995736759873E-17, 4.500000000000000000, 0.000000000000000000 ) ) ;
#238 = ADVANCED_FACE ( 'NONE', ( #22 ), #117, .F. ) ;
#239 = PRODUCT_DEFINITION_SHAPE ( 'NONE', 'NONE',  #121 ) ;
#240 = CARTESIAN_POINT ( 'NONE',  ( 6.123233995736759873E-17, 4.500000000000000000, 0.000000000000000000 ) ) ;
#241 = SURFACE_STYLE_USAGE ( .BOTH. , #149 ) ;
#242 = VERTEX_POINT ( 'NONE', #23 ) ;
#243 =( GEOMETRIC_REPRESENTATION_CONTEXT ( 3 ) GLOBAL_UNCERTAINTY_ASSIGNED_CONTEXT ( ( #151 ) ) GLOBAL_UNIT_ASSIGNED_CONTEXT ( ( #64, #301, #12 ) ) REPRESENTATION_CONTEXT ( 'NONE', 'WORKASPACE' ) );
#244 =( GEOMETRIC_REPRESENTATION_CONTEXT ( 3 ) GLOBAL_UNCERTAINTY_ASSIGNED_CONTEXT ( ( #161 ) ) GLOBAL_UNIT_ASSIGNED_CONTEXT ( ( #188, #68, #165 ) ) REPRESENTATION_CONTEXT ( 'NONE', 'WORKASPACE' ) );
#245 = ORIENTED_EDGE ( 'NONE', *, *, #193, .T. ) ;
#246 = LINE ( 'NONE', #34, #24 ) ;
#247 = VERTEX_POINT ( 'NONE', #211 ) ;
#248 = COLOUR_RGB ( '',0.7921568627450980005, 0.8196078431372548767, 0.9333333333333333481 ) ;
#249 =( NAMED_UNIT ( * ) SI_UNIT ( $, .STERADIAN. ) SOLID_ANGLE_UNIT ( ) );
#250 = SURFACE_STYLE_FILL_AREA ( #17 ) ;
#251 = SURFACE_STYLE_USAGE ( .BOTH. , #162 ) ;
#252 = DIMENSIONAL_EXPONENTS ( 1.000000000000000000, 0.000000000000000000, 0.000000000000000000, 0.000000000000000000, 0.000000000000000000, 0.000000000000000000, 0.000000000000000000 ) ;
#253 = LINE ( 'NONE', #191, #160 ) ;
#254 = ADVANCED_BREP_SHAPE_REPRESENTATION ( '81848', ( #85, #280, #194 ), #283 ) ;
#255 = CARTESIAN_POINT ( 'NONE',  ( 0.000000000000000000, 0.000000000000000000, 0.000000000000000000 ) ) ;
#256 = ORIENTED_EDGE ( 'NONE', *, *, #294, .T. ) ;
#257 = SURFACE_SIDE_STYLE ('',( #1 ) ) ;
#258 = DIRECTION ( 'NONE',  ( -0.000000000000000000, -1.000000000000000000, -0.000000000000000000 ) ) ;
#259 = STYLED_ITEM ( 'NONE', ( #42 ), #99 ) ;
#260 = FILL_AREA_STYLE ('',( #80 ) ) ;
#261 = FACE_OUTER_BOUND ( 'NONE', #150, .T. ) ;
#262 = DIRECTION ( 'NONE',  ( -0.000000000000000000, -1.000000000000000000, -0.000000000000000000 ) ) ;
#263 = SURFACE_STYLE_USAGE ( .BOTH. , #174 ) ;
#264 = CLOSED_SHELL ( 'NONE', ( #94, #238, #90, #41 ) ) ;
#265 = SURFACE_STYLE_FILL_AREA ( #126 ) ;
#266 = CARTESIAN_POINT ( 'NONE',  ( 0.000000000000000000, 2.000000000000000000, 0.000000000000000000 ) ) ;
#267 = LENGTH_MEASURE_WITH_UNIT ( LENGTH_MEASURE( 0.02539999999999999897 ), #215 );
#268 = DIRECTION ( 'NONE',  ( 2.449293598294704072E-17, 1.000000000000000000, -0.000000000000000000 ) ) ;
#269 = STYLED_ITEM ( 'NONE', ( #236 ), #141 ) ;
#270 =( LENGTH_UNIT ( ) NAMED_UNIT ( * ) SI_UNIT ( $, .METRE. ) );
#271 = CLOSED_SHELL ( 'NONE', ( #286, #82, #141, #99 ) ) ;
#272 = VECTOR ( 'NONE', #220, 39.37007874015748143 ) ;
#273 = DIRECTION ( 'NONE',  ( -1.000000000000000000, 0.000000000000000000, 0.000000000000000000 ) ) ;
#274 =( LENGTH_UNIT ( ) NAMED_UNIT ( * ) SI_UNIT ( $, .METRE. ) );
#275 = DIRECTION ( 'NONE',  ( 0.000000000000000000, -1.000000000000000000, -0.000000000000000000 ) ) ;
#276 = FILL_AREA_STYLE_COLOUR ( '', #230 ) ;
#277 = CARTESIAN_POINT ( 'NONE',  ( 0.000000000000000000, 0.000000000000000000, 0.000000000000000000 ) ) ;
#278 = EDGE_CURVE ( 'NONE', #72, #172, #309, .T. ) ;
#279 = DIRECTION ( 'NONE',  ( 2.449293598294703764E-17, 1.000000000000000000, -0.000000000000000000 ) ) ;
#280 = MANIFOLD_SOLID_BREP ( 'Revolve - Tool Body (Straight Shanked)', #264 ) ;
#281 =( NAMED_UNIT ( * ) PLANE_ANGLE_UNIT ( ) SI_UNIT ( $, .RADIAN. ) );
#282 = EDGE_LOOP ( 'NONE', ( #103, #214 ) ) ;
#283 =( GEOMETRIC_REPRESENTATION_CONTEXT ( 3 ) GLOBAL_UNCERTAINTY_ASSIGNED_CONTEXT ( ( #59 ) ) GLOBAL_UNIT_ASSIGNED_CONTEXT ( ( #25, #35, #249 ) ) REPRESENTATION_CONTEXT ( 'NONE', 'WORKASPACE' ) );
#284 = SURFACE_STYLE_USAGE ( .BOTH. , #102 ) ;
#285 = CARTESIAN_POINT ( 'NONE',  ( 0.000000000000000000, 0.000000000000000000, 0.000000000000000000 ) ) ;
#286 = ADVANCED_FACE ( 'NONE', ( #50 ), #33, .T. ) ;
#287 =( CONVERSION_BASED_UNIT ( 'INCH', #197 ) LENGTH_UNIT ( ) NAMED_UNIT ( #295 ) );
#288 = FILL_AREA_STYLE ('',( #104 ) ) ;
#289 = ORIENTED_EDGE ( 'NONE', *, *, #38, .T. ) ;
#290 = PRESENTATION_LAYER_ASSIGNMENT (  '', '', ( #114 ) ) ;
#291 =( GEOMETRIC_REPRESENTATION_CONTEXT ( 3 ) GLOBAL_UNCERTAINTY_ASSIGNED_CONTEXT ( ( #222 ) ) GLOBAL_UNIT_ASSIGNED_CONTEXT ( ( #287, #281, #152 ) ) REPRESENTATION_CONTEXT ( 'NONE', 'WORKASPACE' ) );
#292 = DIRECTION ( 'NONE',  ( -0.000000000000000000, -1.000000000000000000, -0.000000000000000000 ) ) ;
#293 = DIRECTION ( 'NONE',  ( 0.000000000000000000, 0.000000000000000000, -1.000000000000000000 ) ) ;
#294 = EDGE_CURVE ( 'NONE', #72, #196, #164, .T. ) ;
#295 = DIMENSIONAL_EXPONENTS ( 1.000000000000000000, 0.000000000000000000, 0.000000000000000000, 0.000000000000000000, 0.000000000000000000, 0.000000000000000000, 0.000000000000000000 ) ;
#296 = FILL_AREA_STYLE_COLOUR ( '', #225 ) ;
#297 =( NAMED_UNIT ( * ) PLANE_ANGLE_UNIT ( ) SI_UNIT ( $, .RADIAN. ) );
#298 = CIRCLE ( 'NONE', #116, 0.5000000000000000000 ) ;
#299 = LENGTH_MEASURE_WITH_UNIT ( LENGTH_MEASURE( 0.02539999999999999897 ), #270 );
#300 = CYLINDRICAL_SURFACE ( 'NONE', #92, 0.5000000000000000000 ) ;
#301 =( NAMED_UNIT ( * ) PLANE_ANGLE_UNIT ( ) SI_UNIT ( $, .RADIAN. ) );
#302 = PRESENTATION_LAYER_ASSIGNMENT (  '', '', ( #259 ) ) ;
#303 = DIRECTION ( 'NONE',  ( -1.000000000000000000, 0.000000000000000000, 0.000000000000000000 ) ) ;
#304 = CARTESIAN_POINT ( 'NONE',  ( -0.5000000000000000000, 2.000000000000000000, 0.000000000000000000 ) ) ;
#305 = ORIENTED_EDGE ( 'NONE', *, *, #31, .F. ) ;
#306 = CIRCLE ( 'NONE', #208, 0.4999999999999999445 ) ;
#307 = EDGE_CURVE ( 'NONE', #145, #242, #217, .T. ) ;
#308 = PRESENTATION_LAYER_ASSIGNMENT (  '', '', ( #101 ) ) ;
#309 = LINE ( 'NONE', #173, #272 ) ;
ENDSEC;
END-ISO-10303-21;
