ISO-10303-21;
HEADER;
FILE_DESCRIPTION (( 'STEP AP214' ),
    '1' );
FILE_NAME ('Micro_SHR-375-4X.STEP',
    '2021-09-02T08:50:31',
    ( '' ),
    ( '' ),
    'SwSTEP 2.0',
    'SolidWorks 2020',
    '' );
FILE_SCHEMA (( 'AUTOMOTIVE_DESIGN' ));
ENDSEC;

DATA;
#1 = DIRECTION ( 'NONE',  ( -1.000000000000000000, 0.0000000000000000000, 1.224646799147352961E-16 ) ) ;
#2 = CARTESIAN_POINT ( 'NONE',  ( -0.1874999999999999167, 0.0000000000000000000, 0.8760633653411783461 ) ) ;
#3 = SURFACE_STYLE_FILL_AREA ( #138 ) ;
#4 = CYLINDRICAL_SURFACE ( 'NONE', #44, 0.1873124999999999929 ) ;
#5 = ADVANCED_FACE ( 'NONE', ( #220 ), #153, .T. ) ;
#6 = DIRECTION ( 'NONE',  ( -0.1736481776669311916, 2.126576849575783316E-17, 0.9848077530122080203 ) ) ;
#7 = PLANE ( 'NONE',  #27 ) ;
#8 = SURFACE_SIDE_STYLE ('',( #3 ) ) ;
#9 = DIRECTION ( 'NONE',  ( 1.000000000000000000, 0.0000000000000000000, 0.0000000000000000000 ) ) ;
#10 = VECTOR ( 'NONE', #228, 39.37007874015748143 ) ;
#11 = EDGE_LOOP ( 'NONE', ( #79, #291, #124, #167 ) ) ;
#12 = FILL_AREA_STYLE_COLOUR ( '', #219 ) ;
#13 = EDGE_CURVE ( 'NONE', #125, #105, #240, .T. ) ;
#14 = EDGE_LOOP ( 'NONE', ( #62, #196 ) ) ;
#15 = ORIENTED_EDGE ( 'NONE', *, *, #163, .T. ) ;
#16 = VECTOR ( 'NONE', #34, 39.37007874015748854 ) ;
#17 = EDGE_LOOP ( 'NONE', ( #165, #289, #246, #171 ) ) ;
#18 = FACE_OUTER_BOUND ( 'NONE', #11, .T. ) ;
#19 = CARTESIAN_POINT ( 'NONE',  ( 0.0000000000000000000, 0.0000000000000000000, 2.500000000000000000 ) ) ;
#20 = AXIS2_PLACEMENT_3D ( 'NONE', #120, #271, #1 ) ;
#21 = DIRECTION ( 'NONE',  ( 0.0000000000000000000, 0.0000000000000000000, -1.000000000000000000 ) ) ;
#22 = CARTESIAN_POINT ( 'NONE',  ( -0.1873124999999999929, 0.0000000000000000000, 4.587833071305771192E-17 ) ) ;
#23 = EDGE_CURVE ( 'NONE', #42, #192, #48, .T. ) ;
#24 = APPLICATION_CONTEXT ( 'automotive_design' ) ;
#25 = CARTESIAN_POINT ( 'NONE',  ( 0.0000000000000000000, 0.0000000000000000000, 2.500000000000000000 ) ) ;
#26 = CIRCLE ( 'NONE', #198, 0.1873124999999999929 ) ;
#27 = AXIS2_PLACEMENT_3D ( 'NONE', #278, #161, #249 ) ;
#28 =( CONVERSION_BASED_UNIT ( 'INCH', #91 ) LENGTH_UNIT ( ) NAMED_UNIT ( #162 ) );
#29 = DIRECTION ( 'NONE',  ( -1.000000000000000000, 0.0000000000000000000, 1.224646799147352961E-16 ) ) ;
#30 = LINE ( 'NONE', #116, #298 ) ;
#31 = LINE ( 'NONE', #284, #241 ) ;
#32 = VECTOR ( 'NONE', #262, 39.37007874015748143 ) ;
#33 =( GEOMETRIC_REPRESENTATION_CONTEXT ( 3 ) GLOBAL_UNCERTAINTY_ASSIGNED_CONTEXT ( ( #155 ) ) GLOBAL_UNIT_ASSIGNED_CONTEXT ( ( #99, #191, #234 ) ) REPRESENTATION_CONTEXT ( 'NONE', 'WORKASPACE' ) );
#34 = DIRECTION ( 'NONE',  ( 0.7071067811865385799, 8.659560562354823157E-17, -0.7071067811865563435 ) ) ;
#35 = EDGE_CURVE ( 'NONE', #82, #64, #26, .T. ) ;
#36 = DIRECTION ( 'NONE',  ( 1.224646799147353207E-16, 0.0000000000000000000, 1.000000000000000000 ) ) ;
#37 = EDGE_CURVE ( 'NONE', #242, #64, #217, .T. ) ;
#38 = PLANE ( 'NONE',  #74 ) ;
#39 = ORIENTED_EDGE ( 'NONE', *, *, #55, .F. ) ;
#40 = LENGTH_MEASURE_WITH_UNIT ( LENGTH_MEASURE( 0.02539999999999999897 ), #97 );
#41 = AXIS2_PLACEMENT_3D ( 'NONE', #25, #295, #177 ) ;
#42 = VERTEX_POINT ( 'NONE', #199 ) ;
#43 = VERTEX_POINT ( 'NONE', #130 ) ;
#44 = AXIS2_PLACEMENT_3D ( 'NONE', #139, #154, #93 ) ;
#45 = DIRECTION ( 'NONE',  ( 1.000000000000000000, 0.0000000000000000000, 0.0000000000000000000 ) ) ;
#46 = FACE_OUTER_BOUND ( 'NONE', #285, .T. ) ;
#47 = DIRECTION ( 'NONE',  ( -1.224646799147353207E-16, -0.0000000000000000000, -1.000000000000000000 ) ) ;
#48 = CIRCLE ( 'NONE', #207, 0.1875000000000000278 ) ;
#49 = DIRECTION ( 'NONE',  ( 1.000000000000000000, 0.0000000000000000000, 0.0000000000000000000 ) ) ;
#50 = CARTESIAN_POINT ( 'NONE',  ( 0.1875000000000000278, 2.296212748401287726E-17, 2.500000000000000000 ) ) ;
#51 = CARTESIAN_POINT ( 'NONE',  ( 1.071565949253934025E-16, 0.0000000000000000000, 0.8750000000000000000 ) ) ;
#52 = AXIS2_PLACEMENT_3D ( 'NONE', #72, #206, #29 ) ;
#53 = SURFACE_STYLE_FILL_AREA ( #281 ) ;
#54 =( NAMED_UNIT ( * ) SI_UNIT ( $, .STERADIAN. ) SOLID_ANGLE_UNIT ( ) );
#55 = EDGE_CURVE ( 'NONE', #105, #125, #290, .T. ) ;
#56 = EDGE_CURVE ( 'NONE', #215, #43, #231, .T. ) ;
#57 = CARTESIAN_POINT ( 'NONE',  ( -0.1724999999999995981, 0.0000000000000000000, 2.500000000000000000 ) ) ;
#58 = DIRECTION ( 'NONE',  ( 1.000000000000000000, 0.0000000000000000000, 0.0000000000000000000 ) ) ;
#59 = AXIS2_PLACEMENT_3D ( 'NONE', #200, #86, #45 ) ;
#60 = FACE_OUTER_BOUND ( 'NONE', #145, .T. ) ;
#61 = CARTESIAN_POINT ( 'NONE',  ( 1.071565949253934025E-16, 0.0000000000000000000, 0.8750000000000000000 ) ) ;
#62 = ORIENTED_EDGE ( 'NONE', *, *, #56, .T. ) ;
#63 = ORIENTED_EDGE ( 'NONE', *, *, #277, .T. ) ;
#64 = VERTEX_POINT ( 'NONE', #22 ) ;
#65 = ORIENTED_EDGE ( 'NONE', *, *, #277, .F. ) ;
#66 = AXIS2_PLACEMENT_3D ( 'NONE', #186, #226, #180 ) ;
#67 = EDGE_LOOP ( 'NONE', ( #188, #78, #212, #169 ) ) ;
#68 = DIRECTION ( 'NONE',  ( -1.000000000000000000, 0.0000000000000000000, 0.0000000000000000000 ) ) ;
#69 = LINE ( 'NONE', #50, #32 ) ;
#70 = CARTESIAN_POINT ( 'NONE',  ( 0.1875000000000000278, 2.296212748401287726E-17, 2.484999999999999432 ) ) ;
#71 = CARTESIAN_POINT ( 'NONE',  ( 0.1873125000000001317, 0.0000000000000000000, 0.8750000000000000000 ) ) ;
#72 = CARTESIAN_POINT ( 'NONE',  ( 2.809237542898491532E-33, 0.0000000000000000000, 2.293916535652885596E-17 ) ) ;
#73 = AXIS2_PLACEMENT_3D ( 'NONE', #299, #176, #270 ) ;
#74 = AXIS2_PLACEMENT_3D ( 'NONE', #276, #182, #252 ) ;
#75 =( NAMED_UNIT ( * ) SI_UNIT ( $, .STERADIAN. ) SOLID_ANGLE_UNIT ( ) );
#76 = DIRECTION ( 'NONE',  ( -0.0000000000000000000, -0.0000000000000000000, -1.000000000000000000 ) ) ;
#77 = CONICAL_SURFACE ( 'NONE', #218, 0.1724999999999995981, 0.7853981633974357335 ) ;
#78 = ORIENTED_EDGE ( 'NONE', *, *, #175, .T. ) ;
#79 = ORIENTED_EDGE ( 'NONE', *, *, #158, .F. ) ;
#80 = AXIS2_PLACEMENT_3D ( 'NONE', #224, #36, #9 ) ;
#81 = ORIENTED_EDGE ( 'NONE', *, *, #160, .F. ) ;
#82 = VERTEX_POINT ( 'NONE', #201 ) ;
#83 = DIRECTION ( 'NONE',  ( 0.0000000000000000000, 0.0000000000000000000, -1.000000000000000000 ) ) ;
#84 = AXIS2_PLACEMENT_3D ( 'NONE', #223, #111, #179 ) ;
#85 = CARTESIAN_POINT ( 'NONE',  ( -0.1873124999999999929, 0.0000000000000000000, 2.293916535652885596E-17 ) ) ;
#86 = DIRECTION ( 'NONE',  ( 1.224646799147353207E-16, 0.0000000000000000000, 1.000000000000000000 ) ) ;
#87 = DIRECTION ( 'NONE',  ( -0.0000000000000000000, -0.0000000000000000000, -1.000000000000000000 ) ) ;
#88 = CIRCLE ( 'NONE', #112, 0.1724999999999995981 ) ;
#89 = AXIS2_PLACEMENT_3D ( 'NONE', #187, #251, #58 ) ;
#90 = LINE ( 'NONE', #247, #250 ) ;
#91 = LENGTH_MEASURE_WITH_UNIT ( LENGTH_MEASURE( 0.02539999999999999897 ), #209 );
#92 = CIRCLE ( 'NONE', #84, 0.1875000000000000278 ) ;
#93 = DIRECTION ( 'NONE',  ( -1.000000000000000000, 0.0000000000000000000, 1.224646799147352961E-16 ) ) ;
#94 = LINE ( 'NONE', #157, #10 ) ;
#95 = DIMENSIONAL_EXPONENTS ( 1.000000000000000000, 0.0000000000000000000, 0.0000000000000000000, 0.0000000000000000000, 0.0000000000000000000, 0.0000000000000000000, 0.0000000000000000000 ) ;
#96 = DIRECTION ( 'NONE',  ( -1.224646799147353207E-16, -0.0000000000000000000, -1.000000000000000000 ) ) ;
#97 =( LENGTH_UNIT ( ) NAMED_UNIT ( * ) SI_UNIT ( $, .METRE. ) );
#98 = EDGE_LOOP ( 'NONE', ( #259, #63, #260, #144 ) ) ;
#99 =( CONVERSION_BASED_UNIT ( 'INCH', #40 ) LENGTH_UNIT ( ) NAMED_UNIT ( #95 ) );
#100 = ORIENTED_EDGE ( 'NONE', *, *, #239, .F. ) ;
#101 = APPLICATION_PROTOCOL_DEFINITION ( 'draft international standard', 'automotive_design', 1998, #297 ) ;
#102 = ADVANCED_FACE ( 'NONE', ( #46 ), #77, .T. ) ;
#103 = STYLED_ITEM ( 'NONE', ( #156 ), #213 ) ;
#104 = EDGE_LOOP ( 'NONE', ( #265, #237 ) ) ;
#105 = VERTEX_POINT ( 'NONE', #268 ) ;
#106 = FACE_OUTER_BOUND ( 'NONE', #67, .T. ) ;
#107 = CARTESIAN_POINT ( 'NONE',  ( 2.809237542898491532E-33, 0.0000000000000000000, 2.293916535652885596E-17 ) ) ;
#108 = CIRCLE ( 'NONE', #52, 0.1873124999999999929 ) ;
#109 = CYLINDRICAL_SURFACE ( 'NONE', #136, 0.1875000000000000278 ) ;
#110 = DIRECTION ( 'NONE',  ( 0.1736481776669313859, 0.0000000000000000000, 0.9848077530122077983 ) ) ;
#111 = DIRECTION ( 'NONE',  ( -1.224646799147353207E-16, -0.0000000000000000000, -1.000000000000000000 ) ) ;
#112 = AXIS2_PLACEMENT_3D ( 'NONE', #19, #173, #149 ) ;
#113 = MECHANICAL_DESIGN_GEOMETRIC_PRESENTATION_REPRESENTATION (  '', ( #245 ), #33 ) ;
#114 = CARTESIAN_POINT ( 'NONE',  ( -0.1873124999999999096, 2.295064642027087123E-17, 0.8750000000000000000 ) ) ;
#115 = SURFACE_STYLE_USAGE ( .BOTH. , #274 ) ;
#116 = CARTESIAN_POINT ( 'NONE',  ( -0.1875000000000000278, 0.0000000000000000000, 2.500000000000000000 ) ) ;
#117 = VECTOR ( 'NONE', #197, 39.37007874015748143 ) ;
#118 = FILL_AREA_STYLE_COLOUR ( '', #273 ) ;
#119 = ADVANCED_FACE ( 'NONE', ( #18 ), #109, .T. ) ;
#120 = CARTESIAN_POINT ( 'NONE',  ( 0.0000000000000000000, 0.0000000000000000000, 0.0000000000000000000 ) ) ;
#121 =( CONVERSION_BASED_UNIT ( 'INCH', #235 ) LENGTH_UNIT ( ) NAMED_UNIT ( #253 ) );
#122 = ORIENTED_EDGE ( 'NONE', *, *, #160, .T. ) ;
#123 = ORIENTED_EDGE ( 'NONE', *, *, #288, .F. ) ;
#124 = ORIENTED_EDGE ( 'NONE', *, *, #222, .T. ) ;
#125 = VERTEX_POINT ( 'NONE', #70 ) ;
#126 = EDGE_CURVE ( 'NONE', #43, #215, #88, .T. ) ;
#127 = VECTOR ( 'NONE', #110, 39.37007874015748143 ) ;
#128 = ORIENTED_EDGE ( 'NONE', *, *, #13, .F. ) ;
#129 = CARTESIAN_POINT ( 'NONE',  ( 0.0000000000000000000, 0.0000000000000000000, 2.500000000000000000 ) ) ;
#130 = CARTESIAN_POINT ( 'NONE',  ( 0.1724999999999995981, 2.204364238465233357E-17, 2.500000000000000000 ) ) ;
#131 = EDGE_CURVE ( 'NONE', #215, #105, #90, .T. ) ;
#132 =( GEOMETRIC_REPRESENTATION_CONTEXT ( 3 ) GLOBAL_UNCERTAINTY_ASSIGNED_CONTEXT ( ( #225 ) ) GLOBAL_UNIT_ASSIGNED_CONTEXT ( ( #28, #275, #75 ) ) REPRESENTATION_CONTEXT ( 'NONE', 'WORKASPACE' ) );
#133 = DIRECTION ( 'NONE',  ( -0.7071067811865385799, 0.0000000000000000000, -0.7071067811865563435 ) ) ;
#134 = DIRECTION ( 'NONE',  ( -1.000000000000000000, 0.0000000000000000000, 1.224646799147352961E-16 ) ) ;
#135 = CARTESIAN_POINT ( 'NONE',  ( 0.0000000000000000000, 0.0000000000000000000, 2.484999999999999432 ) ) ;
#136 = AXIS2_PLACEMENT_3D ( 'NONE', #129, #87, #68 ) ;
#137 = FACE_OUTER_BOUND ( 'NONE', #286, .T. ) ;
#138 = FILL_AREA_STYLE ('',( #12 ) ) ;
#139 = CARTESIAN_POINT ( 'NONE',  ( 0.0000000000000000000, 0.0000000000000000000, 0.0000000000000000000 ) ) ;
#140 = CIRCLE ( 'NONE', #267, 0.1873125000000000207 ) ;
#141 = CYLINDRICAL_SURFACE ( 'NONE', #20, 0.1873124999999999929 ) ;
#142 = DIRECTION ( 'NONE',  ( -1.224646799147353207E-16, -0.0000000000000000000, -1.000000000000000000 ) ) ;
#143 = MECHANICAL_DESIGN_GEOMETRIC_PRESENTATION_REPRESENTATION (  '', ( #103 ), #132 ) ;
#144 = ORIENTED_EDGE ( 'NONE', *, *, #35, .F. ) ;
#145 = EDGE_LOOP ( 'NONE', ( #293, #210, #15, #81 ) ) ;
#146 =( GEOMETRIC_REPRESENTATION_CONTEXT ( 3 ) GLOBAL_UNCERTAINTY_ASSIGNED_CONTEXT ( ( #178 ) ) GLOBAL_UNIT_ASSIGNED_CONTEXT ( ( #121, #190, #54 ) ) REPRESENTATION_CONTEXT ( 'NONE', 'WORKASPACE' ) );
#147 = EDGE_LOOP ( 'NONE', ( #123, #65, #122, #254 ) ) ;
#148 = CARTESIAN_POINT ( 'NONE',  ( 0.0000000000000000000, 0.0000000000000000000, 2.484999999999999432 ) ) ;
#149 = DIRECTION ( 'NONE',  ( 1.000000000000000000, 0.0000000000000000000, 0.0000000000000000000 ) ) ;
#150 = ADVANCED_FACE ( 'NONE', ( #216 ), #282, .T. ) ;
#151 = AXIS2_PLACEMENT_3D ( 'NONE', #135, #174, #292 ) ;
#152 = LINE ( 'NONE', #221, #127 ) ;
#153 = CYLINDRICAL_SURFACE ( 'NONE', #41, 0.1875000000000000278 ) ;
#154 = DIRECTION ( 'NONE',  ( -1.224646799147353207E-16, -0.0000000000000000000, -1.000000000000000000 ) ) ;
#155 = UNCERTAINTY_MEASURE_WITH_UNIT (LENGTH_MEASURE( 1.000000000000000082E-05 ), #99, 'distance_accuracy_value', 'NONE');
#156 = PRESENTATION_STYLE_ASSIGNMENT (( #115 ) ) ;
#157 = CARTESIAN_POINT ( 'NONE',  ( 0.1873124999999999929, 2.293916535652885596E-17, -2.293916535652885596E-17 ) ) ;
#158 = EDGE_CURVE ( 'NONE', #125, #42, #69, .T. ) ;
#159 =( LENGTH_UNIT ( ) NAMED_UNIT ( * ) SI_UNIT ( $, .METRE. ) );
#160 = EDGE_CURVE ( 'NONE', #166, #42, #152, .T. ) ;
#161 = DIRECTION ( 'NONE',  ( 0.0000000000000000000, 0.0000000000000000000, 1.000000000000000000 ) ) ;
#162 = DIMENSIONAL_EXPONENTS ( 1.000000000000000000, 0.0000000000000000000, 0.0000000000000000000, 0.0000000000000000000, 0.0000000000000000000, 0.0000000000000000000, 0.0000000000000000000 ) ;
#163 = EDGE_CURVE ( 'NONE', #192, #42, #92, .T. ) ;
#164 = PRODUCT_CONTEXT ( 'NONE', #24, 'mechanical' ) ;
#165 = ORIENTED_EDGE ( 'NONE', *, *, #55, .T. ) ;
#166 = VERTEX_POINT ( 'NONE', #71 ) ;
#167 = ORIENTED_EDGE ( 'NONE', *, *, #23, .F. ) ;
#168 = ADVANCED_FACE ( 'NONE', ( #106 ), #141, .T. ) ;
#169 = ORIENTED_EDGE ( 'NONE', *, *, #37, .F. ) ;
#170 = PRODUCT_RELATED_PRODUCT_CATEGORY ( 'part', '', ( #264 ) ) ;
#171 = ORIENTED_EDGE ( 'NONE', *, *, #222, .F. ) ;
#172 = AXIS2_PLACEMENT_3D ( 'NONE', #51, #96, #204 ) ;
#173 = DIRECTION ( 'NONE',  ( 0.0000000000000000000, 0.0000000000000000000, 1.000000000000000000 ) ) ;
#174 = DIRECTION ( 'NONE',  ( 0.0000000000000000000, 0.0000000000000000000, -1.000000000000000000 ) ) ;
#175 = EDGE_CURVE ( 'NONE', #166, #82, #94, .T. ) ;
#176 = DIRECTION ( 'NONE',  ( 0.0000000000000000000, 0.0000000000000000000, 1.000000000000000000 ) ) ;
#177 = DIRECTION ( 'NONE',  ( -1.000000000000000000, 0.0000000000000000000, 0.0000000000000000000 ) ) ;
#178 = UNCERTAINTY_MEASURE_WITH_UNIT (LENGTH_MEASURE( 1.000000000000000082E-05 ), #121, 'distance_accuracy_value', 'NONE');
#179 = DIRECTION ( 'NONE',  ( 1.000000000000000000, 0.0000000000000000000, 0.0000000000000000000 ) ) ;
#180 = DIRECTION ( 'NONE',  ( -1.000000000000000000, 0.0000000000000000000, 0.0000000000000000000 ) ) ;
#181 = CONICAL_SURFACE ( 'NONE', #80, 0.1873125000000000207, 0.1745329251994338915 ) ;
#182 = DIRECTION ( 'NONE',  ( 0.0000000000000000000, 0.0000000000000000000, 1.000000000000000000 ) ) ;
#183 = FACE_OUTER_BOUND ( 'NONE', #104, .T. ) ;
#184 = SURFACE_STYLE_USAGE ( .BOTH. , #8 ) ;
#185 = EDGE_CURVE ( 'NONE', #64, #82, #108, .T. ) ;
#186 = CARTESIAN_POINT ( 'NONE',  ( 0.0000000000000000000, 0.0000000000000000000, 2.500000000000000000 ) ) ;
#187 = CARTESIAN_POINT ( 'NONE',  ( 0.0000000000000000000, 0.0000000000000000000, 0.0000000000000000000 ) ) ;
#188 = ORIENTED_EDGE ( 'NONE', *, *, #280, .T. ) ;
#189 = SHAPE_DEFINITION_REPRESENTATION ( #261, #272 ) ;
#190 =( NAMED_UNIT ( * ) PLANE_ANGLE_UNIT ( ) SI_UNIT ( $, .RADIAN. ) );
#191 =( NAMED_UNIT ( * ) PLANE_ANGLE_UNIT ( ) SI_UNIT ( $, .RADIAN. ) );
#192 = VERTEX_POINT ( 'NONE', #2 ) ;
#193 = ADVANCED_FACE ( 'NONE', ( #137 ), #211, .T. ) ;
#194 = PRODUCT_DEFINITION_FORMATION_WITH_SPECIFIED_SOURCE ( 'ANY', '', #264, .NOT_KNOWN. ) ;
#195 = ORIENTED_EDGE ( 'NONE', *, *, #239, .T. ) ;
#196 = ORIENTED_EDGE ( 'NONE', *, *, #126, .T. ) ;
#197 = DIRECTION ( 'NONE',  ( -1.224646799147353207E-16, -0.0000000000000000000, -1.000000000000000000 ) ) ;
#198 = AXIS2_PLACEMENT_3D ( 'NONE', #107, #47, #134 ) ;
#199 = CARTESIAN_POINT ( 'NONE',  ( 0.1875000000000000833, 2.296212748401288650E-17, 0.8760633653411783461 ) ) ;
#200 = CARTESIAN_POINT ( 'NONE',  ( 1.071565949253934025E-16, 0.0000000000000000000, 0.8750000000000000000 ) ) ;
#201 = CARTESIAN_POINT ( 'NONE',  ( 0.1873124999999999929, 2.293916535652885596E-17, 0.0000000000000000000 ) ) ;
#202 = DIRECTION ( 'NONE',  ( -1.000000000000000000, 0.0000000000000000000, 0.0000000000000000000 ) ) ;
#203 = PRODUCT_DEFINITION_CONTEXT ( 'detailed design', #297, 'design' ) ;
#204 = DIRECTION ( 'NONE',  ( -1.000000000000000000, 0.0000000000000000000, 0.0000000000000000000 ) ) ;
#205 = DIRECTION ( 'NONE',  ( -1.000000000000000000, 0.0000000000000000000, 0.0000000000000000000 ) ) ;
#206 = DIRECTION ( 'NONE',  ( -1.224646799147353207E-16, -0.0000000000000000000, -1.000000000000000000 ) ) ;
#207 = AXIS2_PLACEMENT_3D ( 'NONE', #296, #243, #49 ) ;
#208 = FACE_OUTER_BOUND ( 'NONE', #14, .T. ) ;
#209 =( LENGTH_UNIT ( ) NAMED_UNIT ( * ) SI_UNIT ( $, .METRE. ) );
#210 = ORIENTED_EDGE ( 'NONE', *, *, #288, .T. ) ;
#211 = CONICAL_SURFACE ( 'NONE', #66, 0.1724999999999995981, 0.7853981633974357335 ) ;
#212 = ORIENTED_EDGE ( 'NONE', *, *, #185, .F. ) ;
#213 = MANIFOLD_SOLID_BREP ( 'Cut-Revolve1', #229 ) ;
#214 = ORIENTED_EDGE ( 'NONE', *, *, #131, .T. ) ;
#215 = VERTEX_POINT ( 'NONE', #57 ) ;
#216 = FACE_OUTER_BOUND ( 'NONE', #147, .T. ) ;
#217 = LINE ( 'NONE', #85, #117 ) ;
#218 = AXIS2_PLACEMENT_3D ( 'NONE', #263, #83, #202 ) ;
#219 = COLOUR_RGB ( '',0.7921568627450980005, 0.8196078431372548767, 0.9333333333333333481 ) ;
#220 = FACE_OUTER_BOUND ( 'NONE', #17, .T. ) ;
#221 = CARTESIAN_POINT ( 'NONE',  ( 0.1873125000000001317, 0.0000000000000000000, 0.8750000000000000000 ) ) ;
#222 = EDGE_CURVE ( 'NONE', #105, #192, #30, .T. ) ;
#223 = CARTESIAN_POINT ( 'NONE',  ( 1.072868196215332272E-16, 0.0000000000000000000, 0.8760633653411783461 ) ) ;
#224 = CARTESIAN_POINT ( 'NONE',  ( 1.071565949253934025E-16, 0.0000000000000000000, 0.8750000000000000000 ) ) ;
#225 = UNCERTAINTY_MEASURE_WITH_UNIT (LENGTH_MEASURE( 1.000000000000000082E-05 ), #28, 'distance_accuracy_value', 'NONE');
#226 = DIRECTION ( 'NONE',  ( 0.0000000000000000000, 0.0000000000000000000, -1.000000000000000000 ) ) ;
#227 = PRODUCT_DEFINITION ( 'UNKNOWN', '', #194, #203 ) ;
#228 = DIRECTION ( 'NONE',  ( -1.224646799147353207E-16, -0.0000000000000000000, -1.000000000000000000 ) ) ;
#229 = CLOSED_SHELL ( 'NONE', ( #168, #269, #102, #5, #119, #258, #193, #150, #236, #294 ) ) ;
#230 = CARTESIAN_POINT ( 'NONE',  ( 0.1724999999999995981, 2.112515728529179297E-17, 2.500000000000000000 ) ) ;
#231 = CIRCLE ( 'NONE', #73, 0.1724999999999995981 ) ;
#232 = PRESENTATION_LAYER_ASSIGNMENT (  '', '', ( #245 ) ) ;
#233 = FACE_OUTER_BOUND ( 'NONE', #98, .T. ) ;
#234 =( NAMED_UNIT ( * ) SI_UNIT ( $, .STERADIAN. ) SOLID_ANGLE_UNIT ( ) );
#235 = LENGTH_MEASURE_WITH_UNIT ( LENGTH_MEASURE( 0.02539999999999999897 ), #159 );
#236 = ADVANCED_FACE ( 'NONE', ( #233 ), #4, .T. ) ;
#237 = ORIENTED_EDGE ( 'NONE', *, *, #35, .T. ) ;
#238 = ORIENTED_EDGE ( 'NONE', *, *, #56, .F. ) ;
#239 = EDGE_CURVE ( 'NONE', #43, #125, #248, .T. ) ;
#240 = CIRCLE ( 'NONE', #256, 0.1875000000000000278 ) ;
#241 = VECTOR ( 'NONE', #6, 39.37007874015747433 ) ;
#242 = VERTEX_POINT ( 'NONE', #114 ) ;
#243 = DIRECTION ( 'NONE',  ( -1.224646799147353207E-16, -0.0000000000000000000, -1.000000000000000000 ) ) ;
#244 = DIRECTION ( 'NONE',  ( 1.000000000000000000, 0.0000000000000000000, 0.0000000000000000000 ) ) ;
#245 = STYLED_ITEM ( 'NONE', ( #279 ), #272 ) ;
#246 = ORIENTED_EDGE ( 'NONE', *, *, #163, .F. ) ;
#247 = CARTESIAN_POINT ( 'NONE',  ( -0.1724999999999995981, 0.0000000000000000000, 2.500000000000000000 ) ) ;
#248 = LINE ( 'NONE', #230, #16 ) ;
#249 = DIRECTION ( 'NONE',  ( 1.000000000000000000, 0.0000000000000000000, -0.0000000000000000000 ) ) ;
#250 = VECTOR ( 'NONE', #133, 39.37007874015748854 ) ;
#251 = DIRECTION ( 'NONE',  ( 0.0000000000000000000, 0.0000000000000000000, 1.000000000000000000 ) ) ;
#252 = DIRECTION ( 'NONE',  ( 1.000000000000000000, 0.0000000000000000000, -0.0000000000000000000 ) ) ;
#253 = DIMENSIONAL_EXPONENTS ( 1.000000000000000000, 0.0000000000000000000, 0.0000000000000000000, 0.0000000000000000000, 0.0000000000000000000, 0.0000000000000000000, 0.0000000000000000000 ) ;
#254 = ORIENTED_EDGE ( 'NONE', *, *, #23, .T. ) ;
#255 = ORIENTED_EDGE ( 'NONE', *, *, #126, .F. ) ;
#256 = AXIS2_PLACEMENT_3D ( 'NONE', #148, #21, #244 ) ;
#257 = ORIENTED_EDGE ( 'NONE', *, *, #131, .F. ) ;
#258 = ADVANCED_FACE ( 'NONE', ( #208 ), #7, .T. ) ;
#259 = ORIENTED_EDGE ( 'NONE', *, *, #175, .F. ) ;
#260 = ORIENTED_EDGE ( 'NONE', *, *, #37, .T. ) ;
#261 = PRODUCT_DEFINITION_SHAPE ( 'NONE', 'NONE',  #227 ) ;
#262 = DIRECTION ( 'NONE',  ( -0.0000000000000000000, -0.0000000000000000000, -1.000000000000000000 ) ) ;
#263 = CARTESIAN_POINT ( 'NONE',  ( 0.0000000000000000000, 0.0000000000000000000, 2.500000000000000000 ) ) ;
#264 = PRODUCT ( 'Micro_SHR-375-4X', 'Micro_SHR-375-4X', '', ( #164 ) ) ;
#265 = ORIENTED_EDGE ( 'NONE', *, *, #185, .T. ) ;
#266 = PRESENTATION_LAYER_ASSIGNMENT (  '', '', ( #103 ) ) ;
#267 = AXIS2_PLACEMENT_3D ( 'NONE', #61, #142, #205 ) ;
#268 = CARTESIAN_POINT ( 'NONE',  ( -0.1875000000000000278, 0.0000000000000000000, 2.484999999999999432 ) ) ;
#269 = ADVANCED_FACE ( 'NONE', ( #60 ), #181, .T. ) ;
#270 = DIRECTION ( 'NONE',  ( 1.000000000000000000, 0.0000000000000000000, 0.0000000000000000000 ) ) ;
#271 = DIRECTION ( 'NONE',  ( -1.224646799147353207E-16, -0.0000000000000000000, -1.000000000000000000 ) ) ;
#272 = ADVANCED_BREP_SHAPE_REPRESENTATION ( 'Micro_SHR-375-4X', ( #213, #89 ), #146 ) ;
#273 = COLOUR_RGB ( '',0.7921568627450980005, 0.8196078431372548767, 0.9333333333333333481 ) ;
#274 = SURFACE_SIDE_STYLE ('',( #53 ) ) ;
#275 =( NAMED_UNIT ( * ) PLANE_ANGLE_UNIT ( ) SI_UNIT ( $, .RADIAN. ) );
#276 = CARTESIAN_POINT ( 'NONE',  ( 0.0000000000000000000, 0.0000000000000000000, 0.0000000000000000000 ) ) ;
#277 = EDGE_CURVE ( 'NONE', #166, #242, #283, .T. ) ;
#278 = CARTESIAN_POINT ( 'NONE',  ( 0.0000000000000000000, 0.0000000000000000000, 2.500000000000000000 ) ) ;
#279 = PRESENTATION_STYLE_ASSIGNMENT (( #184 ) ) ;
#280 = EDGE_CURVE ( 'NONE', #242, #166, #140, .T. ) ;
#281 = FILL_AREA_STYLE ('',( #118 ) ) ;
#282 = CONICAL_SURFACE ( 'NONE', #59, 0.1873125000000000207, 0.1745329251994338915 ) ;
#283 = CIRCLE ( 'NONE', #172, 0.1873125000000000207 ) ;
#284 = CARTESIAN_POINT ( 'NONE',  ( -0.1873124999999999096, 2.293916535652885904E-17, 0.8750000000000000000 ) ) ;
#285 = EDGE_LOOP ( 'NONE', ( #255, #195, #39, #257 ) ) ;
#286 = EDGE_LOOP ( 'NONE', ( #100, #238, #214, #128 ) ) ;
#287 = APPLICATION_PROTOCOL_DEFINITION ( 'draft international standard', 'automotive_design', 1998, #24 ) ;
#288 = EDGE_CURVE ( 'NONE', #242, #192, #31, .T. ) ;
#289 = ORIENTED_EDGE ( 'NONE', *, *, #158, .T. ) ;
#290 = CIRCLE ( 'NONE', #151, 0.1875000000000000278 ) ;
#291 = ORIENTED_EDGE ( 'NONE', *, *, #13, .T. ) ;
#292 = DIRECTION ( 'NONE',  ( 1.000000000000000000, 0.0000000000000000000, 0.0000000000000000000 ) ) ;
#293 = ORIENTED_EDGE ( 'NONE', *, *, #280, .F. ) ;
#294 = ADVANCED_FACE ( 'NONE', ( #183 ), #38, .F. ) ;
#295 = DIRECTION ( 'NONE',  ( -0.0000000000000000000, -0.0000000000000000000, -1.000000000000000000 ) ) ;
#296 = CARTESIAN_POINT ( 'NONE',  ( 1.072868196215332272E-16, 0.0000000000000000000, 0.8760633653411783461 ) ) ;
#297 = APPLICATION_CONTEXT ( 'automotive_design' ) ;
#298 = VECTOR ( 'NONE', #76, 39.37007874015748143 ) ;
#299 = CARTESIAN_POINT ( 'NONE',  ( 0.0000000000000000000, 0.0000000000000000000, 2.500000000000000000 ) ) ;
ENDSEC;
END-ISO-10303-21;
