ISO-10303-21;
HEADER;
FILE_DESCRIPTION (( 'STEP AP214' ),
    '1' );
FILE_NAME ('Micro_SFLM-040-60.STEP',
    '2021-09-02T05:30:04',
    ( '' ),
    ( '' ),
    'SwSTEP 2.0',
    'SolidWorks 2020',
    '' );
FILE_SCHEMA (( 'AUTOMOTIVE_DESIGN' ));
ENDSEC;

DATA;
#1 =( NAMED_UNIT ( * ) PLANE_ANGLE_UNIT ( ) SI_UNIT ( $, .RADIAN. ) );
#2 = CARTESIAN_POINT ( 'NONE',  ( 0.1031100000000002570, 1.262733314600838667E-17, 2.244094000000000033 ) ) ;
#3 = EDGE_LOOP ( 'NONE', ( #130, #126, #264, #194 ) ) ;
#4 = ORIENTED_EDGE ( 'NONE', *, *, #26, .F. ) ;
#5 = CARTESIAN_POINT ( 'NONE',  ( 0.07866125999999999674, 9.633226027589770864E-18, 0.0000000000000000000 ) ) ;
#6 = ORIENTED_EDGE ( 'NONE', *, *, #144, .F. ) ;
#7 =( LENGTH_UNIT ( ) NAMED_UNIT ( * ) SI_UNIT ( $, .METRE. ) );
#8 = ORIENTED_EDGE ( 'NONE', *, *, #65, .T. ) ;
#9 = ORIENTED_EDGE ( 'NONE', *, *, #288, .F. ) ;
#10 = EDGE_CURVE ( 'NONE', #34, #238, #177, .T. ) ;
#11 = CYLINDRICAL_SURFACE ( 'NONE', #45, 0.1181100000000000066 ) ;
#12 = COLOUR_RGB ( '',0.7921568627450980005, 0.8196078431372548767, 0.9333333333333333481 ) ;
#13 = CARTESIAN_POINT ( 'NONE',  ( 0.07866126000000009388, 0.0000000000000000000, 0.7874019999999999353 ) ) ;
#14 = CARTESIAN_POINT ( 'NONE',  ( 0.1181100000000000066, 1.446430334472939084E-17, 2.244094000000000033 ) ) ;
#15 = DIRECTION ( 'NONE',  ( 1.000000000000000000, 0.0000000000000000000, -0.0000000000000000000 ) ) ;
#16 = PRESENTATION_LAYER_ASSIGNMENT (  '', '', ( #127 ) ) ;
#17 = ADVANCED_FACE ( 'NONE', ( #133 ), #269, .T. ) ;
#18 = ORIENTED_EDGE ( 'NONE', *, *, #138, .F. ) ;
#19 = DIRECTION ( 'NONE',  ( 1.000000000000000000, 0.0000000000000000000, -0.0000000000000000000 ) ) ;
#20 = APPLICATION_PROTOCOL_DEFINITION ( 'draft international standard', 'automotive_design', 1998, #59 ) ;
#21 = DIRECTION ( 'NONE',  ( 1.000000000000000000, 0.0000000000000000000, 0.0000000000000000000 ) ) ;
#22 = EDGE_CURVE ( 'NONE', #171, #192, #175, .T. ) ;
#23 = FACE_OUTER_BOUND ( 'NONE', #97, .T. ) ;
#24 = SURFACE_SIDE_STYLE ('',( #186 ) ) ;
#25 = AXIS2_PLACEMENT_3D ( 'NONE', #223, #251, #179 ) ;
#26 = EDGE_CURVE ( 'NONE', #100, #250, #292, .T. ) ;
#27 = ORIENTED_EDGE ( 'NONE', *, *, #210, .T. ) ;
#28 = LENGTH_MEASURE_WITH_UNIT ( LENGTH_MEASURE( 0.02539999999999999897 ), #239 );
#29 = VERTEX_POINT ( 'NONE', #35 ) ;
#30 = SURFACE_SIDE_STYLE ('',( #286 ) ) ;
#31 = CIRCLE ( 'NONE', #62, 0.07866125999999999674 ) ;
#32 = AXIS2_PLACEMENT_3D ( 'NONE', #54, #237, #95 ) ;
#33 = ORIENTED_EDGE ( 'NONE', *, *, #22, .F. ) ;
#34 = VERTEX_POINT ( 'NONE', #160 ) ;
#35 = CARTESIAN_POINT ( 'NONE',  ( -0.1031100000000002570, 0.0000000000000000000, 2.244094000000000033 ) ) ;
#36 = EDGE_CURVE ( 'NONE', #192, #220, #108, .T. ) ;
#37 = VECTOR ( 'NONE', #228, 39.37007874015748143 ) ;
#38 = CYLINDRICAL_SURFACE ( 'NONE', #235, 0.1181100000000000066 ) ;
#39 = PRODUCT_CONTEXT ( 'NONE', #145, 'mechanical' ) ;
#40 = DIRECTION ( 'NONE',  ( -0.0000000000000000000, -0.0000000000000000000, -1.000000000000000000 ) ) ;
#41 = CARTESIAN_POINT ( 'NONE',  ( 0.0000000000000000000, 0.0000000000000000000, 0.0000000000000000000 ) ) ;
#42 = EDGE_CURVE ( 'NONE', #171, #250, #131, .T. ) ;
#43 = DIRECTION ( 'NONE',  ( -0.0000000000000000000, -0.0000000000000000000, -1.000000000000000000 ) ) ;
#44 = AXIS2_PLACEMENT_3D ( 'NONE', #267, #227, #268 ) ;
#45 = AXIS2_PLACEMENT_3D ( 'NONE', #107, #204, #176 ) ;
#46 =( CONVERSION_BASED_UNIT ( 'INCH', #299 ) LENGTH_UNIT ( ) NAMED_UNIT ( #195 ) );
#47 = FACE_OUTER_BOUND ( 'NONE', #168, .T. ) ;
#48 = FACE_OUTER_BOUND ( 'NONE', #178, .T. ) ;
#49 = VECTOR ( 'NONE', #137, 39.37007874015748143 ) ;
#50 = VECTOR ( 'NONE', #99, 39.37007874015748854 ) ;
#51 = DIRECTION ( 'NONE',  ( 1.000000000000000000, 0.0000000000000000000, 0.0000000000000000000 ) ) ;
#52 = CARTESIAN_POINT ( 'NONE',  ( -0.1181100000000000066, 0.0000000000000000000, 2.229093999999999465 ) ) ;
#53 = CYLINDRICAL_SURFACE ( 'NONE', #78, 0.07866125999999999674 ) ;
#54 = CARTESIAN_POINT ( 'NONE',  ( 9.642893389422242582E-17, 0.0000000000000000000, 0.7874019999999999353 ) ) ;
#55 = ORIENTED_EDGE ( 'NONE', *, *, #10, .T. ) ;
#56 = AXIS2_PLACEMENT_3D ( 'NONE', #143, #276, #274 ) ;
#57 =( GEOMETRIC_REPRESENTATION_CONTEXT ( 3 ) GLOBAL_UNCERTAINTY_ASSIGNED_CONTEXT ( ( #101 ) ) GLOBAL_UNIT_ASSIGNED_CONTEXT ( ( #281, #167, #215 ) ) REPRESENTATION_CONTEXT ( 'NONE', 'WORKASPACE' ) );
#58 = ORIENTED_EDGE ( 'NONE', *, *, #166, .T. ) ;
#59 = APPLICATION_CONTEXT ( 'automotive_design' ) ;
#60 = DIRECTION ( 'NONE',  ( -1.224646799147353207E-16, -0.0000000000000000000, -1.000000000000000000 ) ) ;
#61 = DIRECTION ( 'NONE',  ( -1.000000000000000000, 0.0000000000000000000, 1.224646799147352961E-16 ) ) ;
#62 = AXIS2_PLACEMENT_3D ( 'NONE', #93, #209, #115 ) ;
#63 = EDGE_LOOP ( 'NONE', ( #27, #262, #197, #289 ) ) ;
#64 = ADVANCED_BREP_SHAPE_REPRESENTATION ( 'Micro_SFLM-040-60', ( #112, #182 ), #212 ) ;
#65 = EDGE_CURVE ( 'NONE', #100, #282, #180, .T. ) ;
#66 = DIRECTION ( 'NONE',  ( 1.224646799147353207E-16, 0.0000000000000000000, 1.000000000000000000 ) ) ;
#67 = DIRECTION ( 'NONE',  ( 0.1736481776669313581, 0.0000000000000000000, 0.9848077530122077983 ) ) ;
#68 = PRESENTATION_STYLE_ASSIGNMENT (( #277 ) ) ;
#69 = AXIS2_PLACEMENT_3D ( 'NONE', #41, #135, #15 ) ;
#70 = ADVANCED_FACE ( 'NONE', ( #113 ), #11, .T. ) ;
#71 = FACE_OUTER_BOUND ( 'NONE', #173, .T. ) ;
#72 = DIRECTION ( 'NONE',  ( 1.000000000000000000, 0.0000000000000000000, 0.0000000000000000000 ) ) ;
#73 = CARTESIAN_POINT ( 'NONE',  ( 0.0000000000000000000, 0.0000000000000000000, 2.244094000000000033 ) ) ;
#74 = DIRECTION ( 'NONE',  ( 1.224646799147353207E-16, 0.0000000000000000000, 1.000000000000000000 ) ) ;
#75 = VECTOR ( 'NONE', #153, 39.37007874015748143 ) ;
#76 =( CONVERSION_BASED_UNIT ( 'INCH', #28 ) LENGTH_UNIT ( ) NAMED_UNIT ( #91 ) );
#77 = AXIS2_PLACEMENT_3D ( 'NONE', #255, #258, #141 ) ;
#78 = AXIS2_PLACEMENT_3D ( 'NONE', #283, #263, #149 ) ;
#79 = DIRECTION ( 'NONE',  ( 0.7071067811865358044, 8.659560562354788645E-17, -0.7071067811865590080 ) ) ;
#80 = ORIENTED_EDGE ( 'NONE', *, *, #265, .F. ) ;
#81 = ADVANCED_FACE ( 'NONE', ( #157 ), #132, .T. ) ;
#82 = ORIENTED_EDGE ( 'NONE', *, *, #265, .T. ) ;
#83 = VECTOR ( 'NONE', #43, 39.37007874015748143 ) ;
#84 = CONICAL_SURFACE ( 'NONE', #106, 0.1031100000000002570, 0.7853981633974318477 ) ;
#85 = EDGE_CURVE ( 'NONE', #238, #282, #198, .T. ) ;
#86 = CARTESIAN_POINT ( 'NONE',  ( 0.1031100000000002570, 1.354581824536888722E-17, 2.244094000000000033 ) ) ;
#87 = EDGE_LOOP ( 'NONE', ( #287, #236 ) ) ;
#88 = VERTEX_POINT ( 'NONE', #86 ) ;
#89 = CIRCLE ( 'NONE', #156, 0.1031100000000002570 ) ;
#90 = FILL_AREA_STYLE ('',( #203 ) ) ;
#91 = DIMENSIONAL_EXPONENTS ( 1.000000000000000000, 0.0000000000000000000, 0.0000000000000000000, 0.0000000000000000000, 0.0000000000000000000, 0.0000000000000000000, 0.0000000000000000000 ) ;
#92 = EDGE_CURVE ( 'NONE', #220, #250, #261, .T. ) ;
#93 = CARTESIAN_POINT ( 'NONE',  ( 9.642893389422242582E-17, 0.0000000000000000000, 0.7874019999999999353 ) ) ;
#94 = DIRECTION ( 'NONE',  ( 0.0000000000000000000, 0.0000000000000000000, 1.000000000000000000 ) ) ;
#95 = DIRECTION ( 'NONE',  ( -1.000000000000000000, 0.0000000000000000000, 0.0000000000000000000 ) ) ;
#96 =( NAMED_UNIT ( * ) PLANE_ANGLE_UNIT ( ) SI_UNIT ( $, .RADIAN. ) );
#97 = EDGE_LOOP ( 'NONE', ( #293, #82, #55, #18 ) ) ;
#98 = ADVANCED_FACE ( 'NONE', ( #247 ), #38, .T. ) ;
#99 = DIRECTION ( 'NONE',  ( -0.7071067811865358044, 0.0000000000000000000, -0.7071067811865590080 ) ) ;
#100 = VERTEX_POINT ( 'NONE', #225 ) ;
#101 = UNCERTAINTY_MEASURE_WITH_UNIT (LENGTH_MEASURE( 1.000000000000000082E-05 ), #281, 'distance_accuracy_value', 'NONE');
#102 = DIMENSIONAL_EXPONENTS ( 1.000000000000000000, 0.0000000000000000000, 0.0000000000000000000, 0.0000000000000000000, 0.0000000000000000000, 0.0000000000000000000, 0.0000000000000000000 ) ;
#103 = ADVANCED_FACE ( 'NONE', ( #201 ), #159, .F. ) ;
#104 = EDGE_LOOP ( 'NONE', ( #244, #217, #124, #9 ) ) ;
#105 = MECHANICAL_DESIGN_GEOMETRIC_PRESENTATION_REPRESENTATION (  '', ( #127 ), #256 ) ;
#106 = AXIS2_PLACEMENT_3D ( 'NONE', #162, #208, #254 ) ;
#107 = CARTESIAN_POINT ( 'NONE',  ( 0.0000000000000000000, 0.0000000000000000000, 2.244094000000000033 ) ) ;
#108 = LINE ( 'NONE', #109, #83 ) ;
#109 = CARTESIAN_POINT ( 'NONE',  ( -0.1181100000000000066, 0.0000000000000000000, 2.244094000000000033 ) ) ;
#110 = CONICAL_SURFACE ( 'NONE', #279, 0.07866125999999999674, 0.1745329251994338637 ) ;
#111 = CARTESIAN_POINT ( 'NONE',  ( 1.238273348520836934E-16, 0.0000000000000000000, 1.011126921968824810 ) ) ;
#112 = MANIFOLD_SOLID_BREP ( 'Cut-Revolve1', #185 ) ;
#113 = FACE_OUTER_BOUND ( 'NONE', #3, .T. ) ;
#114 = EDGE_CURVE ( 'NONE', #250, #220, #284, .T. ) ;
#115 = DIRECTION ( 'NONE',  ( -1.000000000000000000, 0.0000000000000000000, 0.0000000000000000000 ) ) ;
#116 = SHAPE_DEFINITION_REPRESENTATION ( #249, #64 ) ;
#117 = CARTESIAN_POINT ( 'NONE',  ( 0.1181100000000001454, 1.446430334472940625E-17, 1.011126921968824810 ) ) ;
#118 = AXIS2_PLACEMENT_3D ( 'NONE', #205, #278, #206 ) ;
#119 = ADVANCED_FACE ( 'NONE', ( #48 ), #181, .T. ) ;
#120 = CYLINDRICAL_SURFACE ( 'NONE', #118, 0.07866125999999999674 ) ;
#121 = CARTESIAN_POINT ( 'NONE',  ( 0.0000000000000000000, 0.0000000000000000000, 2.244094000000000033 ) ) ;
#122 = FILL_AREA_STYLE ('',( #125 ) ) ;
#123 = ORIENTED_EDGE ( 'NONE', *, *, #114, .T. ) ;
#124 = ORIENTED_EDGE ( 'NONE', *, *, #210, .F. ) ;
#125 = FILL_AREA_STYLE_COLOUR ( '', #12 ) ;
#126 = ORIENTED_EDGE ( 'NONE', *, *, #22, .T. ) ;
#127 = STYLED_ITEM ( 'NONE', ( #68 ), #112 ) ;
#128 = PRESENTATION_STYLE_ASSIGNMENT (( #234 ) ) ;
#129 = ADVANCED_FACE ( 'NONE', ( #47 ), #120, .T. ) ;
#130 = ORIENTED_EDGE ( 'NONE', *, *, #42, .F. ) ;
#131 = LINE ( 'NONE', #14, #49 ) ;
#132 = CONICAL_SURFACE ( 'NONE', #252, 0.07866125999999999674, 0.1745329251994338637 ) ;
#133 = FACE_OUTER_BOUND ( 'NONE', #104, .T. ) ;
#134 = DIRECTION ( 'NONE',  ( -1.000000000000000000, 0.0000000000000000000, 0.0000000000000000000 ) ) ;
#135 = DIRECTION ( 'NONE',  ( 0.0000000000000000000, 0.0000000000000000000, 1.000000000000000000 ) ) ;
#136 = DIRECTION ( 'NONE',  ( 0.0000000000000000000, 0.0000000000000000000, 1.000000000000000000 ) ) ;
#137 = DIRECTION ( 'NONE',  ( -0.0000000000000000000, -0.0000000000000000000, -1.000000000000000000 ) ) ;
#138 = EDGE_CURVE ( 'NONE', #282, #238, #155, .T. ) ;
#139 = DIRECTION ( 'NONE',  ( 1.000000000000000000, 0.0000000000000000000, 0.0000000000000000000 ) ) ;
#140 = LINE ( 'NONE', #183, #242 ) ;
#141 = DIRECTION ( 'NONE',  ( -1.000000000000000000, 0.0000000000000000000, 1.224646799147352961E-16 ) ) ;
#142 =( LENGTH_UNIT ( ) NAMED_UNIT ( * ) SI_UNIT ( $, .METRE. ) );
#143 = CARTESIAN_POINT ( 'NONE',  ( 0.0000000000000000000, 0.0000000000000000000, 2.229093999999999465 ) ) ;
#144 = EDGE_CURVE ( 'NONE', #34, #100, #31, .T. ) ;
#145 = APPLICATION_CONTEXT ( 'automotive_design' ) ;
#146 = ORIENTED_EDGE ( 'NONE', *, *, #245, .F. ) ;
#147 = COLOUR_RGB ( '',0.7921568627450980005, 0.8196078431372548767, 0.9333333333333333481 ) ;
#148 = VECTOR ( 'NONE', #79, 39.37007874015748854 ) ;
#149 = DIRECTION ( 'NONE',  ( -1.000000000000000000, 0.0000000000000000000, 1.224646799147352961E-16 ) ) ;
#150 = CARTESIAN_POINT ( 'NONE',  ( -0.1031100000000002570, 0.0000000000000000000, 2.244094000000000033 ) ) ;
#151 = UNCERTAINTY_MEASURE_WITH_UNIT (LENGTH_MEASURE( 1.000000000000000082E-05 ), #76, 'distance_accuracy_value', 'NONE');
#152 = PRODUCT ( 'Micro_SFLM-040-60', 'Micro_SFLM-040-60', '', ( #39 ) ) ;
#153 = DIRECTION ( 'NONE',  ( -1.224646799147353207E-16, -0.0000000000000000000, -1.000000000000000000 ) ) ;
#154 = DIRECTION ( 'NONE',  ( 1.000000000000000000, 0.0000000000000000000, 0.0000000000000000000 ) ) ;
#155 = CIRCLE ( 'NONE', #77, 0.07866125999999999674 ) ;
#156 = AXIS2_PLACEMENT_3D ( 'NONE', #230, #232, #21 ) ;
#157 = FACE_OUTER_BOUND ( 'NONE', #241, .T. ) ;
#158 = PRODUCT_RELATED_PRODUCT_CATEGORY ( 'part', '', ( #152 ) ) ;
#159 = PLANE ( 'NONE',  #69 ) ;
#160 = CARTESIAN_POINT ( 'NONE',  ( -0.07866125999999988572, 1.204876468615957931E-17, 0.7874019999999999353 ) ) ;
#161 = APPLICATION_PROTOCOL_DEFINITION ( 'draft international standard', 'automotive_design', 1998, #145 ) ;
#162 = CARTESIAN_POINT ( 'NONE',  ( 0.0000000000000000000, 0.0000000000000000000, 2.244094000000000033 ) ) ;
#163 = CARTESIAN_POINT ( 'NONE',  ( -0.07866125999999999674, 0.0000000000000000000, 1.926645205517954173E-17 ) ) ;
#164 = CIRCLE ( 'NONE', #202, 0.1031100000000002570 ) ;
#165 = PRODUCT_DEFINITION ( 'UNKNOWN', '', #170, #224 ) ;
#166 = EDGE_CURVE ( 'NONE', #88, #29, #164, .T. ) ;
#167 =( NAMED_UNIT ( * ) PLANE_ANGLE_UNIT ( ) SI_UNIT ( $, .RADIAN. ) );
#168 = EDGE_LOOP ( 'NONE', ( #272, #8, #290, #196 ) ) ;
#169 = AXIS2_PLACEMENT_3D ( 'NONE', #111, #229, #51 ) ;
#170 = PRODUCT_DEFINITION_FORMATION_WITH_SPECIFIED_SOURCE ( 'ANY', '', #152, .NOT_KNOWN. ) ;
#171 = VERTEX_POINT ( 'NONE', #188 ) ;
#172 = ORIENTED_EDGE ( 'NONE', *, *, #288, .T. ) ;
#173 = EDGE_LOOP ( 'NONE', ( #240, #146, #172, #33 ) ) ;
#174 = AXIS2_PLACEMENT_3D ( 'NONE', #199, #291, #154 ) ;
#175 = CIRCLE ( 'NONE', #25, 0.1181100000000000066 ) ;
#176 = DIRECTION ( 'NONE',  ( -1.000000000000000000, 0.0000000000000000000, 0.0000000000000000000 ) ) ;
#177 = LINE ( 'NONE', #273, #75 ) ;
#178 = EDGE_LOOP ( 'NONE', ( #285, #58 ) ) ;
#179 = DIRECTION ( 'NONE',  ( 1.000000000000000000, 0.0000000000000000000, 0.0000000000000000000 ) ) ;
#180 = LINE ( 'NONE', #246, #37 ) ;
#181 = PLANE ( 'NONE',  #294 ) ;
#182 = AXIS2_PLACEMENT_3D ( 'NONE', #226, #136, #139 ) ;
#183 = CARTESIAN_POINT ( 'NONE',  ( -0.07866125999999988572, 9.633226027589770864E-18, 0.7874019999999999353 ) ) ;
#184 = DIRECTION ( 'NONE',  ( 0.0000000000000000000, 0.0000000000000000000, 1.000000000000000000 ) ) ;
#185 = CLOSED_SHELL ( 'NONE', ( #129, #81, #17, #98, #70, #119, #221, #187, #260, #103 ) ) ;
#186 = SURFACE_STYLE_FILL_AREA ( #90 ) ;
#187 = ADVANCED_FACE ( 'NONE', ( #280 ), #110, .T. ) ;
#188 = CARTESIAN_POINT ( 'NONE',  ( 0.1181100000000000066, 1.446430334472939084E-17, 2.229093999999999465 ) ) ;
#189 = CIRCLE ( 'NONE', #56, 0.1181100000000000066 ) ;
#190 = PRESENTATION_LAYER_ASSIGNMENT (  '', '', ( #231 ) ) ;
#191 = LINE ( 'NONE', #150, #50 ) ;
#192 = VERTEX_POINT ( 'NONE', #52 ) ;
#193 = ORIENTED_EDGE ( 'NONE', *, *, #207, .T. ) ;
#194 = ORIENTED_EDGE ( 'NONE', *, *, #114, .F. ) ;
#195 = DIMENSIONAL_EXPONENTS ( 1.000000000000000000, 0.0000000000000000000, 0.0000000000000000000, 0.0000000000000000000, 0.0000000000000000000, 0.0000000000000000000, 0.0000000000000000000 ) ;
#196 = ORIENTED_EDGE ( 'NONE', *, *, #10, .F. ) ;
#197 = ORIENTED_EDGE ( 'NONE', *, *, #92, .F. ) ;
#198 = CIRCLE ( 'NONE', #218, 0.07866125999999999674 ) ;
#199 = CARTESIAN_POINT ( 'NONE',  ( 1.238273348520836934E-16, 0.0000000000000000000, 1.011126921968824810 ) ) ;
#200 = CARTESIAN_POINT ( 'NONE',  ( 1.179729942015078748E-33, 0.0000000000000000000, 9.633226027589770864E-18 ) ) ;
#201 = FACE_OUTER_BOUND ( 'NONE', #87, .T. ) ;
#202 = AXIS2_PLACEMENT_3D ( 'NONE', #73, #184, #211 ) ;
#203 = FILL_AREA_STYLE_COLOUR ( '', #147 ) ;
#204 = DIRECTION ( 'NONE',  ( -0.0000000000000000000, -0.0000000000000000000, -1.000000000000000000 ) ) ;
#205 = CARTESIAN_POINT ( 'NONE',  ( 0.0000000000000000000, 0.0000000000000000000, 0.0000000000000000000 ) ) ;
#206 = DIRECTION ( 'NONE',  ( -1.000000000000000000, 0.0000000000000000000, 1.224646799147352961E-16 ) ) ;
#207 = EDGE_CURVE ( 'NONE', #34, #220, #140, .T. ) ;
#208 = DIRECTION ( 'NONE',  ( 0.0000000000000000000, 0.0000000000000000000, -1.000000000000000000 ) ) ;
#209 = DIRECTION ( 'NONE',  ( -1.224646799147353207E-16, -0.0000000000000000000, -1.000000000000000000 ) ) ;
#210 = EDGE_CURVE ( 'NONE', #192, #171, #189, .T. ) ;
#211 = DIRECTION ( 'NONE',  ( 1.000000000000000000, 0.0000000000000000000, 0.0000000000000000000 ) ) ;
#212 =( GEOMETRIC_REPRESENTATION_CONTEXT ( 3 ) GLOBAL_UNCERTAINTY_ASSIGNED_CONTEXT ( ( #151 ) ) GLOBAL_UNIT_ASSIGNED_CONTEXT ( ( #76, #96, #259 ) ) REPRESENTATION_CONTEXT ( 'NONE', 'WORKASPACE' ) );
#213 = LENGTH_MEASURE_WITH_UNIT ( LENGTH_MEASURE( 0.02539999999999999897 ), #7 );
#214 = ORIENTED_EDGE ( 'NONE', *, *, #207, .F. ) ;
#215 =( NAMED_UNIT ( * ) SI_UNIT ( $, .STERADIAN. ) SOLID_ANGLE_UNIT ( ) );
#216 = LINE ( 'NONE', #2, #148 ) ;
#217 = ORIENTED_EDGE ( 'NONE', *, *, #298, .T. ) ;
#218 = AXIS2_PLACEMENT_3D ( 'NONE', #200, #60, #61 ) ;
#219 = ORIENTED_EDGE ( 'NONE', *, *, #92, .T. ) ;
#220 = VERTEX_POINT ( 'NONE', #233 ) ;
#221 = ADVANCED_FACE ( 'NONE', ( #71 ), #84, .T. ) ;
#222 = EDGE_LOOP ( 'NONE', ( #214, #80, #296, #123 ) ) ;
#223 = CARTESIAN_POINT ( 'NONE',  ( 0.0000000000000000000, 0.0000000000000000000, 2.229093999999999465 ) ) ;
#224 = PRODUCT_DEFINITION_CONTEXT ( 'detailed design', #59, 'design' ) ;
#225 = CARTESIAN_POINT ( 'NONE',  ( 0.07866126000000009388, 0.0000000000000000000, 0.7874019999999999353 ) ) ;
#226 = CARTESIAN_POINT ( 'NONE',  ( 0.0000000000000000000, 0.0000000000000000000, 0.0000000000000000000 ) ) ;
#227 = DIRECTION ( 'NONE',  ( 0.0000000000000000000, 0.0000000000000000000, -1.000000000000000000 ) ) ;
#228 = DIRECTION ( 'NONE',  ( -1.224646799147353207E-16, -0.0000000000000000000, -1.000000000000000000 ) ) ;
#229 = DIRECTION ( 'NONE',  ( -1.224646799147353207E-16, -0.0000000000000000000, -1.000000000000000000 ) ) ;
#230 = CARTESIAN_POINT ( 'NONE',  ( 0.0000000000000000000, 0.0000000000000000000, 2.244094000000000033 ) ) ;
#231 = STYLED_ITEM ( 'NONE', ( #128 ), #64 ) ;
#232 = DIRECTION ( 'NONE',  ( 0.0000000000000000000, 0.0000000000000000000, 1.000000000000000000 ) ) ;
#233 = CARTESIAN_POINT ( 'NONE',  ( -0.1181099999999998956, 0.0000000000000000000, 1.011126921968824810 ) ) ;
#234 = SURFACE_STYLE_USAGE ( .BOTH. , #30 ) ;
#235 = AXIS2_PLACEMENT_3D ( 'NONE', #248, #40, #134 ) ;
#236 = ORIENTED_EDGE ( 'NONE', *, *, #138, .T. ) ;
#237 = DIRECTION ( 'NONE',  ( -1.224646799147353207E-16, -0.0000000000000000000, -1.000000000000000000 ) ) ;
#238 = VERTEX_POINT ( 'NONE', #163 ) ;
#239 =( LENGTH_UNIT ( ) NAMED_UNIT ( * ) SI_UNIT ( $, .METRE. ) );
#240 = ORIENTED_EDGE ( 'NONE', *, *, #298, .F. ) ;
#241 = EDGE_LOOP ( 'NONE', ( #6, #193, #219, #4 ) ) ;
#242 = VECTOR ( 'NONE', #257, 39.37007874015747433 ) ;
#243 = CIRCLE ( 'NONE', #32, 0.07866125999999999674 ) ;
#244 = ORIENTED_EDGE ( 'NONE', *, *, #166, .F. ) ;
#245 = EDGE_CURVE ( 'NONE', #29, #88, #89, .T. ) ;
#246 = CARTESIAN_POINT ( 'NONE',  ( 0.07866125999999999674, 9.633226027589770864E-18, -9.633226027589770864E-18 ) ) ;
#247 = FACE_OUTER_BOUND ( 'NONE', #63, .T. ) ;
#248 = CARTESIAN_POINT ( 'NONE',  ( 0.0000000000000000000, 0.0000000000000000000, 2.244094000000000033 ) ) ;
#249 = PRODUCT_DEFINITION_SHAPE ( 'NONE', 'NONE',  #165 ) ;
#250 = VERTEX_POINT ( 'NONE', #117 ) ;
#251 = DIRECTION ( 'NONE',  ( 0.0000000000000000000, 0.0000000000000000000, -1.000000000000000000 ) ) ;
#252 = AXIS2_PLACEMENT_3D ( 'NONE', #295, #66, #266 ) ;
#253 =( NAMED_UNIT ( * ) SI_UNIT ( $, .STERADIAN. ) SOLID_ANGLE_UNIT ( ) );
#254 = DIRECTION ( 'NONE',  ( -1.000000000000000000, 0.0000000000000000000, 0.0000000000000000000 ) ) ;
#255 = CARTESIAN_POINT ( 'NONE',  ( 1.179729942015078748E-33, 0.0000000000000000000, 9.633226027589770864E-18 ) ) ;
#256 =( GEOMETRIC_REPRESENTATION_CONTEXT ( 3 ) GLOBAL_UNCERTAINTY_ASSIGNED_CONTEXT ( ( #271 ) ) GLOBAL_UNIT_ASSIGNED_CONTEXT ( ( #46, #1, #253 ) ) REPRESENTATION_CONTEXT ( 'NONE', 'WORKASPACE' ) );
#257 = DIRECTION ( 'NONE',  ( -0.1736481776669311639, 2.126576849575783008E-17, 0.9848077530122080203 ) ) ;
#258 = DIRECTION ( 'NONE',  ( -1.224646799147353207E-16, -0.0000000000000000000, -1.000000000000000000 ) ) ;
#259 =( NAMED_UNIT ( * ) SI_UNIT ( $, .STERADIAN. ) SOLID_ANGLE_UNIT ( ) );
#260 = ADVANCED_FACE ( 'NONE', ( #23 ), #53, .T. ) ;
#261 = CIRCLE ( 'NONE', #174, 0.1181100000000000066 ) ;
#262 = ORIENTED_EDGE ( 'NONE', *, *, #42, .T. ) ;
#263 = DIRECTION ( 'NONE',  ( -1.224646799147353207E-16, -0.0000000000000000000, -1.000000000000000000 ) ) ;
#264 = ORIENTED_EDGE ( 'NONE', *, *, #36, .T. ) ;
#265 = EDGE_CURVE ( 'NONE', #100, #34, #243, .T. ) ;
#266 = DIRECTION ( 'NONE',  ( 1.000000000000000000, 0.0000000000000000000, 0.0000000000000000000 ) ) ;
#267 = CARTESIAN_POINT ( 'NONE',  ( 0.0000000000000000000, 0.0000000000000000000, 2.244094000000000033 ) ) ;
#268 = DIRECTION ( 'NONE',  ( -1.000000000000000000, 0.0000000000000000000, 0.0000000000000000000 ) ) ;
#269 = CONICAL_SURFACE ( 'NONE', #44, 0.1031100000000002570, 0.7853981633974318477 ) ;
#270 = MECHANICAL_DESIGN_GEOMETRIC_PRESENTATION_REPRESENTATION (  '', ( #231 ), #57 ) ;
#271 = UNCERTAINTY_MEASURE_WITH_UNIT (LENGTH_MEASURE( 1.000000000000000082E-05 ), #46, 'distance_accuracy_value', 'NONE');
#272 = ORIENTED_EDGE ( 'NONE', *, *, #144, .T. ) ;
#273 = CARTESIAN_POINT ( 'NONE',  ( -0.07866125999999999674, 0.0000000000000000000, 9.633226027589770864E-18 ) ) ;
#274 = DIRECTION ( 'NONE',  ( 1.000000000000000000, 0.0000000000000000000, 0.0000000000000000000 ) ) ;
#275 = VECTOR ( 'NONE', #67, 39.37007874015748143 ) ;
#276 = DIRECTION ( 'NONE',  ( 0.0000000000000000000, 0.0000000000000000000, -1.000000000000000000 ) ) ;
#277 = SURFACE_STYLE_USAGE ( .BOTH. , #24 ) ;
#278 = DIRECTION ( 'NONE',  ( -1.224646799147353207E-16, -0.0000000000000000000, -1.000000000000000000 ) ) ;
#279 = AXIS2_PLACEMENT_3D ( 'NONE', #297, #74, #72 ) ;
#280 = FACE_OUTER_BOUND ( 'NONE', #222, .T. ) ;
#281 =( CONVERSION_BASED_UNIT ( 'INCH', #213 ) LENGTH_UNIT ( ) NAMED_UNIT ( #102 ) );
#282 = VERTEX_POINT ( 'NONE', #5 ) ;
#283 = CARTESIAN_POINT ( 'NONE',  ( 0.0000000000000000000, 0.0000000000000000000, 0.0000000000000000000 ) ) ;
#284 = CIRCLE ( 'NONE', #169, 0.1181100000000000066 ) ;
#285 = ORIENTED_EDGE ( 'NONE', *, *, #245, .T. ) ;
#286 = SURFACE_STYLE_FILL_AREA ( #122 ) ;
#287 = ORIENTED_EDGE ( 'NONE', *, *, #85, .T. ) ;
#288 = EDGE_CURVE ( 'NONE', #29, #192, #191, .T. ) ;
#289 = ORIENTED_EDGE ( 'NONE', *, *, #36, .F. ) ;
#290 = ORIENTED_EDGE ( 'NONE', *, *, #85, .F. ) ;
#291 = DIRECTION ( 'NONE',  ( -1.224646799147353207E-16, -0.0000000000000000000, -1.000000000000000000 ) ) ;
#292 = LINE ( 'NONE', #13, #275 ) ;
#293 = ORIENTED_EDGE ( 'NONE', *, *, #65, .F. ) ;
#294 = AXIS2_PLACEMENT_3D ( 'NONE', #121, #94, #19 ) ;
#295 = CARTESIAN_POINT ( 'NONE',  ( 9.642893389422242582E-17, 0.0000000000000000000, 0.7874019999999999353 ) ) ;
#296 = ORIENTED_EDGE ( 'NONE', *, *, #26, .T. ) ;
#297 = CARTESIAN_POINT ( 'NONE',  ( 9.642893389422242582E-17, 0.0000000000000000000, 0.7874019999999999353 ) ) ;
#298 = EDGE_CURVE ( 'NONE', #88, #171, #216, .T. ) ;
#299 = LENGTH_MEASURE_WITH_UNIT ( LENGTH_MEASURE( 0.02539999999999999897 ), #142 );
ENDSEC;
END-ISO-10303-21;
