ISO-10303-21;
HEADER;
FILE_DESCRIPTION (( 'STEP AP214' ),
    '1' );
FILE_NAME ('Micro_AEMM-020-3X.STEP',
    '2022-03-15T14:23:16',
    ( '' ),
    ( '' ),
    'SwSTEP 2.0',
    'SolidWorks 2022',
    '' );
FILE_SCHEMA (( 'AUTOMOTIVE_DESIGN' ));
ENDSEC;

DATA;
#1 = ORIENTED_EDGE ( 'NONE', *, *, #52, .F. ) ;
#2 = AXIS2_PLACEMENT_3D ( 'NONE', #233, #77, #168 ) ;
#3 = DIRECTION ( 'NONE',  ( -1.000000000000000000, 0.000000000000000000, 1.224646799147352961E-16 ) ) ;
#4 = DIRECTION ( 'NONE',  ( -1.000000000000000000, 0.000000000000000000, 1.224646799147352961E-16 ) ) ;
#5 = VECTOR ( 'NONE', #239, 39.37007874015748143 ) ;
#6 = ADVANCED_FACE ( 'NONE', ( #42 ), #115, .T. ) ;
#7 = CARTESIAN_POINT ( 'NONE',  ( 0.000000000000000000, 0.000000000000000000, 0.000000000000000000 ) ) ;
#8 = CARTESIAN_POINT ( 'NONE',  ( -0.03933062999999997755, 4.816613013794886973E-18, 0.1968500000000000250 ) ) ;
#9 = DIRECTION ( 'NONE',  ( 1.000000000000000000, 0.000000000000000000, -0.000000000000000000 ) ) ;
#10 = CIRCLE ( 'NONE', #54, 0.06374000000000018540 ) ;
#11 = CARTESIAN_POINT ( 'NONE',  ( 0.000000000000000000, 0.000000000000000000, 1.968503999999999809 ) ) ;
#12 = CARTESIAN_POINT ( 'NONE',  ( 0.03933062999999999837, 4.816613013794885432E-18, -9.478001694819074349E-34 ) ) ;
#13 = CARTESIAN_POINT ( 'NONE',  ( 0.000000000000000000, 0.000000000000000000, 0.000000000000000000 ) ) ;
#14 = VERTEX_POINT ( 'NONE', #117 ) ;
#15 = ADVANCED_FACE ( 'NONE', ( #298 ), #19, .T. ) ;
#16 = ORIENTED_EDGE ( 'NONE', *, *, #81, .T. ) ;
#17 = DIRECTION ( 'NONE',  ( -1.000000000000000000, 0.000000000000000000, 1.224646799147353207E-16 ) ) ;
#18 = VECTOR ( 'NONE', #173, 39.37007874015748854 ) ;
#19 = CONICAL_SURFACE ( 'NONE', #189, 0.03933063000000000531, 0.1745329251994339192 ) ;
#20 = ORIENTED_EDGE ( 'NONE', *, *, #106, .T. ) ;
#21 = VERTEX_POINT ( 'NONE', #145 ) ;
#22 = CARTESIAN_POINT ( 'NONE',  ( 5.898649710075393742E-34, 0.000000000000000000, 4.816613013794885432E-18 ) ) ;
#23 = CIRCLE ( 'NONE', #243, 0.03933062999999999837 ) ;
#24 = FACE_OUTER_BOUND ( 'NONE', #185, .T. ) ;
#25 = CARTESIAN_POINT ( 'NONE',  ( 0.000000000000000000, 0.000000000000000000, 1.968503999999999809 ) ) ;
#26 = SURFACE_STYLE_FILL_AREA ( #209 ) ;
#27 = PRODUCT_DEFINITION_CONTEXT ( 'detailed design', #150, 'design' ) ;
#28 = CARTESIAN_POINT ( 'NONE',  ( 5.898649710075393742E-34, 0.000000000000000000, 4.816613013794885432E-18 ) ) ;
#29 = CIRCLE ( 'NONE', #269, 0.06374000000000018540 ) ;
#30 = CIRCLE ( 'NONE', #60, 0.07874000000000000443 ) ;
#31 = CARTESIAN_POINT ( 'NONE',  ( 2.410717224121564935E-17, 0.000000000000000000, 0.1968500000000000250 ) ) ;
#32 = DIRECTION ( 'NONE',  ( -1.224646799147353207E-16, -0.000000000000000000, -1.000000000000000000 ) ) ;
#33 = DIRECTION ( 'NONE',  ( 1.000000000000000000, 0.000000000000000000, 0.000000000000000000 ) ) ;
#34 = CIRCLE ( 'NONE', #2, 0.07874000000000000443 ) ;
#35 = DIRECTION ( 'NONE',  ( 0.000000000000000000, 0.000000000000000000, 1.000000000000000000 ) ) ;
#36 =( NAMED_UNIT ( * ) PLANE_ANGLE_UNIT ( ) SI_UNIT ( $, .RADIAN. ) );
#37 = DIRECTION ( 'NONE',  ( 0.000000000000000000, 0.000000000000000000, 1.000000000000000000 ) ) ;
#38 = DIRECTION ( 'NONE',  ( 1.000000000000000000, 0.000000000000000000, 0.000000000000000000 ) ) ;
#39 = ORIENTED_EDGE ( 'NONE', *, *, #124, .T. ) ;
#40 = AXIS2_PLACEMENT_3D ( 'NONE', #111, #235, #152 ) ;
#41 = ORIENTED_EDGE ( 'NONE', *, *, #74, .F. ) ;
#42 = FACE_OUTER_BOUND ( 'NONE', #158, .T. ) ;
#43 = VERTEX_POINT ( 'NONE', #107 ) ;
#44 = CIRCLE ( 'NONE', #208, 0.03933063000000000531 ) ;
#45 = ORIENTED_EDGE ( 'NONE', *, *, #265, .F. ) ;
#46 =( NAMED_UNIT ( * ) PLANE_ANGLE_UNIT ( ) SI_UNIT ( $, .RADIAN. ) );
#47 = LINE ( 'NONE', #186, #227 ) ;
#48 = VECTOR ( 'NONE', #194, 39.37007874015748143 ) ;
#49 = DIRECTION ( 'NONE',  ( 1.000000000000000000, 0.000000000000000000, 0.000000000000000000 ) ) ;
#50 = DIRECTION ( 'NONE',  ( -0.7071067811865502373, 0.000000000000000000, -0.7071067811865446862 ) ) ;
#51 = DIRECTION ( 'NONE',  ( 1.000000000000000000, 0.000000000000000000, 0.000000000000000000 ) ) ;
#52 = EDGE_CURVE ( 'NONE', #159, #63, #30, .T. ) ;
#53 = DIRECTION ( 'NONE',  ( 1.000000000000000000, 0.000000000000000000, 0.000000000000000000 ) ) ;
#54 = AXIS2_PLACEMENT_3D ( 'NONE', #281, #35, #175 ) ;
#55 = LINE ( 'NONE', #153, #98 ) ;
#56 = DIRECTION ( 'NONE',  ( 0.1736481776669314137, 0.000000000000000000, 0.9848077530122077983 ) ) ;
#57 = DIRECTION ( 'NONE',  ( -0.000000000000000000, -0.000000000000000000, -1.000000000000000000 ) ) ;
#58 = STYLED_ITEM ( 'NONE', ( #174 ), #286 ) ;
#59 = SHAPE_DEFINITION_REPRESENTATION ( #271, #286 ) ;
#60 = AXIS2_PLACEMENT_3D ( 'NONE', #229, #164, #51 ) ;
#61 = PLANE ( 'NONE',  #40 ) ;
#62 = FILL_AREA_STYLE_COLOUR ( '', #234 ) ;
#63 = VERTEX_POINT ( 'NONE', #100 ) ;
#64 = SURFACE_STYLE_USAGE ( .BOTH. , #220 ) ;
#65 = ORIENTED_EDGE ( 'NONE', *, *, #274, .T. ) ;
#66 = AXIS2_PLACEMENT_3D ( 'NONE', #128, #278, #190 ) ;
#67 = EDGE_LOOP ( 'NONE', ( #20, #268 ) ) ;
#68 = EDGE_CURVE ( 'NONE', #71, #43, #47, .T. ) ;
#69 = ORIENTED_EDGE ( 'NONE', *, *, #124, .F. ) ;
#70 = EDGE_CURVE ( 'NONE', #63, #159, #105, .T. ) ;
#71 = VERTEX_POINT ( 'NONE', #149 ) ;
#72 = PRODUCT_DEFINITION_FORMATION_WITH_SPECIFIED_SOURCE ( 'ANY', '', #165, .NOT_KNOWN. ) ;
#73 = LENGTH_MEASURE_WITH_UNIT ( LENGTH_MEASURE( 0.02539999999999999897 ), #255 );
#74 = EDGE_CURVE ( 'NONE', #184, #71, #44, .T. ) ;
#75 = DIMENSIONAL_EXPONENTS ( 1.000000000000000000, 0.000000000000000000, 0.000000000000000000, 0.000000000000000000, 0.000000000000000000, 0.000000000000000000, 0.000000000000000000 ) ;
#76 = LINE ( 'NONE', #101, #264 ) ;
#77 = DIRECTION ( 'NONE',  ( -1.224646799147353207E-16, -0.000000000000000000, -1.000000000000000000 ) ) ;
#78 = AXIS2_PLACEMENT_3D ( 'NONE', #25, #250, #277 ) ;
#79 = CARTESIAN_POINT ( 'NONE',  ( 0.000000000000000000, 0.000000000000000000, 1.953504000000000129 ) ) ;
#80 = FACE_OUTER_BOUND ( 'NONE', #224, .T. ) ;
#81 = EDGE_CURVE ( 'NONE', #97, #63, #76, .T. ) ;
#82 = LINE ( 'NONE', #110, #5 ) ;
#83 = LINE ( 'NONE', #86, #257 ) ;
#84 = CIRCLE ( 'NONE', #193, 0.03933062999999999837 ) ;
#85 = FACE_OUTER_BOUND ( 'NONE', #205, .T. ) ;
#86 = CARTESIAN_POINT ( 'NONE',  ( 0.03933063000000002613, 0.000000000000000000, 0.1968500000000000250 ) ) ;
#87 = SURFACE_STYLE_FILL_AREA ( #114 ) ;
#88 = DIRECTION ( 'NONE',  ( -0.1736481776669312194, 2.126576849575783625E-17, 0.9848077530122080203 ) ) ;
#89 = MECHANICAL_DESIGN_GEOMETRIC_PRESENTATION_REPRESENTATION (  '', ( #203 ), #172 ) ;
#90 =( LENGTH_UNIT ( ) NAMED_UNIT ( * ) SI_UNIT ( $, .METRE. ) );
#91 = ORIENTED_EDGE ( 'NONE', *, *, #232, .F. ) ;
#92 = ORIENTED_EDGE ( 'NONE', *, *, #155, .T. ) ;
#93 = EDGE_CURVE ( 'NONE', #160, #43, #84, .T. ) ;
#94 = AXIS2_PLACEMENT_3D ( 'NONE', #177, #284, #258 ) ;
#95 = CARTESIAN_POINT ( 'NONE',  ( 2.410717224121564935E-17, 0.000000000000000000, 0.1968500000000000250 ) ) ;
#96 = ORIENTED_EDGE ( 'NONE', *, *, #241, .F. ) ;
#97 = VERTEX_POINT ( 'NONE', #99 ) ;
#98 = VECTOR ( 'NONE', #197, 39.37007874015748143 ) ;
#99 = CARTESIAN_POINT ( 'NONE',  ( -0.06374000000000018540, 0.000000000000000000, 1.968503999999999809 ) ) ;
#100 = CARTESIAN_POINT ( 'NONE',  ( -0.07874000000000000443, 0.000000000000000000, 1.953504000000000129 ) ) ;
#101 = CARTESIAN_POINT ( 'NONE',  ( -0.06374000000000018540, 0.000000000000000000, 1.968503999999999809 ) ) ;
#102 = PRODUCT_RELATED_PRODUCT_CATEGORY ( 'part', '', ( #165 ) ) ;
#103 = MECHANICAL_DESIGN_GEOMETRIC_PRESENTATION_REPRESENTATION (  '', ( #58 ), #127 ) ;
#104 = CARTESIAN_POINT ( 'NONE',  ( 2.410717224121564935E-17, 0.000000000000000000, 0.1968500000000000250 ) ) ;
#105 = CIRCLE ( 'NONE', #141, 0.07874000000000000443 ) ;
#106 = EDGE_CURVE ( 'NONE', #43, #160, #23, .T. ) ;
#107 = CARTESIAN_POINT ( 'NONE',  ( -0.03933062999999999837, 0.000000000000000000, 9.633226027589770864E-18 ) ) ;
#108 = LINE ( 'NONE', #132, #18 ) ;
#109 = PRODUCT_CONTEXT ( 'NONE', #259, 'mechanical' ) ;
#110 = CARTESIAN_POINT ( 'NONE',  ( 0.07874000000000000443, 9.642868896486258509E-18, 1.968503999999999809 ) ) ;
#111 = CARTESIAN_POINT ( 'NONE',  ( 0.000000000000000000, 0.000000000000000000, 1.968503999999999809 ) ) ;
#112 = DIRECTION ( 'NONE',  ( 0.000000000000000000, 0.000000000000000000, 1.000000000000000000 ) ) ;
#113 = ADVANCED_FACE ( 'NONE', ( #24 ), #122, .T. ) ;
#114 = FILL_AREA_STYLE ('',( #62 ) ) ;
#115 = CYLINDRICAL_SURFACE ( 'NONE', #291, 0.03933063000000000531 ) ;
#116 = VERTEX_POINT ( 'NONE', #121 ) ;
#117 = CARTESIAN_POINT ( 'NONE',  ( 0.06374000000000018540, 8.724383797125754882E-18, 1.968503999999999809 ) ) ;
#118 = AXIS2_PLACEMENT_3D ( 'NONE', #285, #37, #9 ) ;
#119 = ORIENTED_EDGE ( 'NONE', *, *, #287, .T. ) ;
#120 = ORIENTED_EDGE ( 'NONE', *, *, #287, .F. ) ;
#121 = CARTESIAN_POINT ( 'NONE',  ( 0.07874000000000004607, 9.642868896486264672E-18, 0.4203516436035862891 ) ) ;
#122 = CONICAL_SURFACE ( 'NONE', #66, 0.06374000000000018540, 0.7853981633974522758 ) ;
#123 = FILL_AREA_STYLE_COLOUR ( '', #283 ) ;
#124 = EDGE_CURVE ( 'NONE', #21, #116, #34, .T. ) ;
#125 = DIRECTION ( 'NONE',  ( 1.000000000000000000, 0.000000000000000000, 0.000000000000000000 ) ) ;
#126 = SURFACE_SIDE_STYLE ('',( #26 ) ) ;
#127 =( GEOMETRIC_REPRESENTATION_CONTEXT ( 3 ) GLOBAL_UNCERTAINTY_ASSIGNED_CONTEXT ( ( #148 ) ) GLOBAL_UNIT_ASSIGNED_CONTEXT ( ( #157, #36, #267 ) ) REPRESENTATION_CONTEXT ( 'NONE', 'WORKASPACE' ) );
#128 = CARTESIAN_POINT ( 'NONE',  ( 0.000000000000000000, 0.000000000000000000, 1.968503999999999809 ) ) ;
#129 = UNCERTAINTY_MEASURE_WITH_UNIT (LENGTH_MEASURE( 1.000000000000000082E-05 ), #249, 'distance_accuracy_value', 'NONE');
#130 = CYLINDRICAL_SURFACE ( 'NONE', #263, 0.07874000000000000443 ) ;
#131 = FACE_OUTER_BOUND ( 'NONE', #270, .T. ) ;
#132 = CARTESIAN_POINT ( 'NONE',  ( 0.06374000000000018540, 7.805898697765251255E-18, 1.968503999999999809 ) ) ;
#133 = ADVANCED_FACE ( 'NONE', ( #212 ), #231, .T. ) ;
#134 = ADVANCED_FACE ( 'NONE', ( #80 ), #166, .T. ) ;
#135 = CARTESIAN_POINT ( 'NONE',  ( 0.000000000000000000, 0.000000000000000000, 1.968503999999999809 ) ) ;
#136 = ORIENTED_EDGE ( 'NONE', *, *, #183, .F. ) ;
#137 = CIRCLE ( 'NONE', #188, 0.07874000000000000443 ) ;
#138 = ORIENTED_EDGE ( 'NONE', *, *, #70, .F. ) ;
#139 = ORIENTED_EDGE ( 'NONE', *, *, #68, .F. ) ;
#140 = ORIENTED_EDGE ( 'NONE', *, *, #232, .T. ) ;
#141 = AXIS2_PLACEMENT_3D ( 'NONE', #79, #276, #125 ) ;
#142 = ORIENTED_EDGE ( 'NONE', *, *, #81, .F. ) ;
#143 = DIRECTION ( 'NONE',  ( -1.224646799147353207E-16, -0.000000000000000000, -1.000000000000000000 ) ) ;
#144 = AXIS2_PLACEMENT_3D ( 'NONE', #11, #219, #240 ) ;
#145 = CARTESIAN_POINT ( 'NONE',  ( -0.07873999999999994892, 0.000000000000000000, 0.4203516436035862891 ) ) ;
#146 = MANIFOLD_SOLID_BREP ( 'Cut-Revolve1', #248 ) ;
#147 = DIRECTION ( 'NONE',  ( -1.224646799147353207E-16, -0.000000000000000000, -1.000000000000000000 ) ) ;
#148 = UNCERTAINTY_MEASURE_WITH_UNIT (LENGTH_MEASURE( 1.000000000000000082E-05 ), #157, 'distance_accuracy_value', 'NONE');
#149 = CARTESIAN_POINT ( 'NONE',  ( -0.03933062999999997755, 7.229740955140571970E-18, 0.1968500000000000250 ) ) ;
#150 = APPLICATION_CONTEXT ( 'automotive_design' ) ;
#151 = CONICAL_SURFACE ( 'NONE', #221, 0.03933063000000000531, 0.1745329251994339192 ) ;
#152 = DIRECTION ( 'NONE',  ( 1.000000000000000000, 0.000000000000000000, -0.000000000000000000 ) ) ;
#153 = CARTESIAN_POINT ( 'NONE',  ( -0.07874000000000000443, 0.000000000000000000, 1.968503999999999809 ) ) ;
#154 = DIRECTION ( 'NONE',  ( 1.000000000000000000, 0.000000000000000000, 0.000000000000000000 ) ) ;
#155 = EDGE_CURVE ( 'NONE', #14, #97, #29, .T. ) ;
#156 = FACE_OUTER_BOUND ( 'NONE', #223, .T. ) ;
#157 =( CONVERSION_BASED_UNIT ( 'INCH', #238 ) LENGTH_UNIT ( ) NAMED_UNIT ( #75 ) );
#158 = EDGE_LOOP ( 'NONE', ( #65, #140, #222, #139 ) ) ;
#159 = VERTEX_POINT ( 'NONE', #191 ) ;
#160 = VERTEX_POINT ( 'NONE', #12 ) ;
#161 = ORIENTED_EDGE ( 'NONE', *, *, #265, .T. ) ;
#162 = ORIENTED_EDGE ( 'NONE', *, *, #74, .T. ) ;
#163 = ADVANCED_FACE ( 'NONE', ( #131 ), #178, .T. ) ;
#164 = DIRECTION ( 'NONE',  ( 0.000000000000000000, 0.000000000000000000, -1.000000000000000000 ) ) ;
#165 = PRODUCT ( 'Micro_AEMM-020-3X', 'Micro_AEMM-020-3X', '', ( #109 ) ) ;
#166 = CYLINDRICAL_SURFACE ( 'NONE', #78, 0.07874000000000000443 ) ;
#167 = DIRECTION ( 'NONE',  ( -1.224646799147353207E-16, -0.000000000000000000, -1.000000000000000000 ) ) ;
#168 = DIRECTION ( 'NONE',  ( 1.000000000000000000, 0.000000000000000000, 0.000000000000000000 ) ) ;
#169 = SURFACE_STYLE_USAGE ( .BOTH. , #126 ) ;
#170 = EDGE_CURVE ( 'NONE', #159, #116, #82, .T. ) ;
#171 = LINE ( 'NONE', #8, #181 ) ;
#172 =( GEOMETRIC_REPRESENTATION_CONTEXT ( 3 ) GLOBAL_UNCERTAINTY_ASSIGNED_CONTEXT ( ( #129 ) ) GLOBAL_UNIT_ASSIGNED_CONTEXT ( ( #249, #46, #216 ) ) REPRESENTATION_CONTEXT ( 'NONE', 'WORKASPACE' ) );
#173 = DIRECTION ( 'NONE',  ( 0.7071067811865502373, 8.659560562354966138E-17, -0.7071067811865446862 ) ) ;
#174 = PRESENTATION_STYLE_ASSIGNMENT (( #64 ) ) ;
#175 = DIRECTION ( 'NONE',  ( 1.000000000000000000, 0.000000000000000000, 0.000000000000000000 ) ) ;
#176 = ADVANCED_FACE ( 'NONE', ( #156 ), #61, .T. ) ;
#177 = CARTESIAN_POINT ( 'NONE',  ( 2.410717224121564935E-17, 0.000000000000000000, 0.1968500000000000250 ) ) ;
#178 = CONICAL_SURFACE ( 'NONE', #144, 0.06374000000000018540, 0.7853981633974522758 ) ;
#179 = ORIENTED_EDGE ( 'NONE', *, *, #296, .F. ) ;
#180 = ORIENTED_EDGE ( 'NONE', *, *, #274, .F. ) ;
#181 = VECTOR ( 'NONE', #88, 39.37007874015747433 ) ;
#182 = EDGE_LOOP ( 'NONE', ( #180, #299, #39, #45 ) ) ;
#183 = EDGE_CURVE ( 'NONE', #97, #14, #10, .T. ) ;
#184 = VERTEX_POINT ( 'NONE', #195 ) ;
#185 = EDGE_LOOP ( 'NONE', ( #242, #294, #138, #142 ) ) ;
#186 = CARTESIAN_POINT ( 'NONE',  ( -0.03933063000000000531, 0.000000000000000000, 4.816613013794886973E-18 ) ) ;
#187 = DIRECTION ( 'NONE',  ( -1.224646799147353207E-16, -0.000000000000000000, -1.000000000000000000 ) ) ;
#188 = AXIS2_PLACEMENT_3D ( 'NONE', #261, #32, #154 ) ;
#189 = AXIS2_PLACEMENT_3D ( 'NONE', #95, #225, #49 ) ;
#190 = DIRECTION ( 'NONE',  ( -1.000000000000000000, 0.000000000000000000, 0.000000000000000000 ) ) ;
#191 = CARTESIAN_POINT ( 'NONE',  ( 0.07874000000000000443, 9.642868896486258509E-18, 1.953504000000000129 ) ) ;
#192 = FACE_OUTER_BOUND ( 'NONE', #67, .T. ) ;
#193 = AXIS2_PLACEMENT_3D ( 'NONE', #28, #187, #4 ) ;
#194 = DIRECTION ( 'NONE',  ( -1.224646799147353207E-16, -0.000000000000000000, -1.000000000000000000 ) ) ;
#195 = CARTESIAN_POINT ( 'NONE',  ( 0.03933063000000002613, 0.000000000000000000, 0.1968500000000000250 ) ) ;
#196 =( NAMED_UNIT ( * ) SI_UNIT ( $, .STERADIAN. ) SOLID_ANGLE_UNIT ( ) );
#197 = DIRECTION ( 'NONE',  ( -0.000000000000000000, -0.000000000000000000, -1.000000000000000000 ) ) ;
#198 = LENGTH_MEASURE_WITH_UNIT ( LENGTH_MEASURE( 0.02539999999999999897 ), #237 );
#199 = ADVANCED_FACE ( 'NONE', ( #192 ), #236, .F. ) ;
#200 = CARTESIAN_POINT ( 'NONE',  ( 0.000000000000000000, 0.000000000000000000, 0.000000000000000000 ) ) ;
#201 = ORIENTED_EDGE ( 'NONE', *, *, #170, .F. ) ;
#202 = EDGE_LOOP ( 'NONE', ( #247, #273, #69, #120 ) ) ;
#203 = STYLED_ITEM ( 'NONE', ( #207 ), #146 ) ;
#204 = EDGE_CURVE ( 'NONE', #71, #21, #171, .T. ) ;
#205 = EDGE_LOOP ( 'NONE', ( #295, #41, #161, #228 ) ) ;
#206 = EDGE_LOOP ( 'NONE', ( #91, #162, #272, #246 ) ) ;
#207 = PRESENTATION_STYLE_ASSIGNMENT (( #169 ) ) ;
#208 = AXIS2_PLACEMENT_3D ( 'NONE', #104, #280, #251 ) ;
#209 = FILL_AREA_STYLE ('',( #123 ) ) ;
#210 = DIMENSIONAL_EXPONENTS ( 1.000000000000000000, 0.000000000000000000, 0.000000000000000000, 0.000000000000000000, 0.000000000000000000, 0.000000000000000000, 0.000000000000000000 ) ;
#211 = ADVANCED_FACE ( 'NONE', ( #85 ), #151, .T. ) ;
#212 = FACE_OUTER_BOUND ( 'NONE', #206, .T. ) ;
#213 = DIMENSIONAL_EXPONENTS ( 1.000000000000000000, 0.000000000000000000, 0.000000000000000000, 0.000000000000000000, 0.000000000000000000, 0.000000000000000000, 0.000000000000000000 ) ;
#214 = LINE ( 'NONE', #288, #48 ) ;
#215 = CIRCLE ( 'NONE', #94, 0.03933063000000000531 ) ;
#216 =( NAMED_UNIT ( * ) SI_UNIT ( $, .STERADIAN. ) SOLID_ANGLE_UNIT ( ) );
#217 = DIRECTION ( 'NONE',  ( 0.000000000000000000, 0.000000000000000000, 1.000000000000000000 ) ) ;
#218 = ADVANCED_FACE ( 'NONE', ( #282 ), #130, .T. ) ;
#219 = DIRECTION ( 'NONE',  ( 0.000000000000000000, 0.000000000000000000, -1.000000000000000000 ) ) ;
#220 = SURFACE_SIDE_STYLE ('',( #87 ) ) ;
#221 = AXIS2_PLACEMENT_3D ( 'NONE', #31, #256, #53 ) ;
#222 = ORIENTED_EDGE ( 'NONE', *, *, #106, .F. ) ;
#223 = EDGE_LOOP ( 'NONE', ( #245, #92 ) ) ;
#224 = EDGE_LOOP ( 'NONE', ( #201, #289, #119, #179 ) ) ;
#225 = DIRECTION ( 'NONE',  ( 1.224646799147353207E-16, 0.000000000000000000, 1.000000000000000000 ) ) ;
#226 = PRESENTATION_LAYER_ASSIGNMENT (  '', '', ( #58 ) ) ;
#227 = VECTOR ( 'NONE', #147, 39.37007874015748143 ) ;
#228 = ORIENTED_EDGE ( 'NONE', *, *, #296, .T. ) ;
#229 = CARTESIAN_POINT ( 'NONE',  ( 0.000000000000000000, 0.000000000000000000, 1.953504000000000129 ) ) ;
#230 = AXIS2_PLACEMENT_3D ( 'NONE', #7, #167, #253 ) ;
#231 = CYLINDRICAL_SURFACE ( 'NONE', #230, 0.03933063000000000531 ) ;
#232 = EDGE_CURVE ( 'NONE', #184, #160, #214, .T. ) ;
#233 = CARTESIAN_POINT ( 'NONE',  ( 5.147822948554609098E-17, 0.000000000000000000, 0.4203516436035862891 ) ) ;
#234 = COLOUR_RGB ( '',0.7921568627450980005, 0.8196078431372548767, 0.9333333333333333481 ) ;
#235 = DIRECTION ( 'NONE',  ( 0.000000000000000000, 0.000000000000000000, 1.000000000000000000 ) ) ;
#236 = PLANE ( 'NONE',  #118 ) ;
#237 =( LENGTH_UNIT ( ) NAMED_UNIT ( * ) SI_UNIT ( $, .METRE. ) );
#238 = LENGTH_MEASURE_WITH_UNIT ( LENGTH_MEASURE( 0.02539999999999999897 ), #90 );
#239 = DIRECTION ( 'NONE',  ( -0.000000000000000000, -0.000000000000000000, -1.000000000000000000 ) ) ;
#240 = DIRECTION ( 'NONE',  ( -1.000000000000000000, 0.000000000000000000, 0.000000000000000000 ) ) ;
#241 = EDGE_CURVE ( 'NONE', #14, #159, #108, .T. ) ;
#242 = ORIENTED_EDGE ( 'NONE', *, *, #155, .F. ) ;
#243 = AXIS2_PLACEMENT_3D ( 'NONE', #22, #143, #3 ) ;
#244 = DIRECTION ( 'NONE',  ( -1.224646799147353207E-16, -0.000000000000000000, -1.000000000000000000 ) ) ;
#245 = ORIENTED_EDGE ( 'NONE', *, *, #183, .T. ) ;
#246 = ORIENTED_EDGE ( 'NONE', *, *, #93, .F. ) ;
#247 = ORIENTED_EDGE ( 'NONE', *, *, #70, .T. ) ;
#248 = CLOSED_SHELL ( 'NONE', ( #6, #15, #113, #218, #134, #176, #163, #211, #133, #199 ) ) ;
#249 =( CONVERSION_BASED_UNIT ( 'INCH', #73 ) LENGTH_UNIT ( ) NAMED_UNIT ( #213 ) );
#250 = DIRECTION ( 'NONE',  ( -0.000000000000000000, -0.000000000000000000, -1.000000000000000000 ) ) ;
#251 = DIRECTION ( 'NONE',  ( -1.000000000000000000, 0.000000000000000000, 0.000000000000000000 ) ) ;
#252 = PRODUCT_DEFINITION ( 'UNKNOWN', '', #72, #27 ) ;
#253 = DIRECTION ( 'NONE',  ( -1.000000000000000000, 0.000000000000000000, 1.224646799147353207E-16 ) ) ;
#254 = UNCERTAINTY_MEASURE_WITH_UNIT (LENGTH_MEASURE( 1.000000000000000082E-05 ), #266, 'distance_accuracy_value', 'NONE');
#255 =( LENGTH_UNIT ( ) NAMED_UNIT ( * ) SI_UNIT ( $, .METRE. ) );
#256 = DIRECTION ( 'NONE',  ( 1.224646799147353207E-16, 0.000000000000000000, 1.000000000000000000 ) ) ;
#257 = VECTOR ( 'NONE', #56, 39.37007874015748143 ) ;
#258 = DIRECTION ( 'NONE',  ( -1.000000000000000000, 0.000000000000000000, 0.000000000000000000 ) ) ;
#259 = APPLICATION_CONTEXT ( 'automotive_design' ) ;
#260 = DIRECTION ( 'NONE',  ( -1.000000000000000000, 0.000000000000000000, 0.000000000000000000 ) ) ;
#261 = CARTESIAN_POINT ( 'NONE',  ( 5.147822948554609098E-17, 0.000000000000000000, 0.4203516436035862891 ) ) ;
#262 = APPLICATION_PROTOCOL_DEFINITION ( 'draft international standard', 'automotive_design', 1998, #259 ) ;
#263 = AXIS2_PLACEMENT_3D ( 'NONE', #135, #57, #260 ) ;
#264 = VECTOR ( 'NONE', #50, 39.37007874015748854 ) ;
#265 = EDGE_CURVE ( 'NONE', #184, #116, #83, .T. ) ;
#266 =( CONVERSION_BASED_UNIT ( 'INCH', #198 ) LENGTH_UNIT ( ) NAMED_UNIT ( #210 ) );
#267 =( NAMED_UNIT ( * ) SI_UNIT ( $, .STERADIAN. ) SOLID_ANGLE_UNIT ( ) );
#268 = ORIENTED_EDGE ( 'NONE', *, *, #93, .T. ) ;
#269 = AXIS2_PLACEMENT_3D ( 'NONE', #275, #112, #33 ) ;
#270 = EDGE_LOOP ( 'NONE', ( #96, #136, #16, #1 ) ) ;
#271 = PRODUCT_DEFINITION_SHAPE ( 'NONE', 'NONE',  #252 ) ;
#272 = ORIENTED_EDGE ( 'NONE', *, *, #68, .T. ) ;
#273 = ORIENTED_EDGE ( 'NONE', *, *, #170, .T. ) ;
#274 = EDGE_CURVE ( 'NONE', #71, #184, #215, .T. ) ;
#275 = CARTESIAN_POINT ( 'NONE',  ( 0.000000000000000000, 0.000000000000000000, 1.968503999999999809 ) ) ;
#276 = DIRECTION ( 'NONE',  ( 0.000000000000000000, 0.000000000000000000, -1.000000000000000000 ) ) ;
#277 = DIRECTION ( 'NONE',  ( -1.000000000000000000, 0.000000000000000000, 0.000000000000000000 ) ) ;
#278 = DIRECTION ( 'NONE',  ( 0.000000000000000000, 0.000000000000000000, -1.000000000000000000 ) ) ;
#279 = PRESENTATION_LAYER_ASSIGNMENT (  '', '', ( #203 ) ) ;
#280 = DIRECTION ( 'NONE',  ( -1.224646799147353207E-16, -0.000000000000000000, -1.000000000000000000 ) ) ;
#281 = CARTESIAN_POINT ( 'NONE',  ( 0.000000000000000000, 0.000000000000000000, 1.968503999999999809 ) ) ;
#282 = FACE_OUTER_BOUND ( 'NONE', #202, .T. ) ;
#283 = COLOUR_RGB ( '',0.7921568627450980005, 0.8196078431372548767, 0.9333333333333333481 ) ;
#284 = DIRECTION ( 'NONE',  ( -1.224646799147353207E-16, -0.000000000000000000, -1.000000000000000000 ) ) ;
#285 = CARTESIAN_POINT ( 'NONE',  ( 0.000000000000000000, 0.000000000000000000, 0.000000000000000000 ) ) ;
#286 = ADVANCED_BREP_SHAPE_REPRESENTATION ( 'Micro_AEMM-020-3X', ( #146, #290 ), #297 ) ;
#287 = EDGE_CURVE ( 'NONE', #63, #21, #55, .T. ) ;
#288 = CARTESIAN_POINT ( 'NONE',  ( 0.03933063000000000531, 4.816613013794886973E-18, -4.816613013794886973E-18 ) ) ;
#289 = ORIENTED_EDGE ( 'NONE', *, *, #52, .T. ) ;
#290 = AXIS2_PLACEMENT_3D ( 'NONE', #13, #217, #38 ) ;
#291 = AXIS2_PLACEMENT_3D ( 'NONE', #200, #244, #17 ) ;
#292 =( NAMED_UNIT ( * ) PLANE_ANGLE_UNIT ( ) SI_UNIT ( $, .RADIAN. ) );
#293 = APPLICATION_PROTOCOL_DEFINITION ( 'draft international standard', 'automotive_design', 1998, #150 ) ;
#294 = ORIENTED_EDGE ( 'NONE', *, *, #241, .T. ) ;
#295 = ORIENTED_EDGE ( 'NONE', *, *, #204, .F. ) ;
#296 = EDGE_CURVE ( 'NONE', #116, #21, #137, .T. ) ;
#297 =( GEOMETRIC_REPRESENTATION_CONTEXT ( 3 ) GLOBAL_UNCERTAINTY_ASSIGNED_CONTEXT ( ( #254 ) ) GLOBAL_UNIT_ASSIGNED_CONTEXT ( ( #266, #292, #196 ) ) REPRESENTATION_CONTEXT ( 'NONE', 'WORKASPACE' ) );
#298 = FACE_OUTER_BOUND ( 'NONE', #182, .T. ) ;
#299 = ORIENTED_EDGE ( 'NONE', *, *, #204, .T. ) ;
ENDSEC;
END-ISO-10303-21;
