ISO-10303-21;
HEADER;
FILE_DESCRIPTION (( 'STEP AP214' ),
    '1' );
FILE_NAME ('Micro_SBMM-030-415.STEP',
    '2021-09-02T17:07:57',
    ( '' ),
    ( '' ),
    'SwSTEP 2.0',
    'SolidWorks 2020',
    '' );
FILE_SCHEMA (( 'AUTOMOTIVE_DESIGN' ));
ENDSEC;

DATA;
#1 = EDGE_LOOP ( 'NONE', ( #121, #258, #118, #50, #192 ) ) ;
#2 = DIRECTION ( 'NONE',  ( -0.0000000000000000000, -0.0000000000000000000, -1.000000000000000000 ) ) ;
#3 = ORIENTED_EDGE ( 'NONE', *, *, #82, .F. ) ;
#4 = AXIS2_PLACEMENT_3D ( 'NONE', #285, #153, #90 ) ;
#5 = VECTOR ( 'NONE', #34, 39.37007874015748143 ) ;
#6 = CARTESIAN_POINT ( 'NONE',  ( 0.1181100000000000344, 1.446430334472939084E-17, 2.937755999999999368 ) ) ;
#7 = FACE_OUTER_BOUND ( 'NONE', #165, .T. ) ;
#8 = ORIENTED_EDGE ( 'NONE', *, *, #217, .T. ) ;
#9 = CARTESIAN_POINT ( 'NONE',  ( 0.0000000000000000000, 0.0000000000000000000, 2.937755999999999368 ) ) ;
#10 = ORIENTED_EDGE ( 'NONE', *, *, #116, .F. ) ;
#11 = UNCERTAINTY_MEASURE_WITH_UNIT (LENGTH_MEASURE( 1.000000000000000082E-05 ), #341, 'distance_accuracy_value', 'NONE');
#12 = EDGE_LOOP ( 'NONE', ( #123, #114, #174, #274 ) ) ;
#13 = EDGE_CURVE ( 'NONE', #176, #334, #243, .T. ) ;
#14 =( CONVERSION_BASED_UNIT ( 'INCH', #96 ) LENGTH_UNIT ( ) NAMED_UNIT ( #49 ) );
#15 = CARTESIAN_POINT ( 'NONE',  ( -0.1181100000000000344, 0.0000000000000000000, 1.456693000000000016 ) ) ;
#16 = CIRCLE ( 'NONE', #66, 0.03936999999999998140 ) ;
#17 = LENGTH_MEASURE_WITH_UNIT ( LENGTH_MEASURE( 0.02539999999999999897 ), #45 );
#18 = EDGE_CURVE ( 'NONE', #231, #33, #295, .T. ) ;
#19 = LINE ( 'NONE', #161, #134 ) ;
#20 = AXIS2_PLACEMENT_3D ( 'NONE', #9, #306, #132 ) ;
#21 = EDGE_CURVE ( 'NONE', #230, #170, #336, .T. ) ;
#22 = ADVANCED_FACE ( 'NONE', ( #283 ), #344, .T. ) ;
#23 = CYLINDRICAL_SURFACE ( 'NONE', #81, 0.1181100000000000344 ) ;
#24 = ORIENTED_EDGE ( 'NONE', *, *, #116, .T. ) ;
#25 = AXIS2_PLACEMENT_3D ( 'NONE', #105, #138, #59 ) ;
#26 = CYLINDRICAL_SURFACE ( 'NONE', #25, 0.1181100000000000344 ) ;
#27 = DIRECTION ( 'NONE',  ( 0.0000000000000000000, 0.0000000000000000000, 1.000000000000000000 ) ) ;
#28 = APPLICATION_CONTEXT ( 'automotive_design' ) ;
#29 = VERTEX_POINT ( 'NONE', #91 ) ;
#30 = CIRCLE ( 'NONE', #86, 0.1181100000000000344 ) ;
#31 = CARTESIAN_POINT ( 'NONE',  ( 0.1181100000000000344, 1.446430334472939084E-17, 2.952755999999999936 ) ) ;
#32 = PRODUCT_DEFINITION_SHAPE ( 'NONE', 'NONE',  #317 ) ;
#33 = VERTEX_POINT ( 'NONE', #15 ) ;
#34 = DIRECTION ( 'NONE',  ( 0.09053553870087646671, 0.0000000000000000000, 0.9958932253169222593 ) ) ;
#35 = VERTEX_POINT ( 'NONE', #282 ) ;
#36 =( LENGTH_UNIT ( ) NAMED_UNIT ( * ) SI_UNIT ( $, .METRE. ) );
#37 = ADVANCED_FACE ( 'NONE', ( #207 ), #97, .T. ) ;
#38 = ORIENTED_EDGE ( 'NONE', *, *, #259, .F. ) ;
#39 = STYLED_ITEM ( 'NONE', ( #130 ), #128 ) ;
#40 = PRODUCT_CONTEXT ( 'NONE', #28, 'mechanical' ) ;
#41 = CARTESIAN_POINT ( 'NONE',  ( 0.0000000000000000000, 0.0000000000000000000, 2.952755999999999936 ) ) ;
#42 = CARTESIAN_POINT ( 'NONE',  ( 0.0000000000000000000, 0.0000000000000000000, 1.586614299999997479 ) ) ;
#43 = AXIS2_PLACEMENT_3D ( 'NONE', #54, #224, #27 ) ;
#44 = DIRECTION ( 'NONE',  ( -1.000000000000000000, 0.0000000000000000000, 0.0000000000000000000 ) ) ;
#45 =( LENGTH_UNIT ( ) NAMED_UNIT ( * ) SI_UNIT ( $, .METRE. ) );
#46 = CARTESIAN_POINT ( 'NONE',  ( 0.0000000000000000000, 0.0000000000000000000, 0.05905500000000000332 ) ) ;
#47 = AXIS2_PLACEMENT_3D ( 'NONE', #183, #286, #312 ) ;
#48 = DIRECTION ( 'NONE',  ( 1.000000000000000000, 0.0000000000000000000, 0.0000000000000000000 ) ) ;
#49 = DIMENSIONAL_EXPONENTS ( 1.000000000000000000, 0.0000000000000000000, 0.0000000000000000000, 0.0000000000000000000, 0.0000000000000000000, 0.0000000000000000000, 0.0000000000000000000 ) ;
#50 = ORIENTED_EDGE ( 'NONE', *, *, #247, .F. ) ;
#51 = VERTEX_POINT ( 'NONE', #160 ) ;
#52 = AXIS2_PLACEMENT_3D ( 'NONE', #278, #109, #83 ) ;
#53 = LINE ( 'NONE', #268, #5 ) ;
#54 = CARTESIAN_POINT ( 'NONE',  ( 0.0000000000000000000, 0.0000000000000000000, 0.05905500000000000332 ) ) ;
#55 = ADVANCED_FACE ( 'NONE', ( #158 ), #261, .T. ) ;
#56 = CARTESIAN_POINT ( 'NONE',  ( 0.0000000000000000000, 0.0000000000000000000, 2.952755999999999936 ) ) ;
#57 = ORIENTED_EDGE ( 'NONE', *, *, #21, .F. ) ;
#58 = CIRCLE ( 'NONE', #43, 0.05905499999999998945 ) ;
#59 = DIRECTION ( 'NONE',  ( -1.000000000000000000, 0.0000000000000000000, 0.0000000000000000000 ) ) ;
#60 = ORIENTED_EDGE ( 'NONE', *, *, #82, .T. ) ;
#61 = EDGE_CURVE ( 'NONE', #334, #29, #129, .T. ) ;
#62 = LINE ( 'NONE', #199, #163 ) ;
#63 = EDGE_CURVE ( 'NONE', #279, #226, #30, .T. ) ;
#64 = DIRECTION ( 'NONE',  ( 0.0000000000000000000, 0.0000000000000000000, 1.000000000000000000 ) ) ;
#65 = EDGE_LOOP ( 'NONE', ( #294, #60, #218, #38 ) ) ;
#66 = AXIS2_PLACEMENT_3D ( 'NONE', #287, #180, #204 ) ;
#67 = ORIENTED_EDGE ( 'NONE', *, *, #21, .T. ) ;
#68 = LENGTH_MEASURE_WITH_UNIT ( LENGTH_MEASURE( 0.02539999999999999897 ), #260 );
#69 = FILL_AREA_STYLE ('',( #311 ) ) ;
#70 =( NAMED_UNIT ( * ) SI_UNIT ( $, .STERADIAN. ) SOLID_ANGLE_UNIT ( ) );
#71 = CARTESIAN_POINT ( 'NONE',  ( 0.0000000000000000000, 0.0000000000000000000, 0.1030719981370833843 ) ) ;
#72 = FACE_OUTER_BOUND ( 'NONE', #78, .T. ) ;
#73 = EDGE_CURVE ( 'NONE', #170, #230, #162, .T. ) ;
#74 =( NAMED_UNIT ( * ) SI_UNIT ( $, .STERADIAN. ) SOLID_ANGLE_UNIT ( ) );
#75 = DIRECTION ( 'NONE',  ( -0.0000000000000000000, -0.0000000000000000000, -1.000000000000000000 ) ) ;
#76 = CIRCLE ( 'NONE', #254, 0.1181100000000000344 ) ;
#77 = EDGE_CURVE ( 'NONE', #334, #176, #234, .T. ) ;
#78 = EDGE_LOOP ( 'NONE', ( #332, #253, #195, #10, #3 ) ) ;
#79 = VERTEX_POINT ( 'NONE', #95 ) ;
#80 = CARTESIAN_POINT ( 'NONE',  ( -0.1031099999999991745, 0.0000000000000000000, 2.952755999999999936 ) ) ;
#81 = AXIS2_PLACEMENT_3D ( 'NONE', #322, #325, #249 ) ;
#82 = EDGE_CURVE ( 'NONE', #35, #51, #302, .T. ) ;
#83 = DIRECTION ( 'NONE',  ( -1.000000000000000000, 0.0000000000000000000, 0.0000000000000000000 ) ) ;
#84 = ORIENTED_EDGE ( 'NONE', *, *, #73, .F. ) ;
#85 = FACE_OUTER_BOUND ( 'NONE', #87, .T. ) ;
#86 = AXIS2_PLACEMENT_3D ( 'NONE', #289, #315, #291 ) ;
#87 = EDGE_LOOP ( 'NONE', ( #181, #24, #310, #221 ) ) ;
#88 = LINE ( 'NONE', #31, #93 ) ;
#89 = ORIENTED_EDGE ( 'NONE', *, *, #152, .F. ) ;
#90 = DIRECTION ( 'NONE',  ( -1.000000000000000000, 0.0000000000000000000, 0.0000000000000000000 ) ) ;
#91 = CARTESIAN_POINT ( 'NONE',  ( -0.03936999999999998140, 0.0000000000000000000, 0.1030719981370833843 ) ) ;
#92 = VECTOR ( 'NONE', #75, 39.37007874015748143 ) ;
#93 = VECTOR ( 'NONE', #2, 39.37007874015748143 ) ;
#94 = ADVANCED_FACE ( 'NONE', ( #72 ), #209, .T. ) ;
#95 = CARTESIAN_POINT ( 'NONE',  ( 0.0000000000000000000, 0.03936999999999998140, 0.1030719981370833843 ) ) ;
#96 = LENGTH_MEASURE_WITH_UNIT ( LENGTH_MEASURE( 0.02539999999999999897 ), #36 );
#97 = SPHERICAL_SURFACE ( 'NONE', #148, 0.05905499999999999639 ) ;
#98 = DIRECTION ( 'NONE',  ( -0.0000000000000000000, -0.0000000000000000000, -1.000000000000000000 ) ) ;
#99 = SURFACE_SIDE_STYLE ('',( #186 ) ) ;
#100 = DIMENSIONAL_EXPONENTS ( 1.000000000000000000, 0.0000000000000000000, 0.0000000000000000000, 0.0000000000000000000, 0.0000000000000000000, 0.0000000000000000000, 0.0000000000000000000 ) ;
#101 = EDGE_CURVE ( 'NONE', #334, #33, #19, .T. ) ;
#102 = COLOUR_RGB ( '',0.7921568627450980005, 0.8196078431372548767, 0.9333333333333333481 ) ;
#103 = ADVANCED_BREP_SHAPE_REPRESENTATION ( 'Micro_SBMM-030-415', ( #128, #244 ), #225 ) ;
#104 = FACE_OUTER_BOUND ( 'NONE', #1, .T. ) ;
#105 = CARTESIAN_POINT ( 'NONE',  ( 0.0000000000000000000, 0.0000000000000000000, 2.952755999999999936 ) ) ;
#106 = PRESENTATION_LAYER_ASSIGNMENT (  '', '', ( #126 ) ) ;
#107 = UNCERTAINTY_MEASURE_WITH_UNIT (LENGTH_MEASURE( 1.000000000000000082E-05 ), #14, 'distance_accuracy_value', 'NONE');
#108 = ORIENTED_EDGE ( 'NONE', *, *, #101, .T. ) ;
#109 = DIRECTION ( 'NONE',  ( 0.0000000000000000000, 0.0000000000000000000, -1.000000000000000000 ) ) ;
#110 = CLOSED_SHELL ( 'NONE', ( #144, #37, #159, #187, #240, #228, #227, #22, #55, #167, #94 ) ) ;
#111 = CARTESIAN_POINT ( 'NONE',  ( 0.0000000000000000000, 0.0000000000000000000, 1.456693000000000016 ) ) ;
#112 = ORIENTED_EDGE ( 'NONE', *, *, #18, .F. ) ;
#113 = DIRECTION ( 'NONE',  ( -0.0000000000000000000, -0.0000000000000000000, -1.000000000000000000 ) ) ;
#114 = ORIENTED_EDGE ( 'NONE', *, *, #191, .T. ) ;
#115 = CARTESIAN_POINT ( 'NONE',  ( 0.1031099999999991745, 1.262733314600825725E-17, 2.952755999999999936 ) ) ;
#116 = EDGE_CURVE ( 'NONE', #51, #29, #327, .T. ) ;
#117 = AXIS2_PLACEMENT_3D ( 'NONE', #326, #203, #179 ) ;
#118 = ORIENTED_EDGE ( 'NONE', *, *, #313, .F. ) ;
#119 = AXIS2_PLACEMENT_3D ( 'NONE', #46, #266, #241 ) ;
#120 = CARTESIAN_POINT ( 'NONE',  ( 0.0000000000000000000, 0.0000000000000000000, 0.0000000000000000000 ) ) ;
#121 = ORIENTED_EDGE ( 'NONE', *, *, #77, .T. ) ;
#122 = SHAPE_DEFINITION_REPRESENTATION ( #32, #103 ) ;
#123 = ORIENTED_EDGE ( 'NONE', *, *, #152, .T. ) ;
#124 = SURFACE_SIDE_STYLE ('',( #281 ) ) ;
#125 = DIRECTION ( 'NONE',  ( -1.000000000000000000, 0.0000000000000000000, 0.0000000000000000000 ) ) ;
#126 = STYLED_ITEM ( 'NONE', ( #264 ), #103 ) ;
#127 = DIRECTION ( 'NONE',  ( 1.000000000000000000, 0.0000000000000000000, 0.0000000000000000000 ) ) ;
#128 = MANIFOLD_SOLID_BREP ( 'Cut-Revolve3', #110 ) ;
#129 = LINE ( 'NONE', #290, #92 ) ;
#130 = PRESENTATION_STYLE_ASSIGNMENT (( #184 ) ) ;
#131 = CIRCLE ( 'NONE', #236, 0.03936999999999998140 ) ;
#132 = DIRECTION ( 'NONE',  ( 1.000000000000000000, 0.0000000000000000000, 0.0000000000000000000 ) ) ;
#133 = ORIENTED_EDGE ( 'NONE', *, *, #293, .T. ) ;
#134 = VECTOR ( 'NONE', #338, 39.37007874015748143 ) ;
#135 = AXIS2_PLACEMENT_3D ( 'NONE', #168, #113, #329 ) ;
#136 = PRODUCT_DEFINITION_CONTEXT ( 'detailed design', #216, 'design' ) ;
#137 = EDGE_CURVE ( 'NONE', #51, #143, #320, .T. ) ;
#138 = DIRECTION ( 'NONE',  ( -0.0000000000000000000, -0.0000000000000000000, -1.000000000000000000 ) ) ;
#139 = DIRECTION ( 'NONE',  ( 0.0000000000000000000, 0.0000000000000000000, 1.000000000000000000 ) ) ;
#140 = VECTOR ( 'NONE', #98, 39.37007874015748143 ) ;
#141 = ORIENTED_EDGE ( 'NONE', *, *, #280, .T. ) ;
#142 = LINE ( 'NONE', #252, #276 ) ;
#143 = VERTEX_POINT ( 'NONE', #342 ) ;
#144 = ADVANCED_FACE ( 'NONE', ( #104 ), #316, .T. ) ;
#145 = DIRECTION ( 'NONE',  ( 1.000000000000000000, 0.0000000000000000000, 0.0000000000000000000 ) ) ;
#146 = ORIENTED_EDGE ( 'NONE', *, *, #280, .F. ) ;
#147 =( NAMED_UNIT ( * ) PLANE_ANGLE_UNIT ( ) SI_UNIT ( $, .RADIAN. ) );
#148 = AXIS2_PLACEMENT_3D ( 'NONE', #235, #127, #239 ) ;
#149 = ORIENTED_EDGE ( 'NONE', *, *, #213, .F. ) ;
#150 = APPLICATION_PROTOCOL_DEFINITION ( 'draft international standard', 'automotive_design', 1998, #216 ) ;
#151 = DIRECTION ( 'NONE',  ( 0.0000000000000000000, 0.0000000000000000000, -1.000000000000000000 ) ) ;
#152 = EDGE_CURVE ( 'NONE', #226, #279, #328, .T. ) ;
#153 = DIRECTION ( 'NONE',  ( -0.0000000000000000000, -0.0000000000000000000, -1.000000000000000000 ) ) ;
#154 = APPLICATION_PROTOCOL_DEFINITION ( 'draft international standard', 'automotive_design', 1998, #28 ) ;
#155 = DIRECTION ( 'NONE',  ( -0.0000000000000000000, -0.0000000000000000000, -1.000000000000000000 ) ) ;
#156 = MECHANICAL_DESIGN_GEOMETRIC_PRESENTATION_REPRESENTATION (  '', ( #39 ), #173 ) ;
#157 =( NAMED_UNIT ( * ) PLANE_ANGLE_UNIT ( ) SI_UNIT ( $, .RADIAN. ) );
#158 = FACE_OUTER_BOUND ( 'NONE', #321, .T. ) ;
#159 = ADVANCED_FACE ( 'NONE', ( #194 ), #314, .T. ) ;
#160 = CARTESIAN_POINT ( 'NONE',  ( 4.821434448243127714E-18, -0.03936999999999998140, 0.1030719981370833843 ) ) ;
#161 = CARTESIAN_POINT ( 'NONE',  ( -0.1299209999999998144, 1.591073367920230651E-17, 1.586614299999997479 ) ) ;
#162 = CIRCLE ( 'NONE', #206, 0.1031099999999991745 ) ;
#163 = VECTOR ( 'NONE', #304, 39.37007874015748143 ) ;
#164 = DIMENSIONAL_EXPONENTS ( 1.000000000000000000, 0.0000000000000000000, 0.0000000000000000000, 0.0000000000000000000, 0.0000000000000000000, 0.0000000000000000000, 0.0000000000000000000 ) ;
#165 = EDGE_LOOP ( 'NONE', ( #330, #67 ) ) ;
#166 = AXIS2_PLACEMENT_3D ( 'NONE', #275, #139, #145 ) ;
#167 = ADVANCED_FACE ( 'NONE', ( #85 ), #202, .T. ) ;
#168 = CARTESIAN_POINT ( 'NONE',  ( 0.0000000000000000000, 0.0000000000000000000, 0.0000000000000000000 ) ) ;
#169 = FACE_OUTER_BOUND ( 'NONE', #201, .T. ) ;
#170 = VERTEX_POINT ( 'NONE', #80 ) ;
#171 = CARTESIAN_POINT ( 'NONE',  ( 0.1031099999999991745, 1.354581824536882559E-17, 2.952755999999999936 ) ) ;
#172 = COLOUR_RGB ( '',0.7921568627450980005, 0.8196078431372548767, 0.9333333333333333481 ) ;
#173 =( GEOMETRIC_REPRESENTATION_CONTEXT ( 3 ) GLOBAL_UNCERTAINTY_ASSIGNED_CONTEXT ( ( #11 ) ) GLOBAL_UNIT_ASSIGNED_CONTEXT ( ( #341, #212, #74 ) ) REPRESENTATION_CONTEXT ( 'NONE', 'WORKASPACE' ) );
#174 = ORIENTED_EDGE ( 'NONE', *, *, #18, .T. ) ;
#175 = DIRECTION ( 'NONE',  ( 1.000000000000000000, 0.0000000000000000000, 0.0000000000000000000 ) ) ;
#176 = VERTEX_POINT ( 'NONE', #300 ) ;
#177 = FILL_AREA_STYLE_COLOUR ( '', #102 ) ;
#178 = DIRECTION ( 'NONE',  ( 1.000000000000000000, 0.0000000000000000000, 0.0000000000000000000 ) ) ;
#179 = DIRECTION ( 'NONE',  ( 1.000000000000000000, 0.0000000000000000000, 0.0000000000000000000 ) ) ;
#180 = DIRECTION ( 'NONE',  ( -0.0000000000000000000, -0.0000000000000000000, -1.000000000000000000 ) ) ;
#181 = ORIENTED_EDGE ( 'NONE', *, *, #137, .F. ) ;
#182 = DIRECTION ( 'NONE',  ( 1.000000000000000000, 0.0000000000000000000, 0.0000000000000000000 ) ) ;
#183 = CARTESIAN_POINT ( 'NONE',  ( 0.0000000000000000000, 0.0000000000000000000, 0.5905510000000000481 ) ) ;
#184 = SURFACE_STYLE_USAGE ( .BOTH. , #99 ) ;
#185 = AXIS2_PLACEMENT_3D ( 'NONE', #56, #343, #323 ) ;
#186 = SURFACE_STYLE_FILL_AREA ( #69 ) ;
#187 = ADVANCED_FACE ( 'NONE', ( #222 ), #189, .T. ) ;
#188 = DIRECTION ( 'NONE',  ( 0.0000000000000000000, 0.0000000000000000000, 1.000000000000000000 ) ) ;
#189 = CONICAL_SURFACE ( 'NONE', #52, 0.1031099999999991745, 0.7853981633974500554 ) ;
#190 = ORIENTED_EDGE ( 'NONE', *, *, #63, .F. ) ;
#191 = EDGE_CURVE ( 'NONE', #279, #231, #88, .T. ) ;
#192 = ORIENTED_EDGE ( 'NONE', *, *, #61, .F. ) ;
#193 = LINE ( 'NONE', #115, #262 ) ;
#194 = FACE_OUTER_BOUND ( 'NONE', #255, .T. ) ;
#195 = ORIENTED_EDGE ( 'NONE', *, *, #61, .T. ) ;
#196 = CARTESIAN_POINT ( 'NONE',  ( 0.0000000000000000000, 0.0000000000000000000, 0.05905500000000000332 ) ) ;
#197 = EDGE_CURVE ( 'NONE', #230, #279, #193, .T. ) ;
#198 = ORIENTED_EDGE ( 'NONE', *, *, #197, .F. ) ;
#199 = CARTESIAN_POINT ( 'NONE',  ( 0.03936999999999996058, 4.821434448243124632E-18, 0.0000000000000000000 ) ) ;
#200 = AXIS2_PLACEMENT_3D ( 'NONE', #42, #188, #48 ) ;
#201 = EDGE_LOOP ( 'NONE', ( #305, #324, #133, #141 ) ) ;
#202 = SPHERICAL_SURFACE ( 'NONE', #296, 0.05905499999999999639 ) ;
#203 = DIRECTION ( 'NONE',  ( 0.0000000000000000000, 0.0000000000000000000, 1.000000000000000000 ) ) ;
#204 = DIRECTION ( 'NONE',  ( -1.000000000000000000, 0.0000000000000000000, 0.0000000000000000000 ) ) ;
#205 = EDGE_LOOP ( 'NONE', ( #198, #84, #8, #190 ) ) ;
#206 = AXIS2_PLACEMENT_3D ( 'NONE', #210, #337, #237 ) ;
#207 = FACE_OUTER_BOUND ( 'NONE', #65, .T. ) ;
#208 = CARTESIAN_POINT ( 'NONE',  ( -0.1181100000000000344, 0.0000000000000000000, 2.952755999999999936 ) ) ;
#209 = CYLINDRICAL_SURFACE ( 'NONE', #288, 0.03936999999999996058 ) ;
#210 = CARTESIAN_POINT ( 'NONE',  ( 0.0000000000000000000, 0.0000000000000000000, 2.952755999999999936 ) ) ;
#211 = AXIS2_PLACEMENT_3D ( 'NONE', #307, #64, #178 ) ;
#212 =( NAMED_UNIT ( * ) PLANE_ANGLE_UNIT ( ) SI_UNIT ( $, .RADIAN. ) );
#213 = EDGE_CURVE ( 'NONE', #176, #231, #53, .T. ) ;
#214 = CARTESIAN_POINT ( 'NONE',  ( 0.0000000000000000000, 0.0000000000000000000, 0.1030719981370833843 ) ) ;
#215 = DIRECTION ( 'NONE',  ( -0.0000000000000000000, -0.0000000000000000000, -1.000000000000000000 ) ) ;
#216 = APPLICATION_CONTEXT ( 'automotive_design' ) ;
#217 = EDGE_CURVE ( 'NONE', #170, #226, #142, .T. ) ;
#218 = ORIENTED_EDGE ( 'NONE', *, *, #137, .T. ) ;
#219 = DIRECTION ( 'NONE',  ( 0.0000000000000000000, 1.000000000000000000, 0.0000000000000000000 ) ) ;
#220 = DIRECTION ( 'NONE',  ( 0.0000000000000000000, 0.0000000000000000000, 1.000000000000000000 ) ) ;
#221 = ORIENTED_EDGE ( 'NONE', *, *, #259, .T. ) ;
#222 = FACE_OUTER_BOUND ( 'NONE', #251, .T. ) ;
#223 = ORIENTED_EDGE ( 'NONE', *, *, #13, .F. ) ;
#224 = DIRECTION ( 'NONE',  ( -1.000000000000000000, 0.0000000000000000000, 0.0000000000000000000 ) ) ;
#225 =( GEOMETRIC_REPRESENTATION_CONTEXT ( 3 ) GLOBAL_UNCERTAINTY_ASSIGNED_CONTEXT ( ( #229 ) ) GLOBAL_UNIT_ASSIGNED_CONTEXT ( ( #308, #157, #70 ) ) REPRESENTATION_CONTEXT ( 'NONE', 'WORKASPACE' ) );
#226 = VERTEX_POINT ( 'NONE', #250 ) ;
#227 = ADVANCED_FACE ( 'NONE', ( #7 ), #242, .T. ) ;
#228 = ADVANCED_FACE ( 'NONE', ( #169 ), #23, .T. ) ;
#229 = UNCERTAINTY_MEASURE_WITH_UNIT (LENGTH_MEASURE( 1.000000000000000082E-05 ), #308, 'distance_accuracy_value', 'NONE');
#230 = VERTEX_POINT ( 'NONE', #171 ) ;
#231 = VERTEX_POINT ( 'NONE', #271 ) ;
#232 = CARTESIAN_POINT ( 'NONE',  ( -0.03936999999999993283, 9.642868896486255427E-18, 0.5905510000000000481 ) ) ;
#233 = EDGE_CURVE ( 'NONE', #176, #35, #62, .T. ) ;
#234 = CIRCLE ( 'NONE', #47, 0.03936999999999993283 ) ;
#235 = CARTESIAN_POINT ( 'NONE',  ( 0.0000000000000000000, 0.0000000000000000000, 0.05905500000000000332 ) ) ;
#236 = AXIS2_PLACEMENT_3D ( 'NONE', #273, #215, #246 ) ;
#237 = DIRECTION ( 'NONE',  ( 1.000000000000000000, 0.0000000000000000000, 0.0000000000000000000 ) ) ;
#238 = CARTESIAN_POINT ( 'NONE',  ( 0.0000000000000000000, 0.0000000000000000000, 0.0000000000000000000 ) ) ;
#239 = DIRECTION ( 'NONE',  ( 0.0000000000000000000, 1.000000000000000000, 0.0000000000000000000 ) ) ;
#240 = ADVANCED_FACE ( 'NONE', ( #318 ), #26, .T. ) ;
#241 = DIRECTION ( 'NONE',  ( -1.224646799147353207E-16, 1.000000000000000000, 0.0000000000000000000 ) ) ;
#242 = PLANE ( 'NONE',  #185 ) ;
#243 = CIRCLE ( 'NONE', #4, 0.03936999999999993283 ) ;
#244 = AXIS2_PLACEMENT_3D ( 'NONE', #120, #333, #331 ) ;
#245 = ORIENTED_EDGE ( 'NONE', *, *, #77, .F. ) ;
#246 = DIRECTION ( 'NONE',  ( -1.000000000000000000, 0.0000000000000000000, 0.0000000000000000000 ) ) ;
#247 = EDGE_CURVE ( 'NONE', #29, #79, #131, .T. ) ;
#248 = AXIS2_PLACEMENT_3D ( 'NONE', #71, #265, #44 ) ;
#249 = DIRECTION ( 'NONE',  ( -1.000000000000000000, 0.0000000000000000000, 0.0000000000000000000 ) ) ;
#250 = CARTESIAN_POINT ( 'NONE',  ( -0.1181100000000000344, 0.0000000000000000000, 2.937755999999999368 ) ) ;
#251 = EDGE_LOOP ( 'NONE', ( #57, #277, #89, #301 ) ) ;
#252 = CARTESIAN_POINT ( 'NONE',  ( -0.1031099999999991745, 0.0000000000000000000, 2.952755999999999936 ) ) ;
#253 = ORIENTED_EDGE ( 'NONE', *, *, #13, .T. ) ;
#254 = AXIS2_PLACEMENT_3D ( 'NONE', #111, #220, #182 ) ;
#255 = EDGE_LOOP ( 'NONE', ( #245, #108, #112, #149 ) ) ;
#256 = FILL_AREA_STYLE ('',( #177 ) ) ;
#257 = DIRECTION ( 'NONE',  ( -1.000000000000000000, 0.0000000000000000000, 0.0000000000000000000 ) ) ;
#258 = ORIENTED_EDGE ( 'NONE', *, *, #233, .T. ) ;
#259 = EDGE_CURVE ( 'NONE', #79, #143, #58, .T. ) ;
#260 =( LENGTH_UNIT ( ) NAMED_UNIT ( * ) SI_UNIT ( $, .METRE. ) );
#261 = CONICAL_SURFACE ( 'NONE', #200, 0.1299209999999998144, 0.09065967900408430924 ) ;
#262 = VECTOR ( 'NONE', #297, 39.37007874015748854 ) ;
#263 = DIRECTION ( 'NONE',  ( -1.000000000000000000, 0.0000000000000000000, 0.0000000000000000000 ) ) ;
#264 = PRESENTATION_STYLE_ASSIGNMENT (( #284 ) ) ;
#265 = DIRECTION ( 'NONE',  ( -0.0000000000000000000, -0.0000000000000000000, -1.000000000000000000 ) ) ;
#266 = DIRECTION ( 'NONE',  ( 1.000000000000000000, 1.224646799147353207E-16, -0.0000000000000000000 ) ) ;
#267 = PRODUCT_DEFINITION_FORMATION_WITH_SPECIFIED_SOURCE ( 'ANY', '', #299, .NOT_KNOWN. ) ;
#268 = CARTESIAN_POINT ( 'NONE',  ( 0.1299209999999998144, 0.0000000000000000000, 1.586614299999997479 ) ) ;
#269 =( GEOMETRIC_REPRESENTATION_CONTEXT ( 3 ) GLOBAL_UNCERTAINTY_ASSIGNED_CONTEXT ( ( #107 ) ) GLOBAL_UNIT_ASSIGNED_CONTEXT ( ( #14, #147, #335 ) ) REPRESENTATION_CONTEXT ( 'NONE', 'WORKASPACE' ) );
#270 = ORIENTED_EDGE ( 'NONE', *, *, #101, .F. ) ;
#271 = CARTESIAN_POINT ( 'NONE',  ( 0.1181100000000000344, 1.446430334472939084E-17, 1.456693000000000016 ) ) ;
#272 = PRODUCT_RELATED_PRODUCT_CATEGORY ( 'part', '', ( #299 ) ) ;
#273 = CARTESIAN_POINT ( 'NONE',  ( 0.0000000000000000000, 0.0000000000000000000, 0.1030719981370833843 ) ) ;
#274 = ORIENTED_EDGE ( 'NONE', *, *, #293, .F. ) ;
#275 = CARTESIAN_POINT ( 'NONE',  ( 0.0000000000000000000, 0.0000000000000000000, 1.586614299999997479 ) ) ;
#276 = VECTOR ( 'NONE', #298, 39.37007874015748854 ) ;
#277 = ORIENTED_EDGE ( 'NONE', *, *, #197, .T. ) ;
#278 = CARTESIAN_POINT ( 'NONE',  ( 0.0000000000000000000, 0.0000000000000000000, 2.952755999999999936 ) ) ;
#279 = VERTEX_POINT ( 'NONE', #6 ) ;
#280 = EDGE_CURVE ( 'NONE', #33, #231, #76, .T. ) ;
#281 = SURFACE_STYLE_FILL_AREA ( #256 ) ;
#282 = CARTESIAN_POINT ( 'NONE',  ( 0.03936999999999998140, 4.821434448243127714E-18, 0.1030719981370833843 ) ) ;
#283 = FACE_OUTER_BOUND ( 'NONE', #205, .T. ) ;
#284 = SURFACE_STYLE_USAGE ( .BOTH. , #124 ) ;
#285 = CARTESIAN_POINT ( 'NONE',  ( 0.0000000000000000000, 0.0000000000000000000, 0.5905510000000000481 ) ) ;
#286 = DIRECTION ( 'NONE',  ( -0.0000000000000000000, -0.0000000000000000000, -1.000000000000000000 ) ) ;
#287 = CARTESIAN_POINT ( 'NONE',  ( 0.0000000000000000000, 0.0000000000000000000, 0.1030719981370833843 ) ) ;
#288 = AXIS2_PLACEMENT_3D ( 'NONE', #238, #340, #125 ) ;
#289 = CARTESIAN_POINT ( 'NONE',  ( 0.0000000000000000000, 0.0000000000000000000, 2.937755999999999368 ) ) ;
#290 = CARTESIAN_POINT ( 'NONE',  ( -0.03936999999999996058, 0.0000000000000000000, 0.0000000000000000000 ) ) ;
#291 = DIRECTION ( 'NONE',  ( 1.000000000000000000, 0.0000000000000000000, 0.0000000000000000000 ) ) ;
#292 = AXIS2_PLACEMENT_3D ( 'NONE', #214, #155, #263 ) ;
#293 = EDGE_CURVE ( 'NONE', #226, #33, #339, .T. ) ;
#294 = ORIENTED_EDGE ( 'NONE', *, *, #313, .T. ) ;
#295 = CIRCLE ( 'NONE', #117, 0.1181100000000000344 ) ;
#296 = AXIS2_PLACEMENT_3D ( 'NONE', #196, #175, #219 ) ;
#297 = DIRECTION ( 'NONE',  ( 0.7071067811865486830, 8.659560562354947649E-17, -0.7071067811865462405 ) ) ;
#298 = DIRECTION ( 'NONE',  ( -0.7071067811865486830, 0.0000000000000000000, -0.7071067811865462405 ) ) ;
#299 = PRODUCT ( 'Micro_SBMM-030-415', 'Micro_SBMM-030-415', '', ( #40 ) ) ;
#300 = CARTESIAN_POINT ( 'NONE',  ( 0.03936999999999993283, 0.0000000000000000000, 0.5905510000000000481 ) ) ;
#301 = ORIENTED_EDGE ( 'NONE', *, *, #217, .F. ) ;
#302 = CIRCLE ( 'NONE', #248, 0.03936999999999998140 ) ;
#303 = PRESENTATION_LAYER_ASSIGNMENT (  '', '', ( #39 ) ) ;
#304 = DIRECTION ( 'NONE',  ( -0.0000000000000000000, -0.0000000000000000000, -1.000000000000000000 ) ) ;
#305 = ORIENTED_EDGE ( 'NONE', *, *, #191, .F. ) ;
#306 = DIRECTION ( 'NONE',  ( 0.0000000000000000000, 0.0000000000000000000, -1.000000000000000000 ) ) ;
#307 = CARTESIAN_POINT ( 'NONE',  ( 0.0000000000000000000, 0.0000000000000000000, 2.952755999999999936 ) ) ;
#308 =( CONVERSION_BASED_UNIT ( 'INCH', #68 ) LENGTH_UNIT ( ) NAMED_UNIT ( #100 ) );
#309 = ORIENTED_EDGE ( 'NONE', *, *, #213, .T. ) ;
#310 = ORIENTED_EDGE ( 'NONE', *, *, #247, .T. ) ;
#311 = FILL_AREA_STYLE_COLOUR ( '', #172 ) ;
#312 = DIRECTION ( 'NONE',  ( -1.000000000000000000, 0.0000000000000000000, 0.0000000000000000000 ) ) ;
#313 = EDGE_CURVE ( 'NONE', #79, #35, #16, .T. ) ;
#314 = CONICAL_SURFACE ( 'NONE', #166, 0.1299209999999998144, 0.09065967900408430924 ) ;
#315 = DIRECTION ( 'NONE',  ( 0.0000000000000000000, 0.0000000000000000000, -1.000000000000000000 ) ) ;
#316 = CYLINDRICAL_SURFACE ( 'NONE', #135, 0.03936999999999996058 ) ;
#317 = PRODUCT_DEFINITION ( 'UNKNOWN', '', #267, #136 ) ;
#318 = FACE_OUTER_BOUND ( 'NONE', #12, .T. ) ;
#319 = AXIS2_PLACEMENT_3D ( 'NONE', #41, #151, #257 ) ;
#320 = CIRCLE ( 'NONE', #119, 0.05905499999999999639 ) ;
#321 = EDGE_LOOP ( 'NONE', ( #270, #223, #309, #146 ) ) ;
#322 = CARTESIAN_POINT ( 'NONE',  ( 0.0000000000000000000, 0.0000000000000000000, 2.952755999999999936 ) ) ;
#323 = DIRECTION ( 'NONE',  ( 1.000000000000000000, 0.0000000000000000000, -0.0000000000000000000 ) ) ;
#324 = ORIENTED_EDGE ( 'NONE', *, *, #63, .T. ) ;
#325 = DIRECTION ( 'NONE',  ( -0.0000000000000000000, -0.0000000000000000000, -1.000000000000000000 ) ) ;
#326 = CARTESIAN_POINT ( 'NONE',  ( 0.0000000000000000000, 0.0000000000000000000, 1.456693000000000016 ) ) ;
#327 = CIRCLE ( 'NONE', #292, 0.03936999999999998140 ) ;
#328 = CIRCLE ( 'NONE', #20, 0.1181100000000000344 ) ;
#329 = DIRECTION ( 'NONE',  ( -1.000000000000000000, 0.0000000000000000000, 0.0000000000000000000 ) ) ;
#330 = ORIENTED_EDGE ( 'NONE', *, *, #73, .T. ) ;
#331 = DIRECTION ( 'NONE',  ( 1.000000000000000000, 0.0000000000000000000, 0.0000000000000000000 ) ) ;
#332 = ORIENTED_EDGE ( 'NONE', *, *, #233, .F. ) ;
#333 = DIRECTION ( 'NONE',  ( 0.0000000000000000000, 0.0000000000000000000, 1.000000000000000000 ) ) ;
#334 = VERTEX_POINT ( 'NONE', #232 ) ;
#335 =( NAMED_UNIT ( * ) SI_UNIT ( $, .STERADIAN. ) SOLID_ANGLE_UNIT ( ) );
#336 = CIRCLE ( 'NONE', #211, 0.1031099999999991745 ) ;
#337 = DIRECTION ( 'NONE',  ( 0.0000000000000000000, 0.0000000000000000000, 1.000000000000000000 ) ) ;
#338 = DIRECTION ( 'NONE',  ( -0.09053553870087646671, 1.108740576791096813E-17, 0.9958932253169222593 ) ) ;
#339 = LINE ( 'NONE', #208, #140 ) ;
#340 = DIRECTION ( 'NONE',  ( -0.0000000000000000000, -0.0000000000000000000, -1.000000000000000000 ) ) ;
#341 =( CONVERSION_BASED_UNIT ( 'INCH', #17 ) LENGTH_UNIT ( ) NAMED_UNIT ( #164 ) );
#342 = CARTESIAN_POINT ( 'NONE',  ( 0.0000000000000000000, 3.616075836182346941E-18, 8.537024980200822558E-18 ) ) ;
#343 = DIRECTION ( 'NONE',  ( 0.0000000000000000000, 0.0000000000000000000, 1.000000000000000000 ) ) ;
#344 = CONICAL_SURFACE ( 'NONE', #319, 0.1031099999999991745, 0.7853981633974500554 ) ;
#345 = MECHANICAL_DESIGN_GEOMETRIC_PRESENTATION_REPRESENTATION (  '', ( #126 ), #269 ) ;
ENDSEC;
END-ISO-10303-21;
