ISO-10303-21;
HEADER;
FILE_DESCRIPTION (( 'STEP AP214' ),
    '1' );
FILE_NAME ('49106.STEP',
    '2023-06-30T21:57:36',
    ( '' ),
    ( '' ),
    'SwSTEP 2.0',
    'SolidWorks 2023',
    '' );
FILE_SCHEMA (( 'AUTOMOTIVE_DESIGN' ));
ENDSEC;

DATA;
#1 = AXIS2_PLACEMENT_3D ( 'NONE', #19, #73, #100 ) ;
#2 = SURFACE_SIDE_STYLE ('',( #204 ) ) ;
#3 = STYLED_ITEM ( 'NONE', ( #98 ), #119 ) ;
#4 = CARTESIAN_POINT ( 'NONE',  ( 0.1249999999999999029, 2.500000000000000000, 0.000000000000000000 ) ) ;
#5 = CARTESIAN_POINT ( 'NONE',  ( 0.000000000000000000, 0.1250000000000000278, 0.000000000000000000 ) ) ;
#6 = ORIENTED_EDGE ( 'NONE', *, *, #358, .F. ) ;
#7 = DIMENSIONAL_EXPONENTS ( 1.000000000000000000, 0.000000000000000000, 0.000000000000000000, 0.000000000000000000, 0.000000000000000000, 0.000000000000000000, 0.000000000000000000 ) ;
#8 = DIRECTION ( 'NONE',  ( -1.000000000000000000, 0.000000000000000000, 0.000000000000000000 ) ) ;
#9 = EDGE_LOOP ( 'NONE', ( #41, #291, #154, #11 ) ) ;
#10 = EDGE_LOOP ( 'NONE', ( #65, #215 ) ) ;
#11 = ORIENTED_EDGE ( 'NONE', *, *, #127, .F. ) ;
#12 = AXIS2_PLACEMENT_3D ( 'NONE', #4, #85, #59 ) ;
#13 = AXIS2_PLACEMENT_3D ( 'NONE', #129, #77, #250 ) ;
#14 = ORIENTED_EDGE ( 'NONE', *, *, #139, .T. ) ;
#15 = PRESENTATION_STYLE_ASSIGNMENT (( #71 ) ) ;
#16 = CARTESIAN_POINT ( 'NONE',  ( -0.1250000000000000000, 0.1250000000000000278, 1.530808498934191201E-17 ) ) ;
#17 = SURFACE_SIDE_STYLE ('',( #74 ) ) ;
#18 = DIRECTION ( 'NONE',  ( -1.000000000000000000, 0.000000000000000000, 0.000000000000000000 ) ) ;
#19 = CARTESIAN_POINT ( 'NONE',  ( 1.530808498934191078E-16, 0.7499999999999998890, 0.000000000000000000 ) ) ;
#20 = AXIS2_PLACEMENT_3D ( 'NONE', #166, #147, #60 ) ;
#21 = DIRECTION ( 'NONE',  ( 0.000000000000000000, 0.000000000000000000, 1.000000000000000000 ) ) ;
#22 = CYLINDRICAL_SURFACE ( 'NONE', #327, 0.1249999999999998612 ) ;
#23 = FILL_AREA_STYLE_COLOUR ( '', #229 ) ;
#24 = ADVANCED_FACE ( 'NONE', ( #97 ), #277, .T. ) ;
#25 = DIRECTION ( 'NONE',  ( -1.224646799147352961E-16, 1.000000000000000000, -0.000000000000000000 ) ) ;
#26 = DIRECTION ( 'NONE',  ( 1.000000000000000000, 0.000000000000000000, 0.000000000000000000 ) ) ;
#27 = FILL_AREA_STYLE_COLOUR ( '', #325 ) ;
#28 = DIRECTION ( 'NONE',  ( -0.000000000000000000, -1.000000000000000000, -0.000000000000000000 ) ) ;
#29 = CARTESIAN_POINT ( 'NONE',  ( 0.000000000000000000, 0.7500000000000001110, 0.000000000000000000 ) ) ;
#30 = SURFACE_STYLE_FILL_AREA ( #159 ) ;
#31 = CARTESIAN_POINT ( 'NONE',  ( 0.000000000000000000, 0.1250000000000000278, -0.1250000000000000000 ) ) ;
#32 = AXIS2_PLACEMENT_3D ( 'NONE', #29, #227, #191 ) ;
#33 = EDGE_CURVE ( 'NONE', #269, #264, #124, .T. ) ;
#34 = STYLED_ITEM ( 'NONE', ( #15 ), #24 ) ;
#35 = FACE_OUTER_BOUND ( 'NONE', #42, .T. ) ;
#36 = LENGTH_MEASURE_WITH_UNIT ( LENGTH_MEASURE( 0.02539999999999999897 ), #286 );
#37 = ORIENTED_EDGE ( 'NONE', *, *, #33, .F. ) ;
#38 = CIRCLE ( 'NONE', #1, 0.1249999999999997363 ) ;
#39 = MECHANICAL_DESIGN_GEOMETRIC_PRESENTATION_REPRESENTATION (  '', ( #34 ), #290 ) ;
#40 = ORIENTED_EDGE ( 'NONE', *, *, #33, .T. ) ;
#41 = ORIENTED_EDGE ( 'NONE', *, *, #62, .T. ) ;
#42 = EDGE_LOOP ( 'NONE', ( #348, #153 ) ) ;
#43 = AXIS2_PLACEMENT_3D ( 'NONE', #5, #28, #317 ) ;
#44 = FILL_AREA_STYLE_COLOUR ( '', #356 ) ;
#45 = FACE_OUTER_BOUND ( 'NONE', #123, .T. ) ;
#46 =( CONVERSION_BASED_UNIT ( 'INCH', #301 ) LENGTH_UNIT ( ) NAMED_UNIT ( #289 ) );
#47 = MECHANICAL_DESIGN_GEOMETRIC_PRESENTATION_REPRESENTATION (  '', ( #3 ), #132 ) ;
#48 =( CONVERSION_BASED_UNIT ( 'INCH', #214 ) LENGTH_UNIT ( ) NAMED_UNIT ( #145 ) );
#49 = SURFACE_STYLE_USAGE ( .BOTH. , #298 ) ;
#50 = DIRECTION ( 'NONE',  ( -1.224646799147352961E-16, 1.000000000000000000, -0.000000000000000000 ) ) ;
#51 = DIRECTION ( 'NONE',  ( 0.000000000000000000, 0.000000000000000000, -1.000000000000000000 ) ) ;
#52 = CIRCLE ( 'NONE', #99, 0.1250000000000000000 ) ;
#53 = DIRECTION ( 'NONE',  ( -0.000000000000000000, -1.000000000000000000, -0.000000000000000000 ) ) ;
#54 = DIRECTION ( 'NONE',  ( -1.000000000000000000, 0.000000000000000000, 0.000000000000000000 ) ) ;
#55 = LENGTH_MEASURE_WITH_UNIT ( LENGTH_MEASURE( 0.02539999999999999897 ), #285 );
#56 = SURFACE_STYLE_FILL_AREA ( #223 ) ;
#57 =( NAMED_UNIT ( * ) SI_UNIT ( $, .STERADIAN. ) SOLID_ANGLE_UNIT ( ) );
#58 = VERTEX_POINT ( 'NONE', #271 ) ;
#59 = DIRECTION ( 'NONE',  ( 1.000000000000000000, 1.224646799147352961E-16, 0.000000000000000000 ) ) ;
#60 = DIRECTION ( 'NONE',  ( 0.000000000000000000, 0.000000000000000000, -1.000000000000000000 ) ) ;
#61 = CARTESIAN_POINT ( 'NONE',  ( -0.1249999999999995837, 0.7499999999999998890, 0.000000000000000000 ) ) ;
#62 = EDGE_CURVE ( 'NONE', #346, #125, #104, .T. ) ;
#63 = MECHANICAL_DESIGN_GEOMETRIC_PRESENTATION_REPRESENTATION (  '', ( #211 ), #258 ) ;
#64 = AXIS2_PLACEMENT_3D ( 'NONE', #259, #238, #148 ) ;
#65 = ORIENTED_EDGE ( 'NONE', *, *, #105, .F. ) ;
#66 = CIRCLE ( 'NONE', #143, 0.1249999999999999584 ) ;
#67 = VERTEX_POINT ( 'NONE', #302 ) ;
#68 =( GEOMETRIC_REPRESENTATION_CONTEXT ( 3 ) GLOBAL_UNCERTAINTY_ASSIGNED_CONTEXT ( ( #165 ) ) GLOBAL_UNIT_ASSIGNED_CONTEXT ( ( #196, #280, #319 ) ) REPRESENTATION_CONTEXT ( 'NONE', 'WORKASPACE' ) );
#69 = ORIENTED_EDGE ( 'NONE', *, *, #127, .T. ) ;
#70 = PRODUCT_RELATED_PRODUCT_CATEGORY ( 'part', '', ( #241 ) ) ;
#71 = SURFACE_STYLE_USAGE ( .BOTH. , #94 ) ;
#72 = CARTESIAN_POINT ( 'NONE',  ( -6.123233995736766036E-17, 2.500000000000000000, 0.000000000000000000 ) ) ;
#73 = DIRECTION ( 'NONE',  ( -1.224646799147352961E-16, 1.000000000000000000, -0.000000000000000000 ) ) ;
#74 = SURFACE_STYLE_FILL_AREA ( #331 ) ;
#75 =( LENGTH_UNIT ( ) NAMED_UNIT ( * ) SI_UNIT ( $, .METRE. ) );
#76 = DIRECTION ( 'NONE',  ( -1.000000000000000000, -1.224646799147352961E-16, 0.000000000000000000 ) ) ;
#77 = DIRECTION ( 'NONE',  ( -0.000000000000000000, -1.000000000000000000, -0.000000000000000000 ) ) ;
#78 = UNCERTAINTY_MEASURE_WITH_UNIT (LENGTH_MEASURE( 1.000000000000000082E-05 ), #174, 'distance_accuracy_value', 'NONE');
#79 =( LENGTH_UNIT ( ) NAMED_UNIT ( * ) SI_UNIT ( $, .METRE. ) );
#80 = STYLED_ITEM ( 'NONE', ( #111 ), #134 ) ;
#81 = DIRECTION ( 'NONE',  ( 0.000000000000000000, 0.000000000000000000, -1.000000000000000000 ) ) ;
#82 = COLOUR_RGB ( '',0.7921568627450980005, 0.8196078431372548767, 0.9333333333333333481 ) ;
#83 = LINE ( 'NONE', #261, #155 ) ;
#84 = DIRECTION ( 'NONE',  ( -1.224646799147352961E-16, 1.000000000000000000, -0.000000000000000000 ) ) ;
#85 = DIRECTION ( 'NONE',  ( 1.224646799147352961E-16, -1.000000000000000000, 0.000000000000000000 ) ) ;
#86 = CARTESIAN_POINT ( 'NONE',  ( 0.000000000000000000, 0.1250000000000000278, 0.000000000000000000 ) ) ;
#87 = ORIENTED_EDGE ( 'NONE', *, *, #360, .T. ) ;
#88 = DIMENSIONAL_EXPONENTS ( 1.000000000000000000, 0.000000000000000000, 0.000000000000000000, 0.000000000000000000, 0.000000000000000000, 0.000000000000000000, 0.000000000000000000 ) ;
#89 = LENGTH_MEASURE_WITH_UNIT ( LENGTH_MEASURE( 0.02539999999999999897 ), #79 );
#90 = CLOSED_SHELL ( 'NONE', ( #299, #119, #134, #131, #24 ) ) ;
#91 = ORIENTED_EDGE ( 'NONE', *, *, #62, .F. ) ;
#92 = MANIFOLD_SOLID_BREP ( 'Revolve - Cutting Edge', #90 ) ;
#93 = ADVANCED_FACE ( 'NONE', ( #275 ), #22, .T. ) ;
#94 = SURFACE_SIDE_STYLE ('',( #216 ) ) ;
#95 = AXIS2_PLACEMENT_3D ( 'NONE', #226, #107, #26 ) ;
#96 = ORIENTED_EDGE ( 'NONE', *, *, #353, .T. ) ;
#97 = FACE_OUTER_BOUND ( 'NONE', #186, .T. ) ;
#98 = PRESENTATION_STYLE_ASSIGNMENT (( #222 ) ) ;
#99 = AXIS2_PLACEMENT_3D ( 'NONE', #86, #232, #116 ) ;
#100 = DIRECTION ( 'NONE',  ( -1.000000000000000000, 0.000000000000000000, 0.000000000000000000 ) ) ;
#101 = PRESENTATION_STYLE_ASSIGNMENT (( #49 ) ) ;
#102 = CARTESIAN_POINT ( 'NONE',  ( 0.000000000000000000, 0.7500000000000001110, 0.000000000000000000 ) ) ;
#103 = VECTOR ( 'NONE', #50, 39.37007874015748143 ) ;
#104 = CIRCLE ( 'NONE', #321, 0.1249999999999997363 ) ;
#105 = EDGE_CURVE ( 'NONE', #182, #243, #112, .T. ) ;
#106 = UNCERTAINTY_MEASURE_WITH_UNIT (LENGTH_MEASURE( 1.000000000000000082E-05 ), #48, 'distance_accuracy_value', 'NONE');
#107 = DIRECTION ( 'NONE',  ( 0.000000000000000000, 0.000000000000000000, 1.000000000000000000 ) ) ;
#108 = CARTESIAN_POINT ( 'NONE',  ( -1.530808498934191509E-17, 0.1250000000000000000, 0.000000000000000000 ) ) ;
#109 = COLOUR_RGB ( '',1.000000000000000000, 0.000000000000000000, 0.000000000000000000 ) ;
#110 = AXIS2_PLACEMENT_3D ( 'NONE', #108, #51, #54 ) ;
#111 = PRESENTATION_STYLE_ASSIGNMENT (( #349 ) ) ;
#112 = CIRCLE ( 'NONE', #180, 0.1249999999999999029 ) ;
#113 = CARTESIAN_POINT ( 'NONE',  ( -6.123233995736766036E-17, 2.500000000000000000, 0.000000000000000000 ) ) ;
#114 = LENGTH_MEASURE_WITH_UNIT ( LENGTH_MEASURE( 0.02539999999999999897 ), #372 );
#115 = EDGE_LOOP ( 'NONE', ( #206, #156, #328, #37, #181 ) ) ;
#116 = DIRECTION ( 'NONE',  ( 0.000000000000000000, 0.000000000000000000, -1.000000000000000000 ) ) ;
#117 = FILL_AREA_STYLE ('',( #237 ) ) ;
#118 = DIRECTION ( 'NONE',  ( 1.000000000000000000, 0.000000000000000000, -1.224646799147353207E-16 ) ) ;
#119 = ADVANCED_FACE ( 'NONE', ( #190 ), #305, .T. ) ;
#120 = FILL_AREA_STYLE ('',( #44 ) ) ;
#121 = PRODUCT_DEFINITION_CONTEXT ( 'detailed design', #343, 'design' ) ;
#122 = AXIS2_PLACEMENT_3D ( 'NONE', #255, #84, #312 ) ;
#123 = EDGE_LOOP ( 'NONE', ( #96, #262, #239, #171 ) ) ;
#124 = CIRCLE ( 'NONE', #13, 0.1250000000000000000 ) ;
#125 = VERTEX_POINT ( 'NONE', #201 ) ;
#126 = CARTESIAN_POINT ( 'NONE',  ( 1.530808498934191571E-16, 0.7500000000000001110, 0.000000000000000000 ) ) ;
#127 = EDGE_CURVE ( 'NONE', #346, #329, #231, .T. ) ;
#128 =( NAMED_UNIT ( * ) SI_UNIT ( $, .STERADIAN. ) SOLID_ANGLE_UNIT ( ) );
#129 = CARTESIAN_POINT ( 'NONE',  ( 0.000000000000000000, 0.1250000000000000278, 0.000000000000000000 ) ) ;
#130 = DIRECTION ( 'NONE',  ( -1.224646799147352961E-16, 1.000000000000000000, -0.000000000000000000 ) ) ;
#131 = ADVANCED_FACE ( 'NONE', ( #175 ), #225, .T. ) ;
#132 =( GEOMETRIC_REPRESENTATION_CONTEXT ( 3 ) GLOBAL_UNCERTAINTY_ASSIGNED_CONTEXT ( ( #308 ) ) GLOBAL_UNIT_ASSIGNED_CONTEXT ( ( #176, #347, #282 ) ) REPRESENTATION_CONTEXT ( 'NONE', 'WORKASPACE' ) );
#133 = FILL_AREA_STYLE ('',( #23 ) ) ;
#134 = ADVANCED_FACE ( 'NONE', ( #169 ), #342, .T. ) ;
#135 = CIRCLE ( 'NONE', #350, 0.1250000000000000000 ) ;
#136 = DIRECTION ( 'NONE',  ( -0.000000000000000000, -1.000000000000000000, -0.000000000000000000 ) ) ;
#137 = APPLICATION_PROTOCOL_DEFINITION ( 'draft international standard', 'automotive_design', 1998, #370 ) ;
#138 =( NAMED_UNIT ( * ) SI_UNIT ( $, .STERADIAN. ) SOLID_ANGLE_UNIT ( ) );
#139 = EDGE_CURVE ( 'NONE', #67, #283, #362, .T. ) ;
#140 = PRESENTATION_STYLE_ASSIGNMENT (( #371 ) ) ;
#141 =( CONVERSION_BASED_UNIT ( 'INCH', #114 ) LENGTH_UNIT ( ) NAMED_UNIT ( #208 ) );
#142 =( NAMED_UNIT ( * ) PLANE_ANGLE_UNIT ( ) SI_UNIT ( $, .RADIAN. ) );
#143 = AXIS2_PLACEMENT_3D ( 'NONE', #113, #344, #8 ) ;
#144 = DIRECTION ( 'NONE',  ( -1.000000000000000000, 0.000000000000000000, 0.000000000000000000 ) ) ;
#145 = DIMENSIONAL_EXPONENTS ( 1.000000000000000000, 0.000000000000000000, 0.000000000000000000, 0.000000000000000000, 0.000000000000000000, 0.000000000000000000, 0.000000000000000000 ) ;
#146 = PRESENTATION_STYLE_ASSIGNMENT (( #313 ) ) ;
#147 = DIRECTION ( 'NONE',  ( -0.000000000000000000, -1.000000000000000000, -0.000000000000000000 ) ) ;
#148 = DIRECTION ( 'NONE',  ( 1.000000000000000000, 0.000000000000000000, 0.000000000000000000 ) ) ;
#149 = PLANE ( 'NONE',  #12 ) ;
#150 = DIMENSIONAL_EXPONENTS ( 1.000000000000000000, 0.000000000000000000, 0.000000000000000000, 0.000000000000000000, 0.000000000000000000, 0.000000000000000000, 0.000000000000000000 ) ;
#151 = CARTESIAN_POINT ( 'NONE',  ( -0.1249999999999999306, 2.500000000000000000, 0.000000000000000000 ) ) ;
#152 = COLOUR_RGB ( '',1.000000000000000000, 0.000000000000000000, 0.000000000000000000 ) ;
#153 = ORIENTED_EDGE ( 'NONE', *, *, #203, .T. ) ;
#154 = ORIENTED_EDGE ( 'NONE', *, *, #244, .F. ) ;
#155 = VECTOR ( 'NONE', #337, 39.37007874015748143 ) ;
#156 = ORIENTED_EDGE ( 'NONE', *, *, #157, .T. ) ;
#157 = EDGE_CURVE ( 'NONE', #243, #182, #303, .T. ) ;
#158 = DIRECTION ( 'NONE',  ( 1.000000000000000000, 0.000000000000000000, 0.000000000000000000 ) ) ;
#159 = FILL_AREA_STYLE ('',( #189 ) ) ;
#160 =( NAMED_UNIT ( * ) SI_UNIT ( $, .STERADIAN. ) SOLID_ANGLE_UNIT ( ) );
#161 = AXIS2_PLACEMENT_3D ( 'NONE', #126, #300, #76 ) ;
#162 = COLOUR_RGB ( '',1.000000000000000000, 0.000000000000000000, 0.000000000000000000 ) ;
#163 =( GEOMETRIC_REPRESENTATION_CONTEXT ( 3 ) GLOBAL_UNCERTAINTY_ASSIGNED_CONTEXT ( ( #281 ) ) GLOBAL_UNIT_ASSIGNED_CONTEXT ( ( #276, #304, #219 ) ) REPRESENTATION_CONTEXT ( 'NONE', 'WORKASPACE' ) );
#164 = CARTESIAN_POINT ( 'NONE',  ( -1.530808498934191509E-17, 0.1250000000000000000, 0.000000000000000000 ) ) ;
#165 = UNCERTAINTY_MEASURE_WITH_UNIT (LENGTH_MEASURE( 1.000000000000000082E-05 ), #196, 'distance_accuracy_value', 'NONE');
#166 = CARTESIAN_POINT ( 'NONE',  ( 0.000000000000000000, 0.000000000000000000, 0.000000000000000000 ) ) ;
#167 = DIRECTION ( 'NONE',  ( -0.000000000000000000, -1.000000000000000000, -0.000000000000000000 ) ) ;
#168 = CARTESIAN_POINT ( 'NONE',  ( 0.000000000000000000, 0.7500000000000001110, 0.000000000000000000 ) ) ;
#169 = FACE_OUTER_BOUND ( 'NONE', #10, .T. ) ;
#170 = PRODUCT_CONTEXT ( 'NONE', #370, 'mechanical' ) ;
#171 = ORIENTED_EDGE ( 'NONE', *, *, #248, .T. ) ;
#172 = CARTESIAN_POINT ( 'NONE',  ( -6.123233995736766036E-17, 2.500000000000000000, 0.000000000000000000 ) ) ;
#173 = ADVANCED_BREP_SHAPE_REPRESENTATION ( '49106', ( #92, #217, #64 ), #267 ) ;
#174 =( CONVERSION_BASED_UNIT ( 'INCH', #55 ) LENGTH_UNIT ( ) NAMED_UNIT ( #150 ) );
#175 = FACE_OUTER_BOUND ( 'NONE', #115, .T. ) ;
#176 =( CONVERSION_BASED_UNIT ( 'INCH', #233 ) LENGTH_UNIT ( ) NAMED_UNIT ( #88 ) );
#177 = ORIENTED_EDGE ( 'NONE', *, *, #315, .F. ) ;
#178 = AXIS2_PLACEMENT_3D ( 'NONE', #168, #224, #194 ) ;
#179 = AXIS2_PLACEMENT_3D ( 'NONE', #314, #340, #81 ) ;
#180 = AXIS2_PLACEMENT_3D ( 'NONE', #102, #136, #221 ) ;
#181 = ORIENTED_EDGE ( 'NONE', *, *, #353, .F. ) ;
#182 = VERTEX_POINT ( 'NONE', #307 ) ;
#183 = PRODUCT_DEFINITION_SHAPE ( 'NONE', 'NONE',  #235 ) ;
#184 = VERTEX_POINT ( 'NONE', #279 ) ;
#185 = VECTOR ( 'NONE', #167, 39.37007874015748143 ) ;
#186 = EDGE_LOOP ( 'NONE', ( #357, #40, #268, #14 ) ) ;
#187 = AXIS2_PLACEMENT_3D ( 'NONE', #334, #21, #158 ) ;
#188 =( LENGTH_UNIT ( ) NAMED_UNIT ( * ) SI_UNIT ( $, .METRE. ) );
#189 = FILL_AREA_STYLE_COLOUR ( '', #152 ) ;
#190 = FACE_OUTER_BOUND ( 'NONE', #293, .T. ) ;
#191 = DIRECTION ( 'NONE',  ( 0.000000000000000000, 0.000000000000000000, -1.000000000000000000 ) ) ;
#192 = PRESENTATION_LAYER_ASSIGNMENT (  '', '', ( #211 ) ) ;
#193 = LINE ( 'NONE', #351, #185 ) ;
#194 = DIRECTION ( 'NONE',  ( 0.000000000000000000, -0.000000000000000000, 1.000000000000000000 ) ) ;
#195 = UNCERTAINTY_MEASURE_WITH_UNIT (LENGTH_MEASURE( 1.000000000000000082E-05 ), #141, 'distance_accuracy_value', 'NONE');
#196 =( CONVERSION_BASED_UNIT ( 'INCH', #89 ) LENGTH_UNIT ( ) NAMED_UNIT ( #202 ) );
#197 = CARTESIAN_POINT ( 'NONE',  ( 0.000000000000000000, 0.1250000000000000278, 0.000000000000000000 ) ) ;
#198 = EDGE_LOOP ( 'NONE', ( #91, #359 ) ) ;
#199 = SPHERICAL_SURFACE ( 'NONE', #95, 0.1250000000000000000 ) ;
#200 = CYLINDRICAL_SURFACE ( 'NONE', #309, 0.1249999999999998612 ) ;
#201 = CARTESIAN_POINT ( 'NONE',  ( 0.1249999999999999029, 0.7499999999999998890, 1.530808498934190585E-17 ) ) ;
#202 = DIMENSIONAL_EXPONENTS ( 1.000000000000000000, 0.000000000000000000, 0.000000000000000000, 0.000000000000000000, 0.000000000000000000, 0.000000000000000000, 0.000000000000000000 ) ;
#203 = EDGE_CURVE ( 'NONE', #58, #329, #339, .T. ) ;
#204 = SURFACE_STYLE_FILL_AREA ( #117 ) ;
#205 =( NAMED_UNIT ( * ) PLANE_ANGLE_UNIT ( ) SI_UNIT ( $, .RADIAN. ) );
#206 = ORIENTED_EDGE ( 'NONE', *, *, #360, .F. ) ;
#207 = VECTOR ( 'NONE', #369, 39.37007874015748143 ) ;
#208 = DIMENSIONAL_EXPONENTS ( 1.000000000000000000, 0.000000000000000000, 0.000000000000000000, 0.000000000000000000, 0.000000000000000000, 0.000000000000000000, 0.000000000000000000 ) ;
#209 = PRESENTATION_LAYER_ASSIGNMENT (  '', '', ( #368 ) ) ;
#210 = ORIENTED_EDGE ( 'NONE', *, *, #248, .F. ) ;
#211 = STYLED_ITEM ( 'NONE', ( #146 ), #299 ) ;
#212 = PRESENTATION_LAYER_ASSIGNMENT (  '', '', ( #326 ) ) ;
#213 = PRESENTATION_LAYER_ASSIGNMENT (  '', '', ( #3 ) ) ;
#214 = LENGTH_MEASURE_WITH_UNIT ( LENGTH_MEASURE( 0.02539999999999999897 ), #245 );
#215 = ORIENTED_EDGE ( 'NONE', *, *, #157, .F. ) ;
#216 = SURFACE_STYLE_FILL_AREA ( #120 ) ;
#217 = MANIFOLD_SOLID_BREP ( 'Revolve - Tool Body (Straight Shanked)', #296 ) ;
#218 = PLANE ( 'NONE',  #161 ) ;
#219 =( NAMED_UNIT ( * ) SI_UNIT ( $, .STERADIAN. ) SOLID_ANGLE_UNIT ( ) );
#220 = ADVANCED_FACE ( 'NONE', ( #35 ), #149, .F. ) ;
#221 = DIRECTION ( 'NONE',  ( 0.000000000000000000, 0.000000000000000000, -1.000000000000000000 ) ) ;
#222 = SURFACE_STYLE_USAGE ( .BOTH. , #367 ) ;
#223 = FILL_AREA_STYLE ('',( #310 ) ) ;
#224 = DIRECTION ( 'NONE',  ( 0.000000000000000000, 1.000000000000000000, 0.000000000000000000 ) ) ;
#225 = CYLINDRICAL_SURFACE ( 'NONE', #179, 0.1249999999999999445 ) ;
#226 = CARTESIAN_POINT ( 'NONE',  ( -1.530808498934191509E-17, 0.1250000000000000000, 0.000000000000000000 ) ) ;
#227 = DIRECTION ( 'NONE',  ( -0.000000000000000000, -1.000000000000000000, -0.000000000000000000 ) ) ;
#228 =( GEOMETRIC_REPRESENTATION_CONTEXT ( 3 ) GLOBAL_UNCERTAINTY_ASSIGNED_CONTEXT ( ( #256 ) ) GLOBAL_UNIT_ASSIGNED_CONTEXT ( ( #260, #373, #138 ) ) REPRESENTATION_CONTEXT ( 'NONE', 'WORKASPACE' ) );
#229 = COLOUR_RGB ( '',1.000000000000000000, 0.000000000000000000, 0.000000000000000000 ) ;
#230 = CARTESIAN_POINT ( 'NONE',  ( 1.530808498934190585E-17, 0.7500000000000001110, 0.1249999999999999029 ) ) ;
#231 = LINE ( 'NONE', #151, #207 ) ;
#232 = DIRECTION ( 'NONE',  ( -0.000000000000000000, -1.000000000000000000, -0.000000000000000000 ) ) ;
#233 = LENGTH_MEASURE_WITH_UNIT ( LENGTH_MEASURE( 0.02539999999999999897 ), #188 );
#234 = CARTESIAN_POINT ( 'NONE',  ( -0.1250000000000000278, 2.500000000000000000, 0.000000000000000000 ) ) ;
#235 = PRODUCT_DEFINITION ( 'UNKNOWN', '', #352, #121 ) ;
#236 = FACE_OUTER_BOUND ( 'NONE', #242, .T. ) ;
#237 = FILL_AREA_STYLE_COLOUR ( '', #109 ) ;
#238 = DIRECTION ( 'NONE',  ( 0.000000000000000000, 0.000000000000000000, 1.000000000000000000 ) ) ;
#239 = ORIENTED_EDGE ( 'NONE', *, *, #139, .F. ) ;
#240 = PRESENTATION_LAYER_ASSIGNMENT (  '', '', ( #295 ) ) ;
#241 = PRODUCT ( '49106', '49106', '', ( #170 ) ) ;
#242 = EDGE_LOOP ( 'NONE', ( #177, #324, #69, #265 ) ) ;
#243 = VERTEX_POINT ( 'NONE', #230 ) ;
#244 = EDGE_CURVE ( 'NONE', #329, #58, #66, .T. ) ;
#245 =( LENGTH_UNIT ( ) NAMED_UNIT ( * ) SI_UNIT ( $, .METRE. ) );
#246 = FILL_AREA_STYLE_COLOUR ( '', #82 ) ;
#247 =( NAMED_UNIT ( * ) SI_UNIT ( $, .STERADIAN. ) SOLID_ANGLE_UNIT ( ) );
#248 = EDGE_CURVE ( 'NONE', #67, #184, #52, .T. ) ;
#249 = FILL_AREA_STYLE ('',( #246 ) ) ;
#250 = DIRECTION ( 'NONE',  ( 0.000000000000000000, 0.000000000000000000, -1.000000000000000000 ) ) ;
#251 = SURFACE_STYLE_FILL_AREA ( #133 ) ;
#252 = PRESENTATION_LAYER_ASSIGNMENT (  '', '', ( #34 ) ) ;
#253 = LENGTH_MEASURE_WITH_UNIT ( LENGTH_MEASURE( 0.02539999999999999897 ), #75 );
#254 = SHAPE_DEFINITION_REPRESENTATION ( #183, #173 ) ;
#255 = CARTESIAN_POINT ( 'NONE',  ( -6.123233995736766036E-17, 2.500000000000000000, 0.000000000000000000 ) ) ;
#256 = UNCERTAINTY_MEASURE_WITH_UNIT (LENGTH_MEASURE( 1.000000000000000082E-05 ), #260, 'distance_accuracy_value', 'NONE');
#257 = DIRECTION ( 'NONE',  ( 0.000000000000000000, 0.000000000000000000, -1.000000000000000000 ) ) ;
#258 =( GEOMETRIC_REPRESENTATION_CONTEXT ( 3 ) GLOBAL_UNCERTAINTY_ASSIGNED_CONTEXT ( ( #78 ) ) GLOBAL_UNIT_ASSIGNED_CONTEXT ( ( #174, #142, #128 ) ) REPRESENTATION_CONTEXT ( 'NONE', 'WORKASPACE' ) );
#259 = CARTESIAN_POINT ( 'NONE',  ( 0.000000000000000000, 0.000000000000000000, 0.000000000000000000 ) ) ;
#260 =( CONVERSION_BASED_UNIT ( 'INCH', #36 ) LENGTH_UNIT ( ) NAMED_UNIT ( #7 ) );
#261 = CARTESIAN_POINT ( 'NONE',  ( 0.000000000000000000, 0.000000000000000000, -0.1249999999999999445 ) ) ;
#262 = ORIENTED_EDGE ( 'NONE', *, *, #322, .T. ) ;
#263 = ADVANCED_FACE ( 'NONE', ( #236 ), #200, .T. ) ;
#264 = VERTEX_POINT ( 'NONE', #31 ) ;
#265 = ORIENTED_EDGE ( 'NONE', *, *, #203, .F. ) ;
#266 = ADVANCED_FACE ( 'NONE', ( #270 ), #218, .F. ) ;
#267 =( GEOMETRIC_REPRESENTATION_CONTEXT ( 3 ) GLOBAL_UNCERTAINTY_ASSIGNED_CONTEXT ( ( #195 ) ) GLOBAL_UNIT_ASSIGNED_CONTEXT ( ( #141, #205, #57 ) ) REPRESENTATION_CONTEXT ( 'NONE', 'WORKASPACE' ) );
#268 = ORIENTED_EDGE ( 'NONE', *, *, #358, .T. ) ;
#269 = VERTEX_POINT ( 'NONE', #16 ) ;
#270 = FACE_OUTER_BOUND ( 'NONE', #198, .T. ) ;
#271 = CARTESIAN_POINT ( 'NONE',  ( 0.1249999999999999029, 2.500000000000000000, 1.530808498934190585E-17 ) ) ;
#272 = PRESENTATION_STYLE_ASSIGNMENT (( #332 ) ) ;
#273 = MECHANICAL_DESIGN_GEOMETRIC_PRESENTATION_REPRESENTATION (  '', ( #80 ), #228 ) ;
#274 = MECHANICAL_DESIGN_GEOMETRIC_PRESENTATION_REPRESENTATION (  '', ( #295 ), #68 ) ;
#275 = FACE_OUTER_BOUND ( 'NONE', #9, .T. ) ;
#276 =( CONVERSION_BASED_UNIT ( 'INCH', #253 ) LENGTH_UNIT ( ) NAMED_UNIT ( #323 ) );
#277 = SPHERICAL_SURFACE ( 'NONE', #187, 0.1250000000000000000 ) ;
#278 = MECHANICAL_DESIGN_GEOMETRIC_PRESENTATION_REPRESENTATION (  '', ( #368 ), #163 ) ;
#279 = CARTESIAN_POINT ( 'NONE',  ( 1.530808498934191817E-17, 0.1250000000000000278, 0.1250000000000000000 ) ) ;
#280 =( NAMED_UNIT ( * ) PLANE_ANGLE_UNIT ( ) SI_UNIT ( $, .RADIAN. ) );
#281 = UNCERTAINTY_MEASURE_WITH_UNIT (LENGTH_MEASURE( 1.000000000000000082E-05 ), #276, 'distance_accuracy_value', 'NONE');
#282 =( NAMED_UNIT ( * ) SI_UNIT ( $, .STERADIAN. ) SOLID_ANGLE_UNIT ( ) );
#283 = VERTEX_POINT ( 'NONE', #361 ) ;
#284 = DIRECTION ( 'NONE',  ( -1.224646799147352961E-16, 1.000000000000000000, -0.000000000000000000 ) ) ;
#285 =( LENGTH_UNIT ( ) NAMED_UNIT ( * ) SI_UNIT ( $, .METRE. ) );
#286 =( LENGTH_UNIT ( ) NAMED_UNIT ( * ) SI_UNIT ( $, .METRE. ) );
#287 = MECHANICAL_DESIGN_GEOMETRIC_PRESENTATION_REPRESENTATION (  '', ( #326 ), #333 ) ;
#288 = LINE ( 'NONE', #345, #103 ) ;
#289 = DIMENSIONAL_EXPONENTS ( 1.000000000000000000, 0.000000000000000000, 0.000000000000000000, 0.000000000000000000, 0.000000000000000000, 0.000000000000000000, 0.000000000000000000 ) ;
#290 =( GEOMETRIC_REPRESENTATION_CONTEXT ( 3 ) GLOBAL_UNCERTAINTY_ASSIGNED_CONTEXT ( ( #106 ) ) GLOBAL_UNIT_ASSIGNED_CONTEXT ( ( #48, #335, #160 ) ) REPRESENTATION_CONTEXT ( 'NONE', 'WORKASPACE' ) );
#291 = ORIENTED_EDGE ( 'NONE', *, *, #315, .T. ) ;
#292 = PRESENTATION_LAYER_ASSIGNMENT (  '', '', ( #80 ) ) ;
#293 = EDGE_LOOP ( 'NONE', ( #354, #87, #210, #6, #318 ) ) ;
#294 = EDGE_CURVE ( 'NONE', #125, #346, #38, .T. ) ;
#295 = STYLED_ITEM ( 'NONE', ( #140 ), #131 ) ;
#296 = CLOSED_SHELL ( 'NONE', ( #93, #266, #263, #220 ) ) ;
#297 =( LENGTH_UNIT ( ) NAMED_UNIT ( * ) SI_UNIT ( $, .METRE. ) );
#298 = SURFACE_SIDE_STYLE ('',( #364 ) ) ;
#299 = ADVANCED_FACE ( 'NONE', ( #45 ), #199, .T. ) ;
#300 = DIRECTION ( 'NONE',  ( -1.224646799147352961E-16, 1.000000000000000000, 0.000000000000000000 ) ) ;
#301 = LENGTH_MEASURE_WITH_UNIT ( LENGTH_MEASURE( 0.02539999999999999897 ), #297 );
#302 = CARTESIAN_POINT ( 'NONE',  ( 0.1250000000000000000, 0.1250000000000000278, 0.000000000000000000 ) ) ;
#303 = CIRCLE ( 'NONE', #32, 0.1249999999999999029 ) ;
#304 =( NAMED_UNIT ( * ) PLANE_ANGLE_UNIT ( ) SI_UNIT ( $, .RADIAN. ) );
#305 = CYLINDRICAL_SURFACE ( 'NONE', #20, 0.1249999999999999445 ) ;
#306 = DIRECTION ( 'NONE',  ( 1.224646799147353207E-16, -0.000000000000000000, 1.000000000000000000 ) ) ;
#307 = CARTESIAN_POINT ( 'NONE',  ( 0.000000000000000000, 0.7500000000000001110, -0.1249999999999999029 ) ) ;
#308 = UNCERTAINTY_MEASURE_WITH_UNIT (LENGTH_MEASURE( 1.000000000000000082E-05 ), #176, 'distance_accuracy_value', 'NONE');
#309 = AXIS2_PLACEMENT_3D ( 'NONE', #172, #284, #144 ) ;
#310 = FILL_AREA_STYLE_COLOUR ( '', #162 ) ;
#311 = APPLICATION_PROTOCOL_DEFINITION ( 'draft international standard', 'automotive_design', 1998, #343 ) ;
#312 = DIRECTION ( 'NONE',  ( -1.000000000000000000, 0.000000000000000000, 0.000000000000000000 ) ) ;
#313 = SURFACE_STYLE_USAGE ( .BOTH. , #316 ) ;
#314 = CARTESIAN_POINT ( 'NONE',  ( 0.000000000000000000, 0.000000000000000000, 0.000000000000000000 ) ) ;
#315 = EDGE_CURVE ( 'NONE', #125, #58, #288, .T. ) ;
#316 = SURFACE_SIDE_STYLE ('',( #30 ) ) ;
#317 = DIRECTION ( 'NONE',  ( 0.000000000000000000, 0.000000000000000000, -1.000000000000000000 ) ) ;
#318 = ORIENTED_EDGE ( 'NONE', *, *, #341, .F. ) ;
#319 =( NAMED_UNIT ( * ) SI_UNIT ( $, .STERADIAN. ) SOLID_ANGLE_UNIT ( ) );
#320 = CIRCLE ( 'NONE', #355, 0.1250000000000000000 ) ;
#321 = AXIS2_PLACEMENT_3D ( 'NONE', #363, #25, #18 ) ;
#322 = EDGE_CURVE ( 'NONE', #269, #283, #320, .T. ) ;
#323 = DIMENSIONAL_EXPONENTS ( 1.000000000000000000, 0.000000000000000000, 0.000000000000000000, 0.000000000000000000, 0.000000000000000000, 0.000000000000000000, 0.000000000000000000 ) ;
#324 = ORIENTED_EDGE ( 'NONE', *, *, #294, .T. ) ;
#325 = COLOUR_RGB ( '',0.7921568627450980005, 0.8196078431372548767, 0.9333333333333333481 ) ;
#326 = STYLED_ITEM ( 'NONE', ( #272 ), #217 ) ;
#327 = AXIS2_PLACEMENT_3D ( 'NONE', #72, #130, #365 ) ;
#328 = ORIENTED_EDGE ( 'NONE', *, *, #341, .T. ) ;
#329 = VERTEX_POINT ( 'NONE', #234 ) ;
#330 =( NAMED_UNIT ( * ) PLANE_ANGLE_UNIT ( ) SI_UNIT ( $, .RADIAN. ) );
#331 = FILL_AREA_STYLE ('',( #27 ) ) ;
#332 = SURFACE_STYLE_USAGE ( .BOTH. , #17 ) ;
#333 =( GEOMETRIC_REPRESENTATION_CONTEXT ( 3 ) GLOBAL_UNCERTAINTY_ASSIGNED_CONTEXT ( ( #338 ) ) GLOBAL_UNIT_ASSIGNED_CONTEXT ( ( #46, #330, #247 ) ) REPRESENTATION_CONTEXT ( 'NONE', 'WORKASPACE' ) );
#334 = CARTESIAN_POINT ( 'NONE',  ( -1.530808498934191509E-17, 0.1250000000000000000, 0.000000000000000000 ) ) ;
#335 =( NAMED_UNIT ( * ) PLANE_ANGLE_UNIT ( ) SI_UNIT ( $, .RADIAN. ) );
#336 = SURFACE_SIDE_STYLE ('',( #56 ) ) ;
#337 = DIRECTION ( 'NONE',  ( -0.000000000000000000, -1.000000000000000000, -0.000000000000000000 ) ) ;
#338 = UNCERTAINTY_MEASURE_WITH_UNIT (LENGTH_MEASURE( 1.000000000000000082E-05 ), #46, 'distance_accuracy_value', 'NONE');
#339 = CIRCLE ( 'NONE', #122, 0.1249999999999999584 ) ;
#340 = DIRECTION ( 'NONE',  ( -0.000000000000000000, -1.000000000000000000, -0.000000000000000000 ) ) ;
#341 = EDGE_CURVE ( 'NONE', #182, #264, #83, .T. ) ;
#342 = PLANE ( 'NONE',  #178 ) ;
#343 = APPLICATION_CONTEXT ( 'automotive_design' ) ;
#344 = DIRECTION ( 'NONE',  ( -1.224646799147352961E-16, 1.000000000000000000, -0.000000000000000000 ) ) ;
#345 = CARTESIAN_POINT ( 'NONE',  ( 0.1249999999999997918, 2.500000000000000000, 1.530808498934189660E-17 ) ) ;
#346 = VERTEX_POINT ( 'NONE', #61 ) ;
#347 =( NAMED_UNIT ( * ) PLANE_ANGLE_UNIT ( ) SI_UNIT ( $, .RADIAN. ) );
#348 = ORIENTED_EDGE ( 'NONE', *, *, #244, .T. ) ;
#349 = SURFACE_STYLE_USAGE ( .BOTH. , #2 ) ;
#350 = AXIS2_PLACEMENT_3D ( 'NONE', #197, #53, #257 ) ;
#351 = CARTESIAN_POINT ( 'NONE',  ( 1.530808498934190893E-17, 0.000000000000000000, 0.1249999999999999445 ) ) ;
#352 = PRODUCT_DEFINITION_FORMATION_WITH_SPECIFIED_SOURCE ( 'ANY', '', #241, .NOT_KNOWN. ) ;
#353 = EDGE_CURVE ( 'NONE', #184, #269, #366, .T. ) ;
#354 = ORIENTED_EDGE ( 'NONE', *, *, #105, .T. ) ;
#355 = AXIS2_PLACEMENT_3D ( 'NONE', #164, #306, #118 ) ;
#356 = COLOUR_RGB ( '',1.000000000000000000, 0.000000000000000000, 0.000000000000000000 ) ;
#357 = ORIENTED_EDGE ( 'NONE', *, *, #322, .F. ) ;
#358 = EDGE_CURVE ( 'NONE', #264, #67, #135, .T. ) ;
#359 = ORIENTED_EDGE ( 'NONE', *, *, #294, .F. ) ;
#360 = EDGE_CURVE ( 'NONE', #243, #184, #193, .T. ) ;
#361 = CARTESIAN_POINT ( 'NONE',  ( -7.654042494670957545E-18, 0.000000000000000000, 0.000000000000000000 ) ) ;
#362 = CIRCLE ( 'NONE', #110, 0.1250000000000000000 ) ;
#363 = CARTESIAN_POINT ( 'NONE',  ( 1.530808498934191078E-16, 0.7499999999999998890, 0.000000000000000000 ) ) ;
#364 = SURFACE_STYLE_FILL_AREA ( #249 ) ;
#365 = DIRECTION ( 'NONE',  ( -1.000000000000000000, 0.000000000000000000, 0.000000000000000000 ) ) ;
#366 = CIRCLE ( 'NONE', #43, 0.1250000000000000000 ) ;
#367 = SURFACE_SIDE_STYLE ('',( #251 ) ) ;
#368 = STYLED_ITEM ( 'NONE', ( #101 ), #92 ) ;
#369 = DIRECTION ( 'NONE',  ( -1.224646799147352961E-16, 1.000000000000000000, -0.000000000000000000 ) ) ;
#370 = APPLICATION_CONTEXT ( 'automotive_design' ) ;
#371 = SURFACE_STYLE_USAGE ( .BOTH. , #336 ) ;
#372 =( LENGTH_UNIT ( ) NAMED_UNIT ( * ) SI_UNIT ( $, .METRE. ) );
#373 =( NAMED_UNIT ( * ) PLANE_ANGLE_UNIT ( ) SI_UNIT ( $, .RADIAN. ) );
ENDSEC;
END-ISO-10303-21;
