ISO-10303-21;
HEADER;
FILE_DESCRIPTION (( 'STEP AP214' ),
    '1' );
FILE_NAME ('Micro_DM-625-490.STEP',
    '2021-09-02T16:10:27',
    ( '' ),
    ( '' ),
    'SwSTEP 2.0',
    'SolidWorks 2020',
    '' );
FILE_SCHEMA (( 'AUTOMOTIVE_DESIGN' ));
ENDSEC;

DATA;
#1 = PRESENTATION_LAYER_ASSIGNMENT (  '', '', ( #208 ) ) ;
#2 = VERTEX_POINT ( 'NONE', #61 ) ;
#3 = UNCERTAINTY_MEASURE_WITH_UNIT (LENGTH_MEASURE( 1.000000000000000082E-05 ), #135, 'distance_accuracy_value', 'NONE');
#4 = DIRECTION ( 'NONE',  ( -0.0000000000000000000, -0.0000000000000000000, -1.000000000000000000 ) ) ;
#5 = CARTESIAN_POINT ( 'NONE',  ( -0.3125000000000000000, 0.0000000000000000000, 1.250000000000000000 ) ) ;
#6 = EDGE_CURVE ( 'NONE', #50, #8, #178, .T. ) ;
#7 = AXIS2_PLACEMENT_3D ( 'NONE', #222, #82, #58 ) ;
#8 = VERTEX_POINT ( 'NONE', #300 ) ;
#9 = CIRCLE ( 'NONE', #108, 0.2975000000000003197 ) ;
#10 = LENGTH_MEASURE_WITH_UNIT ( LENGTH_MEASURE( 0.02539999999999999897 ), #11 );
#11 =( LENGTH_UNIT ( ) NAMED_UNIT ( * ) SI_UNIT ( $, .METRE. ) );
#12 = EDGE_LOOP ( 'NONE', ( #117, #54, #148, #43 ) ) ;
#13 = PRESENTATION_LAYER_ASSIGNMENT (  '', '', ( #120 ) ) ;
#14 = DIRECTION ( 'NONE',  ( -0.0000000000000000000, 0.0000000000000000000, -1.000000000000000000 ) ) ;
#15 = ORIENTED_EDGE ( 'NONE', *, *, #96, .T. ) ;
#16 = CARTESIAN_POINT ( 'NONE',  ( -0.2975000000000003197, 0.0000000000000000000, 3.500000000000000000 ) ) ;
#17 = VECTOR ( 'NONE', #237, 39.37007874015748143 ) ;
#18 = CIRCLE ( 'NONE', #7, 0.007499999999999999722 ) ;
#19 = CARTESIAN_POINT ( 'NONE',  ( 0.3125000000000000000, 3.827021247335478926E-17, 3.484999999999999432 ) ) ;
#20 = EDGE_CURVE ( 'NONE', #134, #86, #24, .T. ) ;
#21 = LINE ( 'NONE', #323, #65 ) ;
#22 = CARTESIAN_POINT ( 'NONE',  ( -0.3124500000000001165, 0.0000000000000000000, 0.0000000000000000000 ) ) ;
#23 = DIRECTION ( 'NONE',  ( -1.000000000000000000, 0.0000000000000000000, 0.0000000000000000000 ) ) ;
#24 = CIRCLE ( 'NONE', #29, 0.2975000000000003197 ) ;
#25 = DIRECTION ( 'NONE',  ( 0.0000000000000000000, 0.0000000000000000000, -1.000000000000000000 ) ) ;
#26 = CIRCLE ( 'NONE', #304, 0.3124500000000000610 ) ;
#27 = CARTESIAN_POINT ( 'NONE',  ( 0.0000000000000000000, 0.0000000000000000000, 0.3049499999999988331 ) ) ;
#28 = FACE_OUTER_BOUND ( 'NONE', #205, .T. ) ;
#29 = AXIS2_PLACEMENT_3D ( 'NONE', #63, #305, #181 ) ;
#30 = ORIENTED_EDGE ( 'NONE', *, *, #219, .F. ) ;
#31 = CARTESIAN_POINT ( 'NONE',  ( 0.0000000000000000000, 0.0000000000000000000, 3.500000000000000000 ) ) ;
#32 = ADVANCED_FACE ( 'NONE', ( #276 ), #186, .T. ) ;
#33 = EDGE_LOOP ( 'NONE', ( #37, #190, #273, #176 ) ) ;
#34 = VERTEX_POINT ( 'NONE', #59 ) ;
#35 = ORIENTED_EDGE ( 'NONE', *, *, #96, .F. ) ;
#36 = DIRECTION ( 'NONE',  ( -0.0000000000000000000, -0.0000000000000000000, -1.000000000000000000 ) ) ;
#37 = ORIENTED_EDGE ( 'NONE', *, *, #60, .F. ) ;
#38 = ORIENTED_EDGE ( 'NONE', *, *, #219, .T. ) ;
#39 = MECHANICAL_DESIGN_GEOMETRIC_PRESENTATION_REPRESENTATION (  '', ( #208 ), #213 ) ;
#40 = PLANE ( 'NONE',  #105 ) ;
#41 = MANIFOLD_SOLID_BREP ( 'Cut-Revolve4', #163 ) ;
#42 = ORIENTED_EDGE ( 'NONE', *, *, #48, .F. ) ;
#43 = ORIENTED_EDGE ( 'NONE', *, *, #274, .F. ) ;
#44 = LINE ( 'NONE', #217, #299 ) ;
#45 = COLOUR_RGB ( '',0.7921568627450980005, 0.8196078431372548767, 0.9333333333333333481 ) ;
#46 = DIRECTION ( 'NONE',  ( 0.0000000000000000000, 0.0000000000000000000, -1.000000000000000000 ) ) ;
#47 = DIRECTION ( 'NONE',  ( -0.0000000000000000000, -0.0000000000000000000, -1.000000000000000000 ) ) ;
#48 = EDGE_CURVE ( 'NONE', #194, #2, #210, .T. ) ;
#49 = DIRECTION ( 'NONE',  ( -1.000000000000000000, 0.0000000000000000000, 0.0000000000000000000 ) ) ;
#50 = VERTEX_POINT ( 'NONE', #19 ) ;
#51 = CARTESIAN_POINT ( 'NONE',  ( 0.0000000000000000000, 0.0000000000000000000, 3.500000000000000000 ) ) ;
#52 = AXIS2_PLACEMENT_3D ( 'NONE', #174, #253, #319 ) ;
#53 = APPLICATION_PROTOCOL_DEFINITION ( 'draft international standard', 'automotive_design', 1998, #180 ) ;
#54 = ORIENTED_EDGE ( 'NONE', *, *, #221, .T. ) ;
#55 = SURFACE_STYLE_FILL_AREA ( #131 ) ;
#56 = AXIS2_PLACEMENT_3D ( 'NONE', #146, #172, #113 ) ;
#57 = CIRCLE ( 'NONE', #278, 0.007499999999999999722 ) ;
#58 = DIRECTION ( 'NONE',  ( -1.000000000000000000, 0.0000000000000000000, 0.0000000000000000000 ) ) ;
#59 = CARTESIAN_POINT ( 'NONE',  ( 0.007499999999999999722, 0.0000000000000000000, 1.707404996040164512E-17 ) ) ;
#60 = EDGE_CURVE ( 'NONE', #50, #2, #121, .T. ) ;
#61 = CARTESIAN_POINT ( 'NONE',  ( 0.3125000000000000000, 3.827021247335478926E-17, 1.250000000000000000 ) ) ;
#62 =( NAMED_UNIT ( * ) SI_UNIT ( $, .STERADIAN. ) SOLID_ANGLE_UNIT ( ) );
#63 = CARTESIAN_POINT ( 'NONE',  ( 0.0000000000000000000, 0.0000000000000000000, 3.500000000000000000 ) ) ;
#64 = EDGE_CURVE ( 'NONE', #8, #194, #204, .T. ) ;
#65 = VECTOR ( 'NONE', #115, 39.37007874015748143 ) ;
#66 = APPLICATION_PROTOCOL_DEFINITION ( 'draft international standard', 'automotive_design', 1998, #291 ) ;
#67 = CARTESIAN_POINT ( 'NONE',  ( -0.3125000000000000000, 0.0000000000000000000, 3.500000000000000000 ) ) ;
#68 = CIRCLE ( 'NONE', #232, 0.3124500000000002276 ) ;
#69 = ORIENTED_EDGE ( 'NONE', *, *, #233, .T. ) ;
#70 = AXIS2_PLACEMENT_3D ( 'NONE', #31, #268, #248 ) ;
#71 = CARTESIAN_POINT ( 'NONE',  ( 0.0000000000000000000, 0.0000000000000000000, 1.707404996040164512E-17 ) ) ;
#72 = CARTESIAN_POINT ( 'NONE',  ( 0.0000000000000000000, 0.0000000000000000000, 1.250000000000000000 ) ) ;
#73 = LINE ( 'NONE', #184, #17 ) ;
#74 = ADVANCED_FACE ( 'NONE', ( #234 ), #321, .T. ) ;
#75 = DIRECTION ( 'NONE',  ( -0.7071067811865346942, 0.0000000000000000000, -0.7071067811865603403 ) ) ;
#76 = AXIS2_PLACEMENT_3D ( 'NONE', #296, #111, #226 ) ;
#77 = VECTOR ( 'NONE', #75, 39.37007874015748143 ) ;
#78 = FACE_OUTER_BOUND ( 'NONE', #12, .T. ) ;
#79 = CONICAL_SURFACE ( 'NONE', #272, 0.2975000000000003197, 0.7853981633974300713 ) ;
#80 = DIRECTION ( 'NONE',  ( -1.000000000000000000, 0.0000000000000000000, 0.0000000000000000000 ) ) ;
#81 = ORIENTED_EDGE ( 'NONE', *, *, #206, .T. ) ;
#82 = DIRECTION ( 'NONE',  ( -0.0000000000000000000, -0.0000000000000000000, -1.000000000000000000 ) ) ;
#83 = CYLINDRICAL_SURFACE ( 'NONE', #168, 0.3125000000000000000 ) ;
#84 = SURFACE_SIDE_STYLE ('',( #177 ) ) ;
#85 = MECHANICAL_DESIGN_GEOMETRIC_PRESENTATION_REPRESENTATION (  '', ( #120 ), #310 ) ;
#86 = VERTEX_POINT ( 'NONE', #16 ) ;
#87 = PRODUCT ( 'Micro_DM-625-490', 'Micro_DM-625-490', '', ( #298 ) ) ;
#88 = EDGE_CURVE ( 'NONE', #34, #164, #21, .T. ) ;
#89 = EDGE_LOOP ( 'NONE', ( #106, #141, #284, #303 ) ) ;
#90 = ORIENTED_EDGE ( 'NONE', *, *, #88, .T. ) ;
#91 = AXIS2_PLACEMENT_3D ( 'NONE', #263, #286, #311 ) ;
#92 = CARTESIAN_POINT ( 'NONE',  ( 0.3125000000000000000, 3.827021247335478926E-17, 3.500000000000000000 ) ) ;
#93 = FACE_BOUND ( 'NONE', #230, .T. ) ;
#94 = DIRECTION ( 'NONE',  ( -0.0000000000000000000, -0.0000000000000000000, -1.000000000000000000 ) ) ;
#95 = ADVANCED_FACE ( 'NONE', ( #93, #209 ), #40, .T. ) ;
#96 = EDGE_CURVE ( 'NONE', #8, #50, #301, .T. ) ;
#97 = DIRECTION ( 'NONE',  ( 0.0000000000000000000, 0.0000000000000000000, 1.000000000000000000 ) ) ;
#98 = DIRECTION ( 'NONE',  ( -1.000000000000000000, 0.0000000000000000000, 0.0000000000000000000 ) ) ;
#99 = ORIENTED_EDGE ( 'NONE', *, *, #169, .T. ) ;
#100 = DIRECTION ( 'NONE',  ( -0.0000000000000000000, -0.0000000000000000000, -1.000000000000000000 ) ) ;
#101 = CYLINDRICAL_SURFACE ( 'NONE', #133, 0.3125000000000000000 ) ;
#102 =( NAMED_UNIT ( * ) PLANE_ANGLE_UNIT ( ) SI_UNIT ( $, .RADIAN. ) );
#103 = EDGE_LOOP ( 'NONE', ( #81, #227 ) ) ;
#104 = DIRECTION ( 'NONE',  ( 0.0000000000000000000, 0.0000000000000000000, 1.000000000000000000 ) ) ;
#105 = AXIS2_PLACEMENT_3D ( 'NONE', #142, #14, #158 ) ;
#106 = ORIENTED_EDGE ( 'NONE', *, *, #265, .F. ) ;
#107 =( CONVERSION_BASED_UNIT ( 'INCH', #10 ) LENGTH_UNIT ( ) NAMED_UNIT ( #241 ) );
#108 = AXIS2_PLACEMENT_3D ( 'NONE', #124, #97, #161 ) ;
#109 = PLANE ( 'NONE',  #70 ) ;
#110 = PRODUCT_DEFINITION_FORMATION_WITH_SPECIFIED_SOURCE ( 'ANY', '', #87, .NOT_KNOWN. ) ;
#111 = DIRECTION ( 'NONE',  ( 0.0000000000000000000, 0.0000000000000000000, 1.000000000000000000 ) ) ;
#112 = ORIENTED_EDGE ( 'NONE', *, *, #154, .F. ) ;
#113 = DIRECTION ( 'NONE',  ( 1.000000000000000000, 0.0000000000000000000, 0.0000000000000000000 ) ) ;
#114 = ORIENTED_EDGE ( 'NONE', *, *, #292, .T. ) ;
#115 = DIRECTION ( 'NONE',  ( 0.7071067811865489050, 0.0000000000000000000, 0.7071067811865461294 ) ) ;
#116 = VERTEX_POINT ( 'NONE', #279 ) ;
#117 = ORIENTED_EDGE ( 'NONE', *, *, #233, .F. ) ;
#118 = DIRECTION ( 'NONE',  ( -0.0000000000000000000, -0.0000000000000000000, -1.000000000000000000 ) ) ;
#119 = FILL_AREA_STYLE_COLOUR ( '', #144 ) ;
#120 = STYLED_ITEM ( 'NONE', ( #139 ), #41 ) ;
#121 = LINE ( 'NONE', #92, #225 ) ;
#122 = LINE ( 'NONE', #309, #77 ) ;
#123 = CARTESIAN_POINT ( 'NONE',  ( 0.0000000000000000000, 0.0000000000000000000, 3.484999999999999432 ) ) ;
#124 = CARTESIAN_POINT ( 'NONE',  ( 0.0000000000000000000, 0.0000000000000000000, 3.500000000000000000 ) ) ;
#125 = DIRECTION ( 'NONE',  ( -0.0000000000000000000, -0.0000000000000000000, -1.000000000000000000 ) ) ;
#126 = FACE_OUTER_BOUND ( 'NONE', #251, .T. ) ;
#127 = VECTOR ( 'NONE', #173, 39.37007874015748143 ) ;
#128 = EDGE_LOOP ( 'NONE', ( #137, #192 ) ) ;
#129 = FACE_OUTER_BOUND ( 'NONE', #103, .T. ) ;
#130 = DIMENSIONAL_EXPONENTS ( 1.000000000000000000, 0.0000000000000000000, 0.0000000000000000000, 0.0000000000000000000, 0.0000000000000000000, 0.0000000000000000000, 0.0000000000000000000 ) ;
#131 = FILL_AREA_STYLE ('',( #138 ) ) ;
#132 = VECTOR ( 'NONE', #193, 39.37007874015748143 ) ;
#133 = AXIS2_PLACEMENT_3D ( 'NONE', #283, #47, #23 ) ;
#134 = VERTEX_POINT ( 'NONE', #157 ) ;
#135 =( CONVERSION_BASED_UNIT ( 'INCH', #171 ) LENGTH_UNIT ( ) NAMED_UNIT ( #228 ) );
#136 = ORIENTED_EDGE ( 'NONE', *, *, #60, .T. ) ;
#137 = ORIENTED_EDGE ( 'NONE', *, *, #327, .T. ) ;
#138 = FILL_AREA_STYLE_COLOUR ( '', #45 ) ;
#139 = PRESENTATION_STYLE_ASSIGNMENT (( #199 ) ) ;
#140 = LENGTH_MEASURE_WITH_UNIT ( LENGTH_MEASURE( 0.02539999999999999897 ), #324 );
#141 = ORIENTED_EDGE ( 'NONE', *, *, #252, .T. ) ;
#142 = CARTESIAN_POINT ( 'NONE',  ( 0.3124500000000002276, 0.0000000000000000000, 1.250000000000000000 ) ) ;
#143 = ADVANCED_FACE ( 'NONE', ( #78 ), #236, .T. ) ;
#144 = COLOUR_RGB ( '',0.7921568627450980005, 0.8196078431372548767, 0.9333333333333333481 ) ;
#145 = DIRECTION ( 'NONE',  ( 0.0000000000000000000, 0.0000000000000000000, -1.000000000000000000 ) ) ;
#146 = CARTESIAN_POINT ( 'NONE',  ( 0.0000000000000000000, 0.0000000000000000000, 0.0000000000000000000 ) ) ;
#147 = CARTESIAN_POINT ( 'NONE',  ( 0.0000000000000000000, 0.0000000000000000000, 0.0000000000000000000 ) ) ;
#148 = ORIENTED_EDGE ( 'NONE', *, *, #154, .T. ) ;
#149 = DIRECTION ( 'NONE',  ( -0.0000000000000000000, -0.0000000000000000000, -1.000000000000000000 ) ) ;
#150 = CARTESIAN_POINT ( 'NONE',  ( 0.0000000000000000000, 0.0000000000000000000, 1.250000000000000000 ) ) ;
#151 = AXIS2_PLACEMENT_3D ( 'NONE', #27, #100, #182 ) ;
#152 = ADVANCED_FACE ( 'NONE', ( #28 ), #189, .T. ) ;
#153 = DIRECTION ( 'NONE',  ( -1.000000000000000000, 0.0000000000000000000, 0.0000000000000000000 ) ) ;
#154 = EDGE_CURVE ( 'NONE', #318, #275, #191, .T. ) ;
#155 = UNCERTAINTY_MEASURE_WITH_UNIT (LENGTH_MEASURE( 1.000000000000000082E-05 ), #250, 'distance_accuracy_value', 'NONE');
#156 = AXIS2_PLACEMENT_3D ( 'NONE', #123, #46, #308 ) ;
#157 = CARTESIAN_POINT ( 'NONE',  ( 0.2975000000000003197, 3.735172737399428256E-17, 3.500000000000000000 ) ) ;
#158 = DIRECTION ( 'NONE',  ( -1.000000000000000000, 0.0000000000000000000, 0.0000000000000000000 ) ) ;
#159 = EDGE_LOOP ( 'NONE', ( #38, #69, #162, #112 ) ) ;
#160 =( GEOMETRIC_REPRESENTATION_CONTEXT ( 3 ) GLOBAL_UNCERTAINTY_ASSIGNED_CONTEXT ( ( #3 ) ) GLOBAL_UNIT_ASSIGNED_CONTEXT ( ( #135, #167, #243 ) ) REPRESENTATION_CONTEXT ( 'NONE', 'WORKASPACE' ) );
#161 = DIRECTION ( 'NONE',  ( 1.000000000000000000, 0.0000000000000000000, 0.0000000000000000000 ) ) ;
#162 = ORIENTED_EDGE ( 'NONE', *, *, #238, .F. ) ;
#163 = CLOSED_SHELL ( 'NONE', ( #74, #32, #152, #245, #306, #326, #244, #95, #313, #143, #183 ) ) ;
#164 = VERTEX_POINT ( 'NONE', #282 ) ;
#165 = PRODUCT_DEFINITION_CONTEXT ( 'detailed design', #291, 'design' ) ;
#166 = CARTESIAN_POINT ( 'NONE',  ( 0.2975000000000003197, 3.643324227463378817E-17, 3.500000000000000000 ) ) ;
#167 =( NAMED_UNIT ( * ) PLANE_ANGLE_UNIT ( ) SI_UNIT ( $, .RADIAN. ) );
#168 = AXIS2_PLACEMENT_3D ( 'NONE', #51, #36, #200 ) ;
#169 = EDGE_CURVE ( 'NONE', #86, #8, #122, .T. ) ;
#170 = ORIENTED_EDGE ( 'NONE', *, *, #292, .F. ) ;
#171 = LENGTH_MEASURE_WITH_UNIT ( LENGTH_MEASURE( 0.02539999999999999897 ), #290 );
#172 = DIRECTION ( 'NONE',  ( 0.0000000000000000000, 0.0000000000000000000, 1.000000000000000000 ) ) ;
#173 = DIRECTION ( 'NONE',  ( -0.0000000000000000000, -0.0000000000000000000, -1.000000000000000000 ) ) ;
#174 = CARTESIAN_POINT ( 'NONE',  ( 0.0000000000000000000, 0.0000000000000000000, 1.250000000000000000 ) ) ;
#175 = VERTEX_POINT ( 'NONE', #235 ) ;
#176 = ORIENTED_EDGE ( 'NONE', *, *, #293, .F. ) ;
#177 = SURFACE_STYLE_FILL_AREA ( #201 ) ;
#178 = CIRCLE ( 'NONE', #289, 0.3125000000000000000 ) ;
#179 = PRODUCT_DEFINITION ( 'UNKNOWN', '', #110, #165 ) ;
#180 = APPLICATION_CONTEXT ( 'automotive_design' ) ;
#181 = DIRECTION ( 'NONE',  ( 1.000000000000000000, 0.0000000000000000000, 0.0000000000000000000 ) ) ;
#182 = DIRECTION ( 'NONE',  ( -1.000000000000000000, 0.0000000000000000000, 0.0000000000000000000 ) ) ;
#183 = ADVANCED_FACE ( 'NONE', ( #211 ), #258, .F. ) ;
#184 = CARTESIAN_POINT ( 'NONE',  ( 0.3124500000000001165, 3.826408923935906052E-17, 0.0000000000000000000 ) ) ;
#185 = CARTESIAN_POINT ( 'NONE',  ( 0.0000000000000000000, 0.0000000000000000000, 0.0000000000000000000 ) ) ;
#186 = CONICAL_SURFACE ( 'NONE', #76, 0.007499999999999999722, 0.7853981633974502774 ) ;
#187 = ADVANCED_BREP_SHAPE_REPRESENTATION ( 'Micro_DM-625-490', ( #41, #56 ), #160 ) ;
#188 = DIRECTION ( 'NONE',  ( 0.0000000000000000000, 0.0000000000000000000, -1.000000000000000000 ) ) ;
#189 = CONICAL_SURFACE ( 'NONE', #207, 0.2975000000000003197, 0.7853981633974300713 ) ;
#190 = ORIENTED_EDGE ( 'NONE', *, *, #6, .T. ) ;
#191 = LINE ( 'NONE', #22, #264 ) ;
#192 = ORIENTED_EDGE ( 'NONE', *, *, #265, .T. ) ;
#193 = DIRECTION ( 'NONE',  ( 0.7071067811865346942, 8.659560562354773853E-17, -0.7071067811865603403 ) ) ;
#194 = VERTEX_POINT ( 'NONE', #5 ) ;
#195 = CARTESIAN_POINT ( 'NONE',  ( 0.0000000000000000000, 0.0000000000000000000, 1.250000000000000000 ) ) ;
#196 = AXIS2_PLACEMENT_3D ( 'NONE', #185, #328, #329 ) ;
#197 = FACE_OUTER_BOUND ( 'NONE', #33, .T. ) ;
#198 = AXIS2_PLACEMENT_3D ( 'NONE', #295, #104, #288 ) ;
#199 = SURFACE_STYLE_USAGE ( .BOTH. , #84 ) ;
#200 = DIRECTION ( 'NONE',  ( -1.000000000000000000, 0.0000000000000000000, 0.0000000000000000000 ) ) ;
#201 = FILL_AREA_STYLE ('',( #119 ) ) ;
#202 = ORIENTED_EDGE ( 'NONE', *, *, #64, .F. ) ;
#203 = DIRECTION ( 'NONE',  ( 1.000000000000000000, 0.0000000000000000000, 0.0000000000000000000 ) ) ;
#204 = LINE ( 'NONE', #67, #127 ) ;
#205 = EDGE_LOOP ( 'NONE', ( #287, #114, #35, #297 ) ) ;
#206 = EDGE_CURVE ( 'NONE', #86, #134, #9, .T. ) ;
#207 = AXIS2_PLACEMENT_3D ( 'NONE', #307, #25, #214 ) ;
#208 = STYLED_ITEM ( 'NONE', ( #294 ), #187 ) ;
#209 = FACE_OUTER_BOUND ( 'NONE', #269, .T. ) ;
#210 = CIRCLE ( 'NONE', #52, 0.3125000000000000000 ) ;
#211 = FACE_OUTER_BOUND ( 'NONE', #128, .T. ) ;
#212 = DIRECTION ( 'NONE',  ( -0.7071067811865489050, 8.659560562354950115E-17, 0.7071067811865461294 ) ) ;
#213 =( GEOMETRIC_REPRESENTATION_CONTEXT ( 3 ) GLOBAL_UNCERTAINTY_ASSIGNED_CONTEXT ( ( #285 ) ) GLOBAL_UNIT_ASSIGNED_CONTEXT ( ( #107, #102, #62 ) ) REPRESENTATION_CONTEXT ( 'NONE', 'WORKASPACE' ) );
#214 = DIRECTION ( 'NONE',  ( -1.000000000000000000, 0.0000000000000000000, 0.0000000000000000000 ) ) ;
#215 = EDGE_LOOP ( 'NONE', ( #15, #136, #42, #202 ) ) ;
#216 = DIRECTION ( 'NONE',  ( -1.000000000000000000, 0.0000000000000000000, 0.0000000000000000000 ) ) ;
#217 = CARTESIAN_POINT ( 'NONE',  ( -0.007499999999999999722, 9.184850993605147975E-19, 1.707404996040164512E-17 ) ) ;
#218 =( NAMED_UNIT ( * ) SI_UNIT ( $, .STERADIAN. ) SOLID_ANGLE_UNIT ( ) );
#219 = EDGE_CURVE ( 'NONE', #318, #116, #68, .T. ) ;
#220 = ORIENTED_EDGE ( 'NONE', *, *, #221, .F. ) ;
#221 = EDGE_CURVE ( 'NONE', #116, #318, #259, .T. ) ;
#222 = CARTESIAN_POINT ( 'NONE',  ( 0.0000000000000000000, 0.0000000000000000000, 1.707404996040164512E-17 ) ) ;
#223 = CARTESIAN_POINT ( 'NONE',  ( -0.3124500000000002276, 0.0000000000000000000, 1.250000000000000000 ) ) ;
#224 = CIRCLE ( 'NONE', #271, 0.3125000000000000000 ) ;
#225 = VECTOR ( 'NONE', #118, 39.37007874015748143 ) ;
#226 = DIRECTION ( 'NONE',  ( 1.000000000000000000, 0.0000000000000000000, 0.0000000000000000000 ) ) ;
#227 = ORIENTED_EDGE ( 'NONE', *, *, #20, .T. ) ;
#228 = DIMENSIONAL_EXPONENTS ( 1.000000000000000000, 0.0000000000000000000, 0.0000000000000000000, 0.0000000000000000000, 0.0000000000000000000, 0.0000000000000000000, 0.0000000000000000000 ) ;
#229 = CIRCLE ( 'NONE', #151, 0.3124500000000000610 ) ;
#230 = EDGE_LOOP ( 'NONE', ( #30, #220 ) ) ;
#231 = CARTESIAN_POINT ( 'NONE',  ( 0.0000000000000000000, 0.0000000000000000000, 3.484999999999999432 ) ) ;
#232 = AXIS2_PLACEMENT_3D ( 'NONE', #72, #239, #98 ) ;
#233 = EDGE_CURVE ( 'NONE', #116, #164, #73, .T. ) ;
#234 = FACE_OUTER_BOUND ( 'NONE', #159, .T. ) ;
#235 = CARTESIAN_POINT ( 'NONE',  ( -0.007499999999999999722, 1.959128716935978978E-17, 1.707404996040164512E-17 ) ) ;
#236 = CYLINDRICAL_SURFACE ( 'NONE', #196, 0.3124500000000001165 ) ;
#237 = DIRECTION ( 'NONE',  ( -0.0000000000000000000, -0.0000000000000000000, -1.000000000000000000 ) ) ;
#238 = EDGE_CURVE ( 'NONE', #275, #164, #26, .T. ) ;
#239 = DIRECTION ( 'NONE',  ( -0.0000000000000000000, -0.0000000000000000000, -1.000000000000000000 ) ) ;
#240 = ORIENTED_EDGE ( 'NONE', *, *, #327, .F. ) ;
#241 = DIMENSIONAL_EXPONENTS ( 1.000000000000000000, 0.0000000000000000000, 0.0000000000000000000, 0.0000000000000000000, 0.0000000000000000000, 0.0000000000000000000, 0.0000000000000000000 ) ;
#242 = CARTESIAN_POINT ( 'NONE',  ( 0.0000000000000000000, 0.0000000000000000000, 3.500000000000000000 ) ) ;
#243 =( NAMED_UNIT ( * ) SI_UNIT ( $, .STERADIAN. ) SOLID_ANGLE_UNIT ( ) );
#244 = ADVANCED_FACE ( 'NONE', ( #126 ), #79, .T. ) ;
#245 = ADVANCED_FACE ( 'NONE', ( #256 ), #101, .T. ) ;
#246 = CONICAL_SURFACE ( 'NONE', #198, 0.007499999999999999722, 0.7853981633974502774 ) ;
#247 = ORIENTED_EDGE ( 'NONE', *, *, #274, .T. ) ;
#248 = DIRECTION ( 'NONE',  ( 1.000000000000000000, 0.0000000000000000000, -0.0000000000000000000 ) ) ;
#249 = SURFACE_STYLE_USAGE ( .BOTH. , #266 ) ;
#250 =( CONVERSION_BASED_UNIT ( 'INCH', #140 ) LENGTH_UNIT ( ) NAMED_UNIT ( #130 ) );
#251 = EDGE_LOOP ( 'NONE', ( #170, #320, #99, #277 ) ) ;
#252 = EDGE_CURVE ( 'NONE', #175, #275, #44, .T. ) ;
#253 = DIRECTION ( 'NONE',  ( -0.0000000000000000000, -0.0000000000000000000, -1.000000000000000000 ) ) ;
#254 = DIRECTION ( 'NONE',  ( -1.000000000000000000, 0.0000000000000000000, 0.0000000000000000000 ) ) ;
#255 = CARTESIAN_POINT ( 'NONE',  ( -0.3124500000000000610, 3.826408923935906052E-17, 0.3049499999999988331 ) ) ;
#256 = FACE_OUTER_BOUND ( 'NONE', #215, .T. ) ;
#257 = AXIS2_PLACEMENT_3D ( 'NONE', #147, #149, #254 ) ;
#258 = PLANE ( 'NONE',  #91 ) ;
#259 = CIRCLE ( 'NONE', #261, 0.3124500000000002276 ) ;
#260 = DIRECTION ( 'NONE',  ( -0.0000000000000000000, -0.0000000000000000000, -1.000000000000000000 ) ) ;
#261 = AXIS2_PLACEMENT_3D ( 'NONE', #150, #4, #49 ) ;
#262 = PRODUCT_RELATED_PRODUCT_CATEGORY ( 'part', '', ( #87 ) ) ;
#263 = CARTESIAN_POINT ( 'NONE',  ( 0.0000000000000000000, 0.0000000000000000000, 0.0000000000000000000 ) ) ;
#264 = VECTOR ( 'NONE', #125, 39.37007874015748143 ) ;
#265 = EDGE_CURVE ( 'NONE', #175, #34, #57, .T. ) ;
#266 = SURFACE_SIDE_STYLE ('',( #55 ) ) ;
#267 = DIRECTION ( 'NONE',  ( -0.0000000000000000000, -0.0000000000000000000, -1.000000000000000000 ) ) ;
#268 = DIRECTION ( 'NONE',  ( 0.0000000000000000000, 0.0000000000000000000, 1.000000000000000000 ) ) ;
#269 = EDGE_LOOP ( 'NONE', ( #312, #317 ) ) ;
#270 = SHAPE_DEFINITION_REPRESENTATION ( #316, #187 ) ;
#271 = AXIS2_PLACEMENT_3D ( 'NONE', #195, #267, #80 ) ;
#272 = AXIS2_PLACEMENT_3D ( 'NONE', #242, #188, #153 ) ;
#273 = ORIENTED_EDGE ( 'NONE', *, *, #64, .T. ) ;
#274 = EDGE_CURVE ( 'NONE', #164, #275, #229, .T. ) ;
#275 = VERTEX_POINT ( 'NONE', #255 ) ;
#276 = FACE_OUTER_BOUND ( 'NONE', #89, .T. ) ;
#277 = ORIENTED_EDGE ( 'NONE', *, *, #6, .F. ) ;
#278 = AXIS2_PLACEMENT_3D ( 'NONE', #71, #260, #216 ) ;
#279 = CARTESIAN_POINT ( 'NONE',  ( 0.3124500000000002276, 3.826408923935907901E-17, 1.250000000000000000 ) ) ;
#280 = DIRECTION ( 'NONE',  ( -1.000000000000000000, 0.0000000000000000000, 0.0000000000000000000 ) ) ;
#281 = EDGE_LOOP ( 'NONE', ( #302, #240, #90, #247 ) ) ;
#282 = CARTESIAN_POINT ( 'NONE',  ( 0.3124500000000000610, 0.0000000000000000000, 0.3049499999999988331 ) ) ;
#283 = CARTESIAN_POINT ( 'NONE',  ( 0.0000000000000000000, 0.0000000000000000000, 3.500000000000000000 ) ) ;
#284 = ORIENTED_EDGE ( 'NONE', *, *, #238, .T. ) ;
#285 = UNCERTAINTY_MEASURE_WITH_UNIT (LENGTH_MEASURE( 1.000000000000000082E-05 ), #107, 'distance_accuracy_value', 'NONE');
#286 = DIRECTION ( 'NONE',  ( 0.0000000000000000000, 0.0000000000000000000, 1.000000000000000000 ) ) ;
#287 = ORIENTED_EDGE ( 'NONE', *, *, #20, .F. ) ;
#288 = DIRECTION ( 'NONE',  ( 1.000000000000000000, 0.0000000000000000000, 0.0000000000000000000 ) ) ;
#289 = AXIS2_PLACEMENT_3D ( 'NONE', #231, #145, #203 ) ;
#290 =( LENGTH_UNIT ( ) NAMED_UNIT ( * ) SI_UNIT ( $, .METRE. ) );
#291 = APPLICATION_CONTEXT ( 'automotive_design' ) ;
#292 = EDGE_CURVE ( 'NONE', #134, #50, #315, .T. ) ;
#293 = EDGE_CURVE ( 'NONE', #2, #194, #224, .T. ) ;
#294 = PRESENTATION_STYLE_ASSIGNMENT (( #249 ) ) ;
#295 = CARTESIAN_POINT ( 'NONE',  ( 0.0000000000000000000, 0.0000000000000000000, 1.707404996040164512E-17 ) ) ;
#296 = CARTESIAN_POINT ( 'NONE',  ( 0.0000000000000000000, 0.0000000000000000000, 1.707404996040164512E-17 ) ) ;
#297 = ORIENTED_EDGE ( 'NONE', *, *, #169, .F. ) ;
#298 = PRODUCT_CONTEXT ( 'NONE', #180, 'mechanical' ) ;
#299 = VECTOR ( 'NONE', #212, 39.37007874015748143 ) ;
#300 = CARTESIAN_POINT ( 'NONE',  ( -0.3125000000000000000, 0.0000000000000000000, 3.484999999999999432 ) ) ;
#301 = CIRCLE ( 'NONE', #156, 0.3125000000000000000 ) ;
#302 = ORIENTED_EDGE ( 'NONE', *, *, #252, .F. ) ;
#303 = ORIENTED_EDGE ( 'NONE', *, *, #88, .F. ) ;
#304 = AXIS2_PLACEMENT_3D ( 'NONE', #325, #94, #280 ) ;
#305 = DIRECTION ( 'NONE',  ( 0.0000000000000000000, 0.0000000000000000000, 1.000000000000000000 ) ) ;
#306 = ADVANCED_FACE ( 'NONE', ( #197 ), #83, .T. ) ;
#307 = CARTESIAN_POINT ( 'NONE',  ( 0.0000000000000000000, 0.0000000000000000000, 3.500000000000000000 ) ) ;
#308 = DIRECTION ( 'NONE',  ( 1.000000000000000000, 0.0000000000000000000, 0.0000000000000000000 ) ) ;
#309 = CARTESIAN_POINT ( 'NONE',  ( -0.2975000000000003197, 0.0000000000000000000, 3.500000000000000000 ) ) ;
#310 =( GEOMETRIC_REPRESENTATION_CONTEXT ( 3 ) GLOBAL_UNCERTAINTY_ASSIGNED_CONTEXT ( ( #155 ) ) GLOBAL_UNIT_ASSIGNED_CONTEXT ( ( #250, #322, #218 ) ) REPRESENTATION_CONTEXT ( 'NONE', 'WORKASPACE' ) );
#311 = DIRECTION ( 'NONE',  ( 1.000000000000000000, 0.0000000000000000000, -0.0000000000000000000 ) ) ;
#312 = ORIENTED_EDGE ( 'NONE', *, *, #48, .T. ) ;
#313 = ADVANCED_FACE ( 'NONE', ( #314 ), #246, .T. ) ;
#314 = FACE_OUTER_BOUND ( 'NONE', #281, .T. ) ;
#315 = LINE ( 'NONE', #166, #132 ) ;
#316 = PRODUCT_DEFINITION_SHAPE ( 'NONE', 'NONE',  #179 ) ;
#317 = ORIENTED_EDGE ( 'NONE', *, *, #293, .T. ) ;
#318 = VERTEX_POINT ( 'NONE', #223 ) ;
#319 = DIRECTION ( 'NONE',  ( -1.000000000000000000, 0.0000000000000000000, 0.0000000000000000000 ) ) ;
#320 = ORIENTED_EDGE ( 'NONE', *, *, #206, .F. ) ;
#321 = CYLINDRICAL_SURFACE ( 'NONE', #257, 0.3124500000000001165 ) ;
#322 =( NAMED_UNIT ( * ) PLANE_ANGLE_UNIT ( ) SI_UNIT ( $, .RADIAN. ) );
#323 = CARTESIAN_POINT ( 'NONE',  ( 0.007499999999999999722, 0.0000000000000000000, 1.707404996040164512E-17 ) ) ;
#324 =( LENGTH_UNIT ( ) NAMED_UNIT ( * ) SI_UNIT ( $, .METRE. ) );
#325 = CARTESIAN_POINT ( 'NONE',  ( 0.0000000000000000000, 0.0000000000000000000, 0.3049499999999988331 ) ) ;
#326 = ADVANCED_FACE ( 'NONE', ( #129 ), #109, .T. ) ;
#327 = EDGE_CURVE ( 'NONE', #34, #175, #18, .T. ) ;
#328 = DIRECTION ( 'NONE',  ( -0.0000000000000000000, -0.0000000000000000000, -1.000000000000000000 ) ) ;
#329 = DIRECTION ( 'NONE',  ( -1.000000000000000000, 0.0000000000000000000, 0.0000000000000000000 ) ) ;
ENDSEC;
END-ISO-10303-21;
