ISO-10303-21;
HEADER;
FILE_DESCRIPTION (( 'STEP AP214' ),
    '1' );
FILE_NAME ('44092.STEP',
    '2023-06-22T19:19:07',
    ( '' ),
    ( '' ),
    'SwSTEP 2.0',
    'SolidWorks 2023',
    '' );
FILE_SCHEMA (( 'AUTOMOTIVE_DESIGN' ));
ENDSEC;

DATA;
#1 = DIRECTION ( 'NONE',  ( -1.000000000000000000, 0.000000000000000000, 0.000000000000000000 ) ) ;
#2 =( NAMED_UNIT ( * ) SI_UNIT ( $, .STERADIAN. ) SOLID_ANGLE_UNIT ( ) );
#3 = DIRECTION ( 'NONE',  ( -3.498990854706722745E-17, 1.000000000000000000, -0.000000000000000000 ) ) ;
#4 = EDGE_LOOP ( 'NONE', ( #95, #50 ) ) ;
#5 = VECTOR ( 'NONE', #177, 39.37007874015748143 ) ;
#6 = EDGE_LOOP ( 'NONE', ( #22, #133 ) ) ;
#7 = SURFACE_STYLE_USAGE ( .BOTH. , #75 ) ;
#8 = PRODUCT ( '44092', '44092', '', ( #55 ) ) ;
#9 = ORIENTED_EDGE ( 'NONE', *, *, #189, .F. ) ;
#10 = CARTESIAN_POINT ( 'NONE',  ( 0.09374999999999995837, 2.500000000000000000, 1.148106374200644017E-17 ) ) ;
#11 = PRODUCT_DEFINITION_CONTEXT ( 'detailed design', #249, 'design' ) ;
#12 = DIRECTION ( 'NONE',  ( 0.000000000000000000, 0.000000000000000000, -1.000000000000000000 ) ) ;
#13 = MANIFOLD_SOLID_BREP ( 'Revolve - Cutting Edge', #258 ) ;
#14 = SURFACE_STYLE_FILL_AREA ( #16 ) ;
#15 = PRESENTATION_LAYER_ASSIGNMENT (  '', '', ( #98 ) ) ;
#16 = FILL_AREA_STYLE ('',( #152 ) ) ;
#17 = CIRCLE ( 'NONE', #184, 0.09374999999999998612 ) ;
#18 = LINE ( 'NONE', #87, #155 ) ;
#19 = CARTESIAN_POINT ( 'NONE',  ( 0.000000000000000000, 0.7500000000000001110, 0.000000000000000000 ) ) ;
#20 = AXIS2_PLACEMENT_3D ( 'NONE', #264, #219, #164 ) ;
#21 = DIRECTION ( 'NONE',  ( 0.000000000000000000, 0.000000000000000000, 1.000000000000000000 ) ) ;
#22 = ORIENTED_EDGE ( 'NONE', *, *, #188, .T. ) ;
#23 = ORIENTED_EDGE ( 'NONE', *, *, #247, .T. ) ;
#24 = CARTESIAN_POINT ( 'NONE',  ( -6.123233995736766036E-17, 2.500000000000000000, 0.000000000000000000 ) ) ;
#25 = ORIENTED_EDGE ( 'NONE', *, *, #189, .T. ) ;
#26 = UNCERTAINTY_MEASURE_WITH_UNIT (LENGTH_MEASURE( 1.000000000000000082E-05 ), #299, 'distance_accuracy_value', 'NONE');
#27 = FILL_AREA_STYLE ('',( #295 ) ) ;
#28 =( LENGTH_UNIT ( ) NAMED_UNIT ( * ) SI_UNIT ( $, .METRE. ) );
#29 = STYLED_ITEM ( 'NONE', ( #140 ), #286 ) ;
#30 =( GEOMETRIC_REPRESENTATION_CONTEXT ( 3 ) GLOBAL_UNCERTAINTY_ASSIGNED_CONTEXT ( ( #26 ) ) GLOBAL_UNIT_ASSIGNED_CONTEXT ( ( #299, #135, #113 ) ) REPRESENTATION_CONTEXT ( 'NONE', 'WORKASPACE' ) );
#31 = ORIENTED_EDGE ( 'NONE', *, *, #141, .F. ) ;
#32 = EDGE_CURVE ( 'NONE', #291, #76, #275, .T. ) ;
#33 = FILL_AREA_STYLE_COLOUR ( '', #85 ) ;
#34 = AXIS2_PLACEMENT_3D ( 'NONE', #176, #201, #277 ) ;
#35 =( LENGTH_UNIT ( ) NAMED_UNIT ( * ) SI_UNIT ( $, .METRE. ) );
#36 = PLANE ( 'NONE',  #290 ) ;
#37 = AXIS2_PLACEMENT_3D ( 'NONE', #102, #307, #202 ) ;
#38 = EDGE_CURVE ( 'NONE', #263, #291, #18, .T. ) ;
#39 = APPLICATION_PROTOCOL_DEFINITION ( 'draft international standard', 'automotive_design', 1998, #165 ) ;
#40 = AXIS2_PLACEMENT_3D ( 'NONE', #48, #108, #182 ) ;
#41 = DIRECTION ( 'NONE',  ( -0.000000000000000000, -1.000000000000000000, -0.000000000000000000 ) ) ;
#42 = FACE_OUTER_BOUND ( 'NONE', #229, .T. ) ;
#43 = CARTESIAN_POINT ( 'NONE',  ( -0.09375000000000012490, 2.500000000000000000, 0.000000000000000000 ) ) ;
#44 = CARTESIAN_POINT ( 'NONE',  ( 1.148106374200643555E-17, 0.000000000000000000, 0.09375000000000001388 ) ) ;
#45 = STYLED_ITEM ( 'NONE', ( #195 ), #63 ) ;
#46 = STYLED_ITEM ( 'NONE', ( #127 ), #217 ) ;
#47 = SHAPE_DEFINITION_REPRESENTATION ( #226, #230 ) ;
#48 = CARTESIAN_POINT ( 'NONE',  ( -6.123233995736766036E-17, 2.500000000000000000, 0.000000000000000000 ) ) ;
#49 = SURFACE_SIDE_STYLE ('',( #158 ) ) ;
#50 = ORIENTED_EDGE ( 'NONE', *, *, #200, .F. ) ;
#51 = CARTESIAN_POINT ( 'NONE',  ( 0.000000000000000000, 0.000000000000000000, 0.000000000000000000 ) ) ;
#52 = FILL_AREA_STYLE ('',( #33 ) ) ;
#53 = EDGE_CURVE ( 'NONE', #169, #263, #78, .T. ) ;
#54 = ORIENTED_EDGE ( 'NONE', *, *, #247, .F. ) ;
#55 = PRODUCT_CONTEXT ( 'NONE', #165, 'mechanical' ) ;
#56 = MECHANICAL_DESIGN_GEOMETRIC_PRESENTATION_REPRESENTATION (  '', ( #46 ), #30 ) ;
#57 =( NAMED_UNIT ( * ) PLANE_ANGLE_UNIT ( ) SI_UNIT ( $, .RADIAN. ) );
#58 = FACE_OUTER_BOUND ( 'NONE', #137, .T. ) ;
#59 =( NAMED_UNIT ( * ) PLANE_ANGLE_UNIT ( ) SI_UNIT ( $, .RADIAN. ) );
#60 = AXIS2_PLACEMENT_3D ( 'NONE', #282, #233, #235 ) ;
#61 = AXIS2_PLACEMENT_3D ( 'NONE', #147, #21, #285 ) ;
#62 = CYLINDRICAL_SURFACE ( 'NONE', #34, 0.09375000000000002776 ) ;
#63 = ADVANCED_FACE ( 'NONE', ( #105 ), #179, .T. ) ;
#64 = AXIS2_PLACEMENT_3D ( 'NONE', #86, #208, #1 ) ;
#65 = CYLINDRICAL_SURFACE ( 'NONE', #64, 0.09375000000000002776 ) ;
#66 = DIRECTION ( 'NONE',  ( 0.000000000000000000, 0.000000000000000000, -1.000000000000000000 ) ) ;
#67 = MECHANICAL_DESIGN_GEOMETRIC_PRESENTATION_REPRESENTATION (  '', ( #29 ), #107 ) ;
#68 = DIRECTION ( 'NONE',  ( 0.000000000000000000, 0.000000000000000000, -1.000000000000000000 ) ) ;
#69 =( NAMED_UNIT ( * ) SI_UNIT ( $, .STERADIAN. ) SOLID_ANGLE_UNIT ( ) );
#70 = FILL_AREA_STYLE_COLOUR ( '', #271 ) ;
#71 = CARTESIAN_POINT ( 'NONE',  ( -7.582401355855259480E-33, 0.7499999999999998890, 0.000000000000000000 ) ) ;
#72 = LINE ( 'NONE', #283, #242 ) ;
#73 =( GEOMETRIC_REPRESENTATION_CONTEXT ( 3 ) GLOBAL_UNCERTAINTY_ASSIGNED_CONTEXT ( ( #284 ) ) GLOBAL_UNIT_ASSIGNED_CONTEXT ( ( #298, #59, #270 ) ) REPRESENTATION_CONTEXT ( 'NONE', 'WORKASPACE' ) );
#74 = ORIENTED_EDGE ( 'NONE', *, *, #53, .F. ) ;
#75 = SURFACE_SIDE_STYLE ('',( #214 ) ) ;
#76 = VERTEX_POINT ( 'NONE', #44 ) ;
#77 = EDGE_LOOP ( 'NONE', ( #166, #74 ) ) ;
#78 = CIRCLE ( 'NONE', #240, 0.09374999999999998612 ) ;
#79 = PLANE ( 'NONE',  #199 ) ;
#80 = CIRCLE ( 'NONE', #232, 0.09375000000000005551 ) ;
#81 =( LENGTH_UNIT ( ) NAMED_UNIT ( * ) SI_UNIT ( $, .METRE. ) );
#82 = SURFACE_SIDE_STYLE ('',( #300 ) ) ;
#83 = FACE_OUTER_BOUND ( 'NONE', #77, .T. ) ;
#84 = ADVANCED_FACE ( 'NONE', ( #129 ), #79, .F. ) ;
#85 = COLOUR_RGB ( '',1.000000000000000000, 0.000000000000000000, 0.000000000000000000 ) ;
#86 = CARTESIAN_POINT ( 'NONE',  ( -6.123233995736766036E-17, 2.500000000000000000, 0.000000000000000000 ) ) ;
#87 = CARTESIAN_POINT ( 'NONE',  ( 0.000000000000000000, 0.000000000000000000, -0.09374999999999998612 ) ) ;
#88 = AXIS2_PLACEMENT_3D ( 'NONE', #51, #238, #194 ) ;
#89 = DIRECTION ( 'NONE',  ( -1.000000000000000000, 0.000000000000000000, 0.000000000000000000 ) ) ;
#90 =( NAMED_UNIT ( * ) PLANE_ANGLE_UNIT ( ) SI_UNIT ( $, .RADIAN. ) );
#91 = DIRECTION ( 'NONE',  ( -3.498990854706722745E-17, 1.000000000000000000, -0.000000000000000000 ) ) ;
#92 = CARTESIAN_POINT ( 'NONE',  ( -7.582401355855259480E-33, 0.7499999999999998890, 0.000000000000000000 ) ) ;
#93 = LENGTH_MEASURE_WITH_UNIT ( LENGTH_MEASURE( 0.02539999999999999897 ), #209 );
#94 = ORIENTED_EDGE ( 'NONE', *, *, #53, .T. ) ;
#95 = ORIENTED_EDGE ( 'NONE', *, *, #171, .F. ) ;
#96 = ORIENTED_EDGE ( 'NONE', *, *, #32, .T. ) ;
#97 = PRESENTATION_STYLE_ASSIGNMENT (( #239 ) ) ;
#98 = STYLED_ITEM ( 'NONE', ( #97 ), #117 ) ;
#99 = CARTESIAN_POINT ( 'NONE',  ( 0.000000000000000000, 0.000000000000000000, 0.000000000000000000 ) ) ;
#100 = SURFACE_STYLE_USAGE ( .BOTH. , #248 ) ;
#101 = STYLED_ITEM ( 'NONE', ( #172 ), #125 ) ;
#102 = CARTESIAN_POINT ( 'NONE',  ( 0.000000000000000000, 0.000000000000000000, 0.000000000000000000 ) ) ;
#103 =( NAMED_UNIT ( * ) SI_UNIT ( $, .STERADIAN. ) SOLID_ANGLE_UNIT ( ) );
#104 = DIRECTION ( 'NONE',  ( -0.000000000000000000, -1.000000000000000000, -0.000000000000000000 ) ) ;
#105 = FACE_OUTER_BOUND ( 'NONE', #241, .T. ) ;
#106 = DIMENSIONAL_EXPONENTS ( 1.000000000000000000, 0.000000000000000000, 0.000000000000000000, 0.000000000000000000, 0.000000000000000000, 0.000000000000000000, 0.000000000000000000 ) ;
#107 =( GEOMETRIC_REPRESENTATION_CONTEXT ( 3 ) GLOBAL_UNCERTAINTY_ASSIGNED_CONTEXT ( ( #256 ) ) GLOBAL_UNIT_ASSIGNED_CONTEXT ( ( #293, #57, #185 ) ) REPRESENTATION_CONTEXT ( 'NONE', 'WORKASPACE' ) );
#108 = DIRECTION ( 'NONE',  ( -3.498990854706722745E-17, 1.000000000000000000, -0.000000000000000000 ) ) ;
#109 = ORIENTED_EDGE ( 'NONE', *, *, #246, .T. ) ;
#110 = PRODUCT_RELATED_PRODUCT_CATEGORY ( 'part', '', ( #8 ) ) ;
#111 = CARTESIAN_POINT ( 'NONE',  ( 0.09374999999999998612, 0.7499999999999998890, 1.148106374200644171E-17 ) ) ;
#112 = ORIENTED_EDGE ( 'NONE', *, *, #32, .F. ) ;
#113 =( NAMED_UNIT ( * ) SI_UNIT ( $, .STERADIAN. ) SOLID_ANGLE_UNIT ( ) );
#114 = VERTEX_POINT ( 'NONE', #144 ) ;
#115 = FILL_AREA_STYLE ('',( #145 ) ) ;
#116 = DIMENSIONAL_EXPONENTS ( 1.000000000000000000, 0.000000000000000000, 0.000000000000000000, 0.000000000000000000, 0.000000000000000000, 0.000000000000000000, 0.000000000000000000 ) ;
#117 = ADVANCED_FACE ( 'NONE', ( #136 ), #244, .T. ) ;
#118 = LENGTH_MEASURE_WITH_UNIT ( LENGTH_MEASURE( 0.02539999999999999897 ), #35 );
#119 = PRESENTATION_LAYER_ASSIGNMENT (  '', '', ( #29 ) ) ;
#120 = SURFACE_SIDE_STYLE ('',( #197 ) ) ;
#121 =( CONVERSION_BASED_UNIT ( 'INCH', #273 ) LENGTH_UNIT ( ) NAMED_UNIT ( #211 ) );
#122 = ADVANCED_FACE ( 'NONE', ( #272 ), #62, .T. ) ;
#123 = PRESENTATION_LAYER_ASSIGNMENT (  '', '', ( #46 ) ) ;
#124 = DIRECTION ( 'NONE',  ( 0.000000000000000000, -0.000000000000000000, 1.000000000000000000 ) ) ;
#125 = ADVANCED_FACE ( 'NONE', ( #83 ), #36, .T. ) ;
#126 = EDGE_CURVE ( 'NONE', #263, #169, #139, .T. ) ;
#127 = PRESENTATION_STYLE_ASSIGNMENT (( #250 ) ) ;
#128 = PRESENTATION_STYLE_ASSIGNMENT (( #231 ) ) ;
#129 = FACE_OUTER_BOUND ( 'NONE', #6, .T. ) ;
#130 = FACE_OUTER_BOUND ( 'NONE', #4, .T. ) ;
#131 = CARTESIAN_POINT ( 'NONE',  ( 1.148106374200643401E-17, 0.7500000000000001110, 0.09374999999999998612 ) ) ;
#132 = FILL_AREA_STYLE_COLOUR ( '', #150 ) ;
#133 = ORIENTED_EDGE ( 'NONE', *, *, #207, .T. ) ;
#134 = EDGE_LOOP ( 'NONE', ( #294, #109, #292, #31 ) ) ;
#135 =( NAMED_UNIT ( * ) PLANE_ANGLE_UNIT ( ) SI_UNIT ( $, .RADIAN. ) );
#136 = FACE_OUTER_BOUND ( 'NONE', #212, .T. ) ;
#137 = EDGE_LOOP ( 'NONE', ( #261, #25, #112, #186 ) ) ;
#138 = PRESENTATION_LAYER_ASSIGNMENT (  '', '', ( #45 ) ) ;
#139 = CIRCLE ( 'NONE', #146, 0.09374999999999998612 ) ;
#140 = PRESENTATION_STYLE_ASSIGNMENT (( #7 ) ) ;
#141 = EDGE_CURVE ( 'NONE', #190, #163, #162, .T. ) ;
#142 = DIRECTION ( 'NONE',  ( 3.498990854706722745E-17, -1.000000000000000000, 0.000000000000000000 ) ) ;
#143 = LENGTH_MEASURE_WITH_UNIT ( LENGTH_MEASURE( 0.02539999999999999897 ), #81 );
#144 = CARTESIAN_POINT ( 'NONE',  ( 0.09374999999999998612, 2.500000000000000000, 1.148106374200644171E-17 ) ) ;
#145 = FILL_AREA_STYLE_COLOUR ( '', #280 ) ;
#146 = AXIS2_PLACEMENT_3D ( 'NONE', #203, #257, #206 ) ;
#147 = CARTESIAN_POINT ( 'NONE',  ( 0.000000000000000000, 0.000000000000000000, 0.000000000000000000 ) ) ;
#148 =( NAMED_UNIT ( * ) PLANE_ANGLE_UNIT ( ) SI_UNIT ( $, .RADIAN. ) );
#149 =( LENGTH_UNIT ( ) NAMED_UNIT ( * ) SI_UNIT ( $, .METRE. ) );
#150 = COLOUR_RGB ( '',0.7921568627450980005, 0.8196078431372548767, 0.9333333333333333481 ) ;
#151 = ADVANCED_FACE ( 'NONE', ( #42 ), #65, .T. ) ;
#152 = FILL_AREA_STYLE_COLOUR ( '', #205 ) ;
#153 = UNCERTAINTY_MEASURE_WITH_UNIT (LENGTH_MEASURE( 1.000000000000000082E-05 ), #274, 'distance_accuracy_value', 'NONE');
#154 = FILL_AREA_STYLE ('',( #70 ) ) ;
#155 = VECTOR ( 'NONE', #279, 39.37007874015748143 ) ;
#156 = CARTESIAN_POINT ( 'NONE',  ( -0.09374999999999998612, 0.7499999999999998890, 0.000000000000000000 ) ) ;
#157 = DIMENSIONAL_EXPONENTS ( 1.000000000000000000, 0.000000000000000000, 0.000000000000000000, 0.000000000000000000, 0.000000000000000000, 0.000000000000000000, 0.000000000000000000 ) ;
#158 = SURFACE_STYLE_FILL_AREA ( #309 ) ;
#159 = DIRECTION ( 'NONE',  ( 0.000000000000000000, 1.000000000000000000, 0.000000000000000000 ) ) ;
#160 = DIMENSIONAL_EXPONENTS ( 1.000000000000000000, 0.000000000000000000, 0.000000000000000000, 0.000000000000000000, 0.000000000000000000, 0.000000000000000000, 0.000000000000000000 ) ;
#161 = MECHANICAL_DESIGN_GEOMETRIC_PRESENTATION_REPRESENTATION (  '', ( #98 ), #73 ) ;
#162 = LINE ( 'NONE', #180, #5 ) ;
#163 = VERTEX_POINT ( 'NONE', #43 ) ;
#164 = DIRECTION ( 'NONE',  ( 0.000000000000000000, 0.000000000000000000, -1.000000000000000000 ) ) ;
#165 = APPLICATION_CONTEXT ( 'automotive_design' ) ;
#166 = ORIENTED_EDGE ( 'NONE', *, *, #126, .F. ) ;
#167 = UNCERTAINTY_MEASURE_WITH_UNIT (LENGTH_MEASURE( 1.000000000000000082E-05 ), #288, 'distance_accuracy_value', 'NONE');
#168 = CYLINDRICAL_SURFACE ( 'NONE', #20, 0.09374999999999998612 ) ;
#169 = VERTEX_POINT ( 'NONE', #131 ) ;
#170 = PRESENTATION_LAYER_ASSIGNMENT (  '', '', ( #289 ) ) ;
#171 = EDGE_CURVE ( 'NONE', #190, #215, #17, .T. ) ;
#172 = PRESENTATION_STYLE_ASSIGNMENT (( #100 ) ) ;
#173 =( GEOMETRIC_REPRESENTATION_CONTEXT ( 3 ) GLOBAL_UNCERTAINTY_ASSIGNED_CONTEXT ( ( #153 ) ) GLOBAL_UNIT_ASSIGNED_CONTEXT ( ( #274, #178, #69 ) ) REPRESENTATION_CONTEXT ( 'NONE', 'WORKASPACE' ) );
#174 = LENGTH_MEASURE_WITH_UNIT ( LENGTH_MEASURE( 0.02539999999999999897 ), #149 );
#175 =( GEOMETRIC_REPRESENTATION_CONTEXT ( 3 ) GLOBAL_UNCERTAINTY_ASSIGNED_CONTEXT ( ( #218 ) ) GLOBAL_UNIT_ASSIGNED_CONTEXT ( ( #121, #148, #2 ) ) REPRESENTATION_CONTEXT ( 'NONE', 'WORKASPACE' ) );
#176 = CARTESIAN_POINT ( 'NONE',  ( -6.123233995736766036E-17, 2.500000000000000000, 0.000000000000000000 ) ) ;
#177 = DIRECTION ( 'NONE',  ( -3.498990854706722745E-17, 1.000000000000000000, -0.000000000000000000 ) ) ;
#178 =( NAMED_UNIT ( * ) PLANE_ANGLE_UNIT ( ) SI_UNIT ( $, .RADIAN. ) );
#179 = CYLINDRICAL_SURFACE ( 'NONE', #251, 0.09374999999999998612 ) ;
#180 = CARTESIAN_POINT ( 'NONE',  ( -0.09375000000000009714, 2.500000000000000000, 0.000000000000000000 ) ) ;
#181 = ADVANCED_FACE ( 'NONE', ( #130 ), #308, .F. ) ;
#182 = DIRECTION ( 'NONE',  ( -1.000000000000000000, 0.000000000000000000, 0.000000000000000000 ) ) ;
#183 = ORIENTED_EDGE ( 'NONE', *, *, #246, .F. ) ;
#184 = AXIS2_PLACEMENT_3D ( 'NONE', #71, #287, #260 ) ;
#185 =( NAMED_UNIT ( * ) SI_UNIT ( $, .STERADIAN. ) SOLID_ANGLE_UNIT ( ) );
#186 = ORIENTED_EDGE ( 'NONE', *, *, #38, .F. ) ;
#187 = DIRECTION ( 'NONE',  ( -3.498990854706722745E-17, 1.000000000000000000, -0.000000000000000000 ) ) ;
#188 = EDGE_CURVE ( 'NONE', #163, #114, #80, .T. ) ;
#189 = EDGE_CURVE ( 'NONE', #169, #76, #72, .T. ) ;
#190 = VERTEX_POINT ( 'NONE', #156 ) ;
#191 =( NAMED_UNIT ( * ) SI_UNIT ( $, .STERADIAN. ) SOLID_ANGLE_UNIT ( ) );
#192 = CLOSED_SHELL ( 'NONE', ( #122, #181, #151, #84 ) ) ;
#193 = LENGTH_MEASURE_WITH_UNIT ( LENGTH_MEASURE( 0.02539999999999999897 ), #28 );
#194 = DIRECTION ( 'NONE',  ( 0.000000000000000000, 0.000000000000000000, -1.000000000000000000 ) ) ;
#195 = PRESENTATION_STYLE_ASSIGNMENT (( #304 ) ) ;
#196 = AXIS2_PLACEMENT_3D ( 'NONE', #99, #223, #12 ) ;
#197 = SURFACE_STYLE_FILL_AREA ( #115 ) ;
#198 = VECTOR ( 'NONE', #187, 39.37007874015748143 ) ;
#199 = AXIS2_PLACEMENT_3D ( 'NONE', #267, #142, #269 ) ;
#200 = EDGE_CURVE ( 'NONE', #215, #190, #213, .T. ) ;
#201 = DIRECTION ( 'NONE',  ( -3.498990854706722745E-17, 1.000000000000000000, -0.000000000000000000 ) ) ;
#202 = DIRECTION ( 'NONE',  ( 0.000000000000000000, 0.000000000000000000, -1.000000000000000000 ) ) ;
#203 = CARTESIAN_POINT ( 'NONE',  ( 0.000000000000000000, 0.7500000000000001110, 0.000000000000000000 ) ) ;
#204 =( LENGTH_UNIT ( ) NAMED_UNIT ( * ) SI_UNIT ( $, .METRE. ) );
#205 = COLOUR_RGB ( '',1.000000000000000000, 0.000000000000000000, 0.000000000000000000 ) ;
#206 = DIRECTION ( 'NONE',  ( 0.000000000000000000, 0.000000000000000000, -1.000000000000000000 ) ) ;
#207 = EDGE_CURVE ( 'NONE', #114, #163, #302, .T. ) ;
#208 = DIRECTION ( 'NONE',  ( -3.498990854706722745E-17, 1.000000000000000000, -0.000000000000000000 ) ) ;
#209 =( LENGTH_UNIT ( ) NAMED_UNIT ( * ) SI_UNIT ( $, .METRE. ) );
#210 = ORIENTED_EDGE ( 'NONE', *, *, #200, .T. ) ;
#211 = DIMENSIONAL_EXPONENTS ( 1.000000000000000000, 0.000000000000000000, 0.000000000000000000, 0.000000000000000000, 0.000000000000000000, 0.000000000000000000, 0.000000000000000000 ) ;
#212 = EDGE_LOOP ( 'NONE', ( #96, #23 ) ) ;
#213 = CIRCLE ( 'NONE', #228, 0.09374999999999998612 ) ;
#214 = SURFACE_STYLE_FILL_AREA ( #27 ) ;
#215 = VERTEX_POINT ( 'NONE', #111 ) ;
#216 =( CONVERSION_BASED_UNIT ( 'INCH', #143 ) LENGTH_UNIT ( ) NAMED_UNIT ( #116 ) );
#217 = MANIFOLD_SOLID_BREP ( 'Revolve - Tool Body (Straight Shanked)', #192 ) ;
#218 = UNCERTAINTY_MEASURE_WITH_UNIT (LENGTH_MEASURE( 1.000000000000000082E-05 ), #121, 'distance_accuracy_value', 'NONE');
#219 = DIRECTION ( 'NONE',  ( -0.000000000000000000, -1.000000000000000000, -0.000000000000000000 ) ) ;
#220 = APPLICATION_PROTOCOL_DEFINITION ( 'draft international standard', 'automotive_design', 1998, #249 ) ;
#221 = MECHANICAL_DESIGN_GEOMETRIC_PRESENTATION_REPRESENTATION (  '', ( #45 ), #175 ) ;
#222 = CARTESIAN_POINT ( 'NONE',  ( 0.000000000000000000, 0.000000000000000000, -0.09375000000000001388 ) ) ;
#223 = DIRECTION ( 'NONE',  ( 0.000000000000000000, -1.000000000000000000, -0.000000000000000000 ) ) ;
#224 = MECHANICAL_DESIGN_GEOMETRIC_PRESENTATION_REPRESENTATION (  '', ( #289 ), #301 ) ;
#225 =( LENGTH_UNIT ( ) NAMED_UNIT ( * ) SI_UNIT ( $, .METRE. ) );
#226 = PRODUCT_DEFINITION_SHAPE ( 'NONE', 'NONE',  #254 ) ;
#227 = CARTESIAN_POINT ( 'NONE',  ( 0.000000000000000000, 0.000000000000000000, 0.000000000000000000 ) ) ;
#228 = AXIS2_PLACEMENT_3D ( 'NONE', #92, #3, #255 ) ;
#229 = EDGE_LOOP ( 'NONE', ( #183, #210, #234, #236 ) ) ;
#230 = ADVANCED_BREP_SHAPE_REPRESENTATION ( '44092', ( #13, #217, #61 ), #276 ) ;
#231 = SURFACE_STYLE_USAGE ( .BOTH. , #49 ) ;
#232 = AXIS2_PLACEMENT_3D ( 'NONE', #24, #91, #89 ) ;
#233 = DIRECTION ( 'NONE',  ( -3.498990854706722745E-17, 1.000000000000000000, 0.000000000000000000 ) ) ;
#234 = ORIENTED_EDGE ( 'NONE', *, *, #141, .T. ) ;
#235 = DIRECTION ( 'NONE',  ( -1.000000000000000000, -3.498990854706722745E-17, 0.000000000000000000 ) ) ;
#236 = ORIENTED_EDGE ( 'NONE', *, *, #207, .F. ) ;
#237 = DIMENSIONAL_EXPONENTS ( 1.000000000000000000, 0.000000000000000000, 0.000000000000000000, 0.000000000000000000, 0.000000000000000000, 0.000000000000000000, 0.000000000000000000 ) ;
#238 = DIRECTION ( 'NONE',  ( -0.000000000000000000, -1.000000000000000000, -0.000000000000000000 ) ) ;
#239 = SURFACE_STYLE_USAGE ( .BOTH. , #82 ) ;
#240 = AXIS2_PLACEMENT_3D ( 'NONE', #281, #253, #66 ) ;
#241 = EDGE_LOOP ( 'NONE', ( #9, #94, #265, #54 ) ) ;
#242 = VECTOR ( 'NONE', #104, 39.37007874015748143 ) ;
#243 = CARTESIAN_POINT ( 'NONE',  ( 0.000000000000000000, 0.7500000000000001110, -0.09374999999999998612 ) ) ;
#244 = PLANE ( 'NONE',  #196 ) ;
#245 = UNCERTAINTY_MEASURE_WITH_UNIT (LENGTH_MEASURE( 1.000000000000000082E-05 ), #216, 'distance_accuracy_value', 'NONE');
#246 = EDGE_CURVE ( 'NONE', #215, #114, #306, .T. ) ;
#247 = EDGE_CURVE ( 'NONE', #76, #291, #259, .T. ) ;
#248 = SURFACE_SIDE_STYLE ('',( #14 ) ) ;
#249 = APPLICATION_CONTEXT ( 'automotive_design' ) ;
#250 = SURFACE_STYLE_USAGE ( .BOTH. , #252 ) ;
#251 = AXIS2_PLACEMENT_3D ( 'NONE', #227, #41, #68 ) ;
#252 = SURFACE_SIDE_STYLE ('',( #278 ) ) ;
#253 = DIRECTION ( 'NONE',  ( -0.000000000000000000, -1.000000000000000000, -0.000000000000000000 ) ) ;
#254 = PRODUCT_DEFINITION ( 'UNKNOWN', '', #303, #11 ) ;
#255 = DIRECTION ( 'NONE',  ( -1.000000000000000000, 0.000000000000000000, 0.000000000000000000 ) ) ;
#256 = UNCERTAINTY_MEASURE_WITH_UNIT (LENGTH_MEASURE( 1.000000000000000082E-05 ), #293, 'distance_accuracy_value', 'NONE');
#257 = DIRECTION ( 'NONE',  ( -0.000000000000000000, -1.000000000000000000, -0.000000000000000000 ) ) ;
#258 = CLOSED_SHELL ( 'NONE', ( #286, #125, #63, #117 ) ) ;
#259 = CIRCLE ( 'NONE', #88, 0.09375000000000001388 ) ;
#260 = DIRECTION ( 'NONE',  ( -1.000000000000000000, 0.000000000000000000, 0.000000000000000000 ) ) ;
#261 = ORIENTED_EDGE ( 'NONE', *, *, #126, .T. ) ;
#262 =( NAMED_UNIT ( * ) PLANE_ANGLE_UNIT ( ) SI_UNIT ( $, .RADIAN. ) );
#263 = VERTEX_POINT ( 'NONE', #243 ) ;
#264 = CARTESIAN_POINT ( 'NONE',  ( 0.000000000000000000, 0.000000000000000000, 0.000000000000000000 ) ) ;
#265 = ORIENTED_EDGE ( 'NONE', *, *, #38, .T. ) ;
#266 = COLOUR_RGB ( '',1.000000000000000000, 0.000000000000000000, 0.000000000000000000 ) ;
#267 = CARTESIAN_POINT ( 'NONE',  ( 0.09374999999999998612, 2.500000000000000000, 0.000000000000000000 ) ) ;
#268 = DIMENSIONAL_EXPONENTS ( 1.000000000000000000, 0.000000000000000000, 0.000000000000000000, 0.000000000000000000, 0.000000000000000000, 0.000000000000000000, 0.000000000000000000 ) ;
#269 = DIRECTION ( 'NONE',  ( 1.000000000000000000, 3.498990854706722745E-17, 0.000000000000000000 ) ) ;
#270 =( NAMED_UNIT ( * ) SI_UNIT ( $, .STERADIAN. ) SOLID_ANGLE_UNIT ( ) );
#271 = COLOUR_RGB ( '',0.7921568627450980005, 0.8196078431372548767, 0.9333333333333333481 ) ;
#272 = FACE_OUTER_BOUND ( 'NONE', #134, .T. ) ;
#273 = LENGTH_MEASURE_WITH_UNIT ( LENGTH_MEASURE( 0.02539999999999999897 ), #225 );
#274 =( CONVERSION_BASED_UNIT ( 'INCH', #174 ) LENGTH_UNIT ( ) NAMED_UNIT ( #268 ) );
#275 = CIRCLE ( 'NONE', #37, 0.09375000000000001388 ) ;
#276 =( GEOMETRIC_REPRESENTATION_CONTEXT ( 3 ) GLOBAL_UNCERTAINTY_ASSIGNED_CONTEXT ( ( #245 ) ) GLOBAL_UNIT_ASSIGNED_CONTEXT ( ( #216, #262, #191 ) ) REPRESENTATION_CONTEXT ( 'NONE', 'WORKASPACE' ) );
#277 = DIRECTION ( 'NONE',  ( -1.000000000000000000, 0.000000000000000000, 0.000000000000000000 ) ) ;
#278 = SURFACE_STYLE_FILL_AREA ( #154 ) ;
#279 = DIRECTION ( 'NONE',  ( -0.000000000000000000, -1.000000000000000000, -0.000000000000000000 ) ) ;
#280 = COLOUR_RGB ( '',1.000000000000000000, 0.000000000000000000, 0.000000000000000000 ) ;
#281 = CARTESIAN_POINT ( 'NONE',  ( 0.000000000000000000, 0.7500000000000001110, 0.000000000000000000 ) ) ;
#282 = CARTESIAN_POINT ( 'NONE',  ( 5.738876719369350386E-35, 0.7500000000000001110, 0.000000000000000000 ) ) ;
#283 = CARTESIAN_POINT ( 'NONE',  ( 1.148106374200643401E-17, 0.000000000000000000, 0.09374999999999998612 ) ) ;
#284 = UNCERTAINTY_MEASURE_WITH_UNIT (LENGTH_MEASURE( 1.000000000000000082E-05 ), #298, 'distance_accuracy_value', 'NONE');
#285 = DIRECTION ( 'NONE',  ( 1.000000000000000000, 0.000000000000000000, 0.000000000000000000 ) ) ;
#286 = ADVANCED_FACE ( 'NONE', ( #58 ), #168, .T. ) ;
#287 = DIRECTION ( 'NONE',  ( -3.498990854706722745E-17, 1.000000000000000000, -0.000000000000000000 ) ) ;
#288 =( CONVERSION_BASED_UNIT ( 'INCH', #93 ) LENGTH_UNIT ( ) NAMED_UNIT ( #160 ) );
#289 = STYLED_ITEM ( 'NONE', ( #128 ), #13 ) ;
#290 = AXIS2_PLACEMENT_3D ( 'NONE', #19, #159, #124 ) ;
#291 = VERTEX_POINT ( 'NONE', #222 ) ;
#292 = ORIENTED_EDGE ( 'NONE', *, *, #188, .F. ) ;
#293 =( CONVERSION_BASED_UNIT ( 'INCH', #118 ) LENGTH_UNIT ( ) NAMED_UNIT ( #157 ) );
#294 = ORIENTED_EDGE ( 'NONE', *, *, #171, .T. ) ;
#295 = FILL_AREA_STYLE_COLOUR ( '', #266 ) ;
#296 = PRESENTATION_LAYER_ASSIGNMENT (  '', '', ( #101 ) ) ;
#297 = LENGTH_MEASURE_WITH_UNIT ( LENGTH_MEASURE( 0.02539999999999999897 ), #204 );
#298 =( CONVERSION_BASED_UNIT ( 'INCH', #193 ) LENGTH_UNIT ( ) NAMED_UNIT ( #106 ) );
#299 =( CONVERSION_BASED_UNIT ( 'INCH', #297 ) LENGTH_UNIT ( ) NAMED_UNIT ( #237 ) );
#300 = SURFACE_STYLE_FILL_AREA ( #52 ) ;
#301 =( GEOMETRIC_REPRESENTATION_CONTEXT ( 3 ) GLOBAL_UNCERTAINTY_ASSIGNED_CONTEXT ( ( #167 ) ) GLOBAL_UNIT_ASSIGNED_CONTEXT ( ( #288, #90, #103 ) ) REPRESENTATION_CONTEXT ( 'NONE', 'WORKASPACE' ) );
#302 = CIRCLE ( 'NONE', #40, 0.09375000000000005551 ) ;
#303 = PRODUCT_DEFINITION_FORMATION_WITH_SPECIFIED_SOURCE ( 'ANY', '', #8, .NOT_KNOWN. ) ;
#304 = SURFACE_STYLE_USAGE ( .BOTH. , #120 ) ;
#305 = MECHANICAL_DESIGN_GEOMETRIC_PRESENTATION_REPRESENTATION (  '', ( #101 ), #173 ) ;
#306 = LINE ( 'NONE', #10, #198 ) ;
#307 = DIRECTION ( 'NONE',  ( -0.000000000000000000, -1.000000000000000000, -0.000000000000000000 ) ) ;
#308 = PLANE ( 'NONE',  #60 ) ;
#309 = FILL_AREA_STYLE ('',( #132 ) ) ;
ENDSEC;
END-ISO-10303-21;
