ISO-10303-21;
HEADER;
FILE_DESCRIPTION (( 'STEP AP214' ),
    '1' );
FILE_NAME ('59647.STEP',
    '2023-07-24T15:51:35',
    ( '' ),
    ( '' ),
    'SwSTEP 2.0',
    'SolidWorks 2023',
    '' );
FILE_SCHEMA (( 'AUTOMOTIVE_DESIGN' ));
ENDSEC;

DATA;
#1 = VERTEX_POINT ( 'NONE', #195 ) ;
#2 = CIRCLE ( 'NONE', #13, 10.00000000000000178 ) ;
#3 = MECHANICAL_DESIGN_GEOMETRIC_PRESENTATION_REPRESENTATION (  '', ( #256 ), #71 ) ;
#4 = PRODUCT_DEFINITION_CONTEXT ( 'detailed design', #237, 'design' ) ;
#5 = SURFACE_SIDE_STYLE ('',( #264 ) ) ;
#6 = SURFACE_STYLE_USAGE ( .BOTH. , #208 ) ;
#7 =( NAMED_UNIT ( * ) SI_UNIT ( $, .STERADIAN. ) SOLID_ANGLE_UNIT ( ) );
#8 = DIRECTION ( 'NONE',  ( -0.000000000000000000, -1.000000000000000000, -0.000000000000000000 ) ) ;
#9 = SURFACE_SIDE_STYLE ('',( #180 ) ) ;
#10 = CIRCLE ( 'NONE', #43, 10.00000000000000000 ) ;
#11 = UNCERTAINTY_MEASURE_WITH_UNIT (LENGTH_MEASURE( 1.000000000000000082E-05 ), #283, 'distance_accuracy_value', 'NONE');
#12 = FACE_OUTER_BOUND ( 'NONE', #250, .T. ) ;
#13 = AXIS2_PLACEMENT_3D ( 'NONE', #70, #202, #253 ) ;
#14 = PRESENTATION_LAYER_ASSIGNMENT (  '', '', ( #171 ) ) ;
#15 = SURFACE_SIDE_STYLE ('',( #218 ) ) ;
#16 = CARTESIAN_POINT ( 'NONE',  ( 0.000000000000000000, 0.000000000000000000, 0.000000000000000000 ) ) ;
#17 = PRODUCT_DEFINITION ( 'UNKNOWN', '', #234, #4 ) ;
#18 = ORIENTED_EDGE ( 'NONE', *, *, #263, .F. ) ;
#19 = PRESENTATION_LAYER_ASSIGNMENT (  '', '', ( #38 ) ) ;
#20 = ORIENTED_EDGE ( 'NONE', *, *, #61, .T. ) ;
#21 = MANIFOLD_SOLID_BREP ( 'Revolve - Tool Body (Straight Shanked)', #280 ) ;
#22 = PLANE ( 'NONE',  #33 ) ;
#23 = STYLED_ITEM ( 'NONE', ( #223 ), #21 ) ;
#24 = EDGE_LOOP ( 'NONE', ( #18, #191, #146, #97 ) ) ;
#25 = CIRCLE ( 'NONE', #185, 10.00000000000000000 ) ;
#26 = ADVANCED_FACE ( 'NONE', ( #229 ), #22, .T. ) ;
#27 = DIRECTION ( 'NONE',  ( -1.000000000000000000, 0.000000000000000000, 0.000000000000000000 ) ) ;
#28 = CARTESIAN_POINT ( 'NONE',  ( -10.00000000000000000, 30.00000000000000000, 0.000000000000000000 ) ) ;
#29 =( NAMED_UNIT ( * ) PLANE_ANGLE_UNIT ( ) SI_UNIT ( $, .RADIAN. ) );
#30 = CARTESIAN_POINT ( 'NONE',  ( 0.000000000000000000, 30.00000000000000000, 0.000000000000000000 ) ) ;
#31 = CIRCLE ( 'NONE', #214, 10.00000000000000000 ) ;
#32 =( GEOMETRIC_REPRESENTATION_CONTEXT ( 3 ) GLOBAL_UNCERTAINTY_ASSIGNED_CONTEXT ( ( #156 ) ) GLOBAL_UNIT_ASSIGNED_CONTEXT ( ( #224, #126, #41 ) ) REPRESENTATION_CONTEXT ( 'NONE', 'WORKASPACE' ) );
#33 = AXIS2_PLACEMENT_3D ( 'NONE', #255, #276, #210 ) ;
#34 = CIRCLE ( 'NONE', #77, 10.00000000000000000 ) ;
#35 = CARTESIAN_POINT ( 'NONE',  ( 10.00000000000000000, 30.00000000000000000, 1.224646799147353454E-15 ) ) ;
#36 = FACE_OUTER_BOUND ( 'NONE', #60, .T. ) ;
#37 = FILL_AREA_STYLE_COLOUR ( '', #83 ) ;
#38 = STYLED_ITEM ( 'NONE', ( #109 ), #80 ) ;
#39 = VECTOR ( 'NONE', #200, 1000.000000000000000 ) ;
#40 = ORIENTED_EDGE ( 'NONE', *, *, #267, .F. ) ;
#41 =( NAMED_UNIT ( * ) SI_UNIT ( $, .STERADIAN. ) SOLID_ANGLE_UNIT ( ) );
#42 = VERTEX_POINT ( 'NONE', #28 ) ;
#43 = AXIS2_PLACEMENT_3D ( 'NONE', #203, #201, #111 ) ;
#44 =( GEOMETRIC_REPRESENTATION_CONTEXT ( 3 ) GLOBAL_UNCERTAINTY_ASSIGNED_CONTEXT ( ( #11 ) ) GLOBAL_UNIT_ASSIGNED_CONTEXT ( ( #283, #243, #217 ) ) REPRESENTATION_CONTEXT ( 'NONE', 'WORKASPACE' ) );
#45 = CARTESIAN_POINT ( 'NONE',  ( 4.222248167218096493E-33, 30.00000000000000000, 0.000000000000000000 ) ) ;
#46 = ORIENTED_EDGE ( 'NONE', *, *, #285, .T. ) ;
#47 = DIRECTION ( 'NONE',  ( 0.000000000000000000, 0.000000000000000000, -1.000000000000000000 ) ) ;
#48 = EDGE_CURVE ( 'NONE', #100, #64, #94, .T. ) ;
#49 = ORIENTED_EDGE ( 'NONE', *, *, #76, .F. ) ;
#50 = CARTESIAN_POINT ( 'NONE',  ( 1.224646799147353256E-15, 0.000000000000000000, 10.00000000000000000 ) ) ;
#51 = DIRECTION ( 'NONE',  ( -2.905941557298802612E-17, 1.000000000000000000, 0.000000000000000000 ) ) ;
#52 =( LENGTH_UNIT ( ) NAMED_UNIT ( * ) SI_UNIT ( .MILLI., .METRE. ) );
#53 = UNCERTAINTY_MEASURE_WITH_UNIT (LENGTH_MEASURE( 1.000000000000000082E-05 ), #95, 'distance_accuracy_value', 'NONE');
#54 = MECHANICAL_DESIGN_GEOMETRIC_PRESENTATION_REPRESENTATION (  '', ( #171 ), #44 ) ;
#55 = AXIS2_PLACEMENT_3D ( 'NONE', #69, #8, #209 ) ;
#56 = DIRECTION ( 'NONE',  ( -1.000000000000000000, 0.000000000000000000, 0.000000000000000000 ) ) ;
#57 = APPLICATION_PROTOCOL_DEFINITION ( 'draft international standard', 'automotive_design', 1998, #93 ) ;
#58 = COLOUR_RGB ( '',1.000000000000000000, 0.000000000000000000, 0.000000000000000000 ) ;
#59 = PRODUCT_CONTEXT ( 'NONE', #93, 'mechanical' ) ;
#60 = EDGE_LOOP ( 'NONE', ( #245, #192, #96, #40 ) ) ;
#61 = EDGE_CURVE ( 'NONE', #128, #1, #92, .T. ) ;
#62 = ORIENTED_EDGE ( 'NONE', *, *, #155, .F. ) ;
#63 = DIRECTION ( 'NONE',  ( -2.905941557298803228E-17, 1.000000000000000000, -0.000000000000000000 ) ) ;
#64 = VERTEX_POINT ( 'NONE', #150 ) ;
#65 = DIRECTION ( 'NONE',  ( -1.000000000000000000, 0.000000000000000000, 0.000000000000000000 ) ) ;
#66 = LINE ( 'NONE', #152, #212 ) ;
#67 = AXIS2_PLACEMENT_3D ( 'NONE', #131, #182, #181 ) ;
#68 = CARTESIAN_POINT ( 'NONE',  ( 10.00000000000000000, 89.00000000000000000, 1.224646799147353454E-15 ) ) ;
#69 = CARTESIAN_POINT ( 'NONE',  ( 0.000000000000000000, 0.000000000000000000, 0.000000000000000000 ) ) ;
#70 = CARTESIAN_POINT ( 'NONE',  ( -1.714505518806293849E-15, 89.00000000000000000, 0.000000000000000000 ) ) ;
#71 =( GEOMETRIC_REPRESENTATION_CONTEXT ( 3 ) GLOBAL_UNCERTAINTY_ASSIGNED_CONTEXT ( ( #53 ) ) GLOBAL_UNIT_ASSIGNED_CONTEXT ( ( #95, #74, #269 ) ) REPRESENTATION_CONTEXT ( 'NONE', 'WORKASPACE' ) );
#72 = CARTESIAN_POINT ( 'NONE',  ( -1.714505518806293849E-15, 89.00000000000000000, 0.000000000000000000 ) ) ;
#73 = PRESENTATION_STYLE_ASSIGNMENT (( #261 ) ) ;
#74 =( NAMED_UNIT ( * ) PLANE_ANGLE_UNIT ( ) SI_UNIT ( $, .RADIAN. ) );
#75 = AXIS2_PLACEMENT_3D ( 'NONE', #105, #135, #207 ) ;
#76 = EDGE_CURVE ( 'NONE', #1, #265, #2, .T. ) ;
#77 = AXIS2_PLACEMENT_3D ( 'NONE', #115, #164, #262 ) ;
#78 = EDGE_LOOP ( 'NONE', ( #166, #145 ) ) ;
#79 = EDGE_LOOP ( 'NONE', ( #82, #62 ) ) ;
#80 = ADVANCED_FACE ( 'NONE', ( #132 ), #154, .T. ) ;
#81 = COLOUR_RGB ( '',1.000000000000000000, 0.000000000000000000, 0.000000000000000000 ) ;
#82 = ORIENTED_EDGE ( 'NONE', *, *, #48, .F. ) ;
#83 = COLOUR_RGB ( '',1.000000000000000000, 0.000000000000000000, 0.000000000000000000 ) ;
#84 = SURFACE_SIDE_STYLE ('',( #271 ) ) ;
#85 = CARTESIAN_POINT ( 'NONE',  ( 0.000000000000000000, 30.00000000000000000, 0.000000000000000000 ) ) ;
#86 = PLANE ( 'NONE',  #147 ) ;
#87 = AXIS2_PLACEMENT_3D ( 'NONE', #249, #104, #47 ) ;
#88 = SURFACE_STYLE_USAGE ( .BOTH. , #9 ) ;
#89 = FILL_AREA_STYLE ('',( #238 ) ) ;
#90 = CYLINDRICAL_SURFACE ( 'NONE', #163, 10.00000000000000178 ) ;
#91 = PRODUCT_DEFINITION_SHAPE ( 'NONE', 'NONE',  #17 ) ;
#92 = LINE ( 'NONE', #68, #270 ) ;
#93 = APPLICATION_CONTEXT ( 'automotive_design' ) ;
#94 = CIRCLE ( 'NONE', #75, 10.00000000000000000 ) ;
#95 =( LENGTH_UNIT ( ) NAMED_UNIT ( * ) SI_UNIT ( .MILLI., .METRE. ) );
#96 = ORIENTED_EDGE ( 'NONE', *, *, #165, .F. ) ;
#97 = ORIENTED_EDGE ( 'NONE', *, *, #242, .F. ) ;
#98 = EDGE_CURVE ( 'NONE', #42, #128, #25, .T. ) ;
#99 = FILL_AREA_STYLE ('',( #268 ) ) ;
#100 = VERTEX_POINT ( 'NONE', #158 ) ;
#101 = DIRECTION ( 'NONE',  ( -1.000000000000000000, -2.905941557298802612E-17, 0.000000000000000000 ) ) ;
#102 =( GEOMETRIC_REPRESENTATION_CONTEXT ( 3 ) GLOBAL_UNCERTAINTY_ASSIGNED_CONTEXT ( ( #188 ) ) GLOBAL_UNIT_ASSIGNED_CONTEXT ( ( #52, #252, #239 ) ) REPRESENTATION_CONTEXT ( 'NONE', 'WORKASPACE' ) );
#103 = EDGE_LOOP ( 'NONE', ( #167, #193 ) ) ;
#104 = DIRECTION ( 'NONE',  ( -0.000000000000000000, -1.000000000000000000, -0.000000000000000000 ) ) ;
#105 = CARTESIAN_POINT ( 'NONE',  ( 0.000000000000000000, 30.00000000000000000, 0.000000000000000000 ) ) ;
#106 = LINE ( 'NONE', #174, #198 ) ;
#107 = PRODUCT_RELATED_PRODUCT_CATEGORY ( 'part', '', ( #278 ) ) ;
#108 = UNCERTAINTY_MEASURE_WITH_UNIT (LENGTH_MEASURE( 1.000000000000000082E-05 ), #204, 'distance_accuracy_value', 'NONE');
#109 = PRESENTATION_STYLE_ASSIGNMENT (( #6 ) ) ;
#110 = DIRECTION ( 'NONE',  ( -2.905941557298803228E-17, 1.000000000000000000, -0.000000000000000000 ) ) ;
#111 = DIRECTION ( 'NONE',  ( 0.000000000000000000, 0.000000000000000000, -1.000000000000000000 ) ) ;
#112 = DIRECTION ( 'NONE',  ( -1.000000000000000000, 0.000000000000000000, 0.000000000000000000 ) ) ;
#113 = ADVANCED_FACE ( 'NONE', ( #12 ), #90, .T. ) ;
#114 = FILL_AREA_STYLE_COLOUR ( '', #58 ) ;
#115 = CARTESIAN_POINT ( 'NONE',  ( 0.000000000000000000, 0.000000000000000000, 0.000000000000000000 ) ) ;
#116 = ORIENTED_EDGE ( 'NONE', *, *, #125, .F. ) ;
#117 = PRESENTATION_LAYER_ASSIGNMENT (  '', '', ( #151 ) ) ;
#118 = UNCERTAINTY_MEASURE_WITH_UNIT (LENGTH_MEASURE( 1.000000000000000082E-05 ), #254, 'distance_accuracy_value', 'NONE');
#119 = FILL_AREA_STYLE ('',( #37 ) ) ;
#120 =( GEOMETRIC_REPRESENTATION_CONTEXT ( 3 ) GLOBAL_UNCERTAINTY_ASSIGNED_CONTEXT ( ( #108 ) ) GLOBAL_UNIT_ASSIGNED_CONTEXT ( ( #204, #29, #7 ) ) REPRESENTATION_CONTEXT ( 'NONE', 'WORKASPACE' ) );
#121 = PRESENTATION_LAYER_ASSIGNMENT (  '', '', ( #256 ) ) ;
#122 = SURFACE_STYLE_USAGE ( .BOTH. , #5 ) ;
#123 = MECHANICAL_DESIGN_GEOMETRIC_PRESENTATION_REPRESENTATION (  '', ( #138 ), #177 ) ;
#124 = FACE_OUTER_BOUND ( 'NONE', #232, .T. ) ;
#125 = EDGE_CURVE ( 'NONE', #42, #265, #66, .T. ) ;
#126 =( NAMED_UNIT ( * ) PLANE_ANGLE_UNIT ( ) SI_UNIT ( $, .RADIAN. ) );
#127 =( LENGTH_UNIT ( ) NAMED_UNIT ( * ) SI_UNIT ( .MILLI., .METRE. ) );
#128 = VERTEX_POINT ( 'NONE', #35 ) ;
#129 = CARTESIAN_POINT ( 'NONE',  ( -10.00000000000000355, 89.00000000000000000, 0.000000000000000000 ) ) ;
#130 = FACE_OUTER_BOUND ( 'NONE', #273, .T. ) ;
#131 = CARTESIAN_POINT ( 'NONE',  ( 0.000000000000000000, 0.000000000000000000, 0.000000000000000000 ) ) ;
#132 = FACE_OUTER_BOUND ( 'NONE', #78, .T. ) ;
#133 = ADVANCED_FACE ( 'NONE', ( #124 ), #216, .T. ) ;
#134 = SURFACE_STYLE_FILL_AREA ( #89 ) ;
#135 = DIRECTION ( 'NONE',  ( -0.000000000000000000, -1.000000000000000000, -0.000000000000000000 ) ) ;
#136 = CARTESIAN_POINT ( 'NONE',  ( 0.000000000000000000, 0.000000000000000000, -10.00000000000000000 ) ) ;
#137 = CYLINDRICAL_SURFACE ( 'NONE', #222, 10.00000000000000000 ) ;
#138 = STYLED_ITEM ( 'NONE', ( #277 ), #221 ) ;
#139 = AXIS2_PLACEMENT_3D ( 'NONE', #72, #63, #230 ) ;
#140 = DIRECTION ( 'NONE',  ( 0.000000000000000000, 0.000000000000000000, 1.000000000000000000 ) ) ;
#141 =( NAMED_UNIT ( * ) SI_UNIT ( $, .STERADIAN. ) SOLID_ANGLE_UNIT ( ) );
#142 = APPLICATION_PROTOCOL_DEFINITION ( 'draft international standard', 'automotive_design', 1998, #237 ) ;
#143 =( NAMED_UNIT ( * ) PLANE_ANGLE_UNIT ( ) SI_UNIT ( $, .RADIAN. ) );
#144 = COLOUR_RGB ( '',0.7921568627450980005, 0.8196078431372548767, 0.9333333333333333481 ) ;
#145 = ORIENTED_EDGE ( 'NONE', *, *, #242, .T. ) ;
#146 = ORIENTED_EDGE ( 'NONE', *, *, #267, .T. ) ;
#147 = AXIS2_PLACEMENT_3D ( 'NONE', #227, #196, #153 ) ;
#148 = EDGE_CURVE ( 'NONE', #265, #1, #225, .T. ) ;
#149 = ORIENTED_EDGE ( 'NONE', *, *, #148, .F. ) ;
#150 = CARTESIAN_POINT ( 'NONE',  ( 1.224646799147353256E-15, 30.00000000000000000, 10.00000000000000000 ) ) ;
#151 = STYLED_ITEM ( 'NONE', ( #236 ), #26 ) ;
#152 = CARTESIAN_POINT ( 'NONE',  ( -10.00000000000000355, 89.00000000000000000, 0.000000000000000000 ) ) ;
#153 = DIRECTION ( 'NONE',  ( 1.000000000000000000, 2.905941557298802612E-17, 0.000000000000000000 ) ) ;
#154 = PLANE ( 'NONE',  #67 ) ;
#155 = EDGE_CURVE ( 'NONE', #64, #100, #178, .T. ) ;
#156 = UNCERTAINTY_MEASURE_WITH_UNIT (LENGTH_MEASURE( 1.000000000000000082E-05 ), #224, 'distance_accuracy_value', 'NONE');
#157 = PRESENTATION_LAYER_ASSIGNMENT (  '', '', ( #138 ) ) ;
#158 = CARTESIAN_POINT ( 'NONE',  ( 0.000000000000000000, 30.00000000000000000, -10.00000000000000000 ) ) ;
#159 = DIRECTION ( 'NONE',  ( -2.905941557298802612E-17, 1.000000000000000000, -0.000000000000000000 ) ) ;
#160 = COLOUR_RGB ( '',1.000000000000000000, 0.000000000000000000, 0.000000000000000000 ) ;
#161 = SHAPE_DEFINITION_REPRESENTATION ( #91, #215 ) ;
#162 = DIRECTION ( 'NONE',  ( -0.000000000000000000, -1.000000000000000000, -0.000000000000000000 ) ) ;
#163 = AXIS2_PLACEMENT_3D ( 'NONE', #281, #257, #56 ) ;
#164 = DIRECTION ( 'NONE',  ( -0.000000000000000000, -1.000000000000000000, -0.000000000000000000 ) ) ;
#165 = EDGE_CURVE ( 'NONE', #246, #288, #10, .T. ) ;
#166 = ORIENTED_EDGE ( 'NONE', *, *, #165, .T. ) ;
#167 = ORIENTED_EDGE ( 'NONE', *, *, #98, .F. ) ;
#168 = ORIENTED_EDGE ( 'NONE', *, *, #98, .T. ) ;
#169 = FILL_AREA_STYLE_COLOUR ( '', #81 ) ;
#170 = MECHANICAL_DESIGN_GEOMETRIC_PRESENTATION_REPRESENTATION (  '', ( #151 ), #120 ) ;
#171 = STYLED_ITEM ( 'NONE', ( #73 ), #228 ) ;
#172 = FILL_AREA_STYLE ('',( #169 ) ) ;
#173 = SURFACE_STYLE_USAGE ( .BOTH. , #84 ) ;
#174 = CARTESIAN_POINT ( 'NONE',  ( 0.000000000000000000, 0.000000000000000000, -10.00000000000000000 ) ) ;
#175 = FACE_OUTER_BOUND ( 'NONE', #103, .T. ) ;
#176 = PLANE ( 'NONE',  #206 ) ;
#177 =( GEOMETRIC_REPRESENTATION_CONTEXT ( 3 ) GLOBAL_UNCERTAINTY_ASSIGNED_CONTEXT ( ( #279 ) ) GLOBAL_UNIT_ASSIGNED_CONTEXT ( ( #127, #143, #141 ) ) REPRESENTATION_CONTEXT ( 'NONE', 'WORKASPACE' ) );
#178 = CIRCLE ( 'NONE', #87, 10.00000000000000000 ) ;
#179 = ADVANCED_FACE ( 'NONE', ( #175 ), #176, .F. ) ;
#180 = SURFACE_STYLE_FILL_AREA ( #194 ) ;
#181 = DIRECTION ( 'NONE',  ( 0.000000000000000000, 0.000000000000000000, -1.000000000000000000 ) ) ;
#182 = DIRECTION ( 'NONE',  ( 0.000000000000000000, -1.000000000000000000, -0.000000000000000000 ) ) ;
#183 = PRESENTATION_LAYER_ASSIGNMENT (  '', '', ( #23 ) ) ;
#184 = DIRECTION ( 'NONE',  ( -2.905941557298803228E-17, 1.000000000000000000, -0.000000000000000000 ) ) ;
#185 = AXIS2_PLACEMENT_3D ( 'NONE', #30, #184, #112 ) ;
#186 = SURFACE_STYLE_FILL_AREA ( #284 ) ;
#187 = COLOUR_RGB ( '',0.7921568627450980005, 0.8196078431372548767, 0.9333333333333333481 ) ;
#188 = UNCERTAINTY_MEASURE_WITH_UNIT (LENGTH_MEASURE( 1.000000000000000082E-05 ), #52, 'distance_accuracy_value', 'NONE');
#189 =( GEOMETRIC_REPRESENTATION_CONTEXT ( 3 ) GLOBAL_UNCERTAINTY_ASSIGNED_CONTEXT ( ( #118 ) ) GLOBAL_UNIT_ASSIGNED_CONTEXT ( ( #254, #259, #240 ) ) REPRESENTATION_CONTEXT ( 'NONE', 'WORKASPACE' ) );
#190 = FACE_OUTER_BOUND ( 'NONE', #24, .T. ) ;
#191 = ORIENTED_EDGE ( 'NONE', *, *, #155, .T. ) ;
#192 = ORIENTED_EDGE ( 'NONE', *, *, #263, .T. ) ;
#193 = ORIENTED_EDGE ( 'NONE', *, *, #285, .F. ) ;
#194 = FILL_AREA_STYLE ('',( #235 ) ) ;
#195 = CARTESIAN_POINT ( 'NONE',  ( 10.00000000000000000, 89.00000000000000000, 1.224646799147353454E-15 ) ) ;
#196 = DIRECTION ( 'NONE',  ( 2.905941557298802612E-17, -1.000000000000000000, 0.000000000000000000 ) ) ;
#197 = MECHANICAL_DESIGN_GEOMETRIC_PRESENTATION_REPRESENTATION (  '', ( #38 ), #102 ) ;
#198 = VECTOR ( 'NONE', #274, 1000.000000000000000 ) ;
#199 = ORIENTED_EDGE ( 'NONE', *, *, #76, .T. ) ;
#200 = DIRECTION ( 'NONE',  ( -0.000000000000000000, -1.000000000000000000, -0.000000000000000000 ) ) ;
#201 = DIRECTION ( 'NONE',  ( -0.000000000000000000, -1.000000000000000000, -0.000000000000000000 ) ) ;
#202 = DIRECTION ( 'NONE',  ( -2.905941557298803228E-17, 1.000000000000000000, -0.000000000000000000 ) ) ;
#203 = CARTESIAN_POINT ( 'NONE',  ( 0.000000000000000000, 0.000000000000000000, 0.000000000000000000 ) ) ;
#204 =( LENGTH_UNIT ( ) NAMED_UNIT ( * ) SI_UNIT ( .MILLI., .METRE. ) );
#205 = CARTESIAN_POINT ( 'NONE',  ( 1.224646799147353256E-15, 0.000000000000000000, 10.00000000000000000 ) ) ;
#206 = AXIS2_PLACEMENT_3D ( 'NONE', #45, #51, #101 ) ;
#207 = DIRECTION ( 'NONE',  ( 0.000000000000000000, 0.000000000000000000, -1.000000000000000000 ) ) ;
#208 = SURFACE_SIDE_STYLE ('',( #134 ) ) ;
#209 = DIRECTION ( 'NONE',  ( 0.000000000000000000, 0.000000000000000000, -1.000000000000000000 ) ) ;
#210 = DIRECTION ( 'NONE',  ( 0.000000000000000000, -0.000000000000000000, 1.000000000000000000 ) ) ;
#211 = CYLINDRICAL_SURFACE ( 'NONE', #55, 10.00000000000000000 ) ;
#212 = VECTOR ( 'NONE', #233, 1000.000000000000000 ) ;
#213 = ORIENTED_EDGE ( 'NONE', *, *, #148, .T. ) ;
#214 = AXIS2_PLACEMENT_3D ( 'NONE', #85, #110, #65 ) ;
#215 = ADVANCED_BREP_SHAPE_REPRESENTATION ( '59647', ( #221, #21, #287 ), #189 ) ;
#216 = CYLINDRICAL_SURFACE ( 'NONE', #139, 10.00000000000000178 ) ;
#217 =( NAMED_UNIT ( * ) SI_UNIT ( $, .STERADIAN. ) SOLID_ANGLE_UNIT ( ) );
#218 = SURFACE_STYLE_FILL_AREA ( #119 ) ;
#219 = ADVANCED_FACE ( 'NONE', ( #130 ), #86, .F. ) ;
#220 = SURFACE_STYLE_USAGE ( .BOTH. , #15 ) ;
#221 = MANIFOLD_SOLID_BREP ( 'Revolve - Cutting Edge', #266 ) ;
#222 = AXIS2_PLACEMENT_3D ( 'NONE', #16, #162, #244 ) ;
#223 = PRESENTATION_STYLE_ASSIGNMENT (( #122 ) ) ;
#224 =( LENGTH_UNIT ( ) NAMED_UNIT ( * ) SI_UNIT ( .MILLI., .METRE. ) );
#225 = CIRCLE ( 'NONE', #275, 10.00000000000000178 ) ;
#226 = ORIENTED_EDGE ( 'NONE', *, *, #61, .F. ) ;
#227 = CARTESIAN_POINT ( 'NONE',  ( 10.00000000000000000, 89.00000000000000000, 0.000000000000000000 ) ) ;
#228 = ADVANCED_FACE ( 'NONE', ( #190 ), #137, .T. ) ;
#229 = FACE_OUTER_BOUND ( 'NONE', #79, .T. ) ;
#230 = DIRECTION ( 'NONE',  ( -1.000000000000000000, 0.000000000000000000, 0.000000000000000000 ) ) ;
#231 = MECHANICAL_DESIGN_GEOMETRIC_PRESENTATION_REPRESENTATION (  '', ( #23 ), #32 ) ;
#232 = EDGE_LOOP ( 'NONE', ( #226, #46, #286, #49 ) ) ;
#233 = DIRECTION ( 'NONE',  ( -2.905941557298802612E-17, 1.000000000000000000, -0.000000000000000000 ) ) ;
#234 = PRODUCT_DEFINITION_FORMATION_WITH_SPECIFIED_SOURCE ( 'ANY', '', #278, .NOT_KNOWN. ) ;
#235 = FILL_AREA_STYLE_COLOUR ( '', #187 ) ;
#236 = PRESENTATION_STYLE_ASSIGNMENT (( #173 ) ) ;
#237 = APPLICATION_CONTEXT ( 'automotive_design' ) ;
#238 = FILL_AREA_STYLE_COLOUR ( '', #160 ) ;
#239 =( NAMED_UNIT ( * ) SI_UNIT ( $, .STERADIAN. ) SOLID_ANGLE_UNIT ( ) );
#240 =( NAMED_UNIT ( * ) SI_UNIT ( $, .STERADIAN. ) SOLID_ANGLE_UNIT ( ) );
#241 = PRESENTATION_STYLE_ASSIGNMENT (( #220 ) ) ;
#242 = EDGE_CURVE ( 'NONE', #288, #246, #34, .T. ) ;
#243 =( NAMED_UNIT ( * ) PLANE_ANGLE_UNIT ( ) SI_UNIT ( $, .RADIAN. ) );
#244 = DIRECTION ( 'NONE',  ( 0.000000000000000000, 0.000000000000000000, -1.000000000000000000 ) ) ;
#245 = ORIENTED_EDGE ( 'NONE', *, *, #48, .T. ) ;
#246 = VERTEX_POINT ( 'NONE', #136 ) ;
#247 = CARTESIAN_POINT ( 'NONE',  ( -1.714505518806293849E-15, 89.00000000000000000, 0.000000000000000000 ) ) ;
#248 = ADVANCED_FACE ( 'NONE', ( #36 ), #211, .T. ) ;
#249 = CARTESIAN_POINT ( 'NONE',  ( 0.000000000000000000, 30.00000000000000000, 0.000000000000000000 ) ) ;
#250 = EDGE_LOOP ( 'NONE', ( #168, #20, #149, #116 ) ) ;
#251 = DIRECTION ( 'NONE',  ( -2.905941557298803228E-17, 1.000000000000000000, -0.000000000000000000 ) ) ;
#252 =( NAMED_UNIT ( * ) PLANE_ANGLE_UNIT ( ) SI_UNIT ( $, .RADIAN. ) );
#253 = DIRECTION ( 'NONE',  ( -1.000000000000000000, 0.000000000000000000, 0.000000000000000000 ) ) ;
#254 =( LENGTH_UNIT ( ) NAMED_UNIT ( * ) SI_UNIT ( .MILLI., .METRE. ) );
#255 = CARTESIAN_POINT ( 'NONE',  ( 0.000000000000000000, 30.00000000000000000, 0.000000000000000000 ) ) ;
#256 = STYLED_ITEM ( 'NONE', ( #241 ), #248 ) ;
#257 = DIRECTION ( 'NONE',  ( -2.905941557298803228E-17, 1.000000000000000000, -0.000000000000000000 ) ) ;
#258 = DIRECTION ( 'NONE',  ( 1.000000000000000000, 0.000000000000000000, 0.000000000000000000 ) ) ;
#259 =( NAMED_UNIT ( * ) PLANE_ANGLE_UNIT ( ) SI_UNIT ( $, .RADIAN. ) );
#260 = CARTESIAN_POINT ( 'NONE',  ( 0.000000000000000000, 0.000000000000000000, 0.000000000000000000 ) ) ;
#261 = SURFACE_STYLE_USAGE ( .BOTH. , #282 ) ;
#262 = DIRECTION ( 'NONE',  ( 0.000000000000000000, 0.000000000000000000, -1.000000000000000000 ) ) ;
#263 = EDGE_CURVE ( 'NONE', #64, #288, #272, .T. ) ;
#264 = SURFACE_STYLE_FILL_AREA ( #99 ) ;
#265 = VERTEX_POINT ( 'NONE', #129 ) ;
#266 = CLOSED_SHELL ( 'NONE', ( #248, #26, #228, #80 ) ) ;
#267 = EDGE_CURVE ( 'NONE', #100, #246, #106, .T. ) ;
#268 = FILL_AREA_STYLE_COLOUR ( '', #144 ) ;
#269 =( NAMED_UNIT ( * ) SI_UNIT ( $, .STERADIAN. ) SOLID_ANGLE_UNIT ( ) );
#270 = VECTOR ( 'NONE', #159, 1000.000000000000000 ) ;
#271 = SURFACE_STYLE_FILL_AREA ( #172 ) ;
#272 = LINE ( 'NONE', #50, #39 ) ;
#273 = EDGE_LOOP ( 'NONE', ( #213, #199 ) ) ;
#274 = DIRECTION ( 'NONE',  ( -0.000000000000000000, -1.000000000000000000, -0.000000000000000000 ) ) ;
#275 = AXIS2_PLACEMENT_3D ( 'NONE', #247, #251, #27 ) ;
#276 = DIRECTION ( 'NONE',  ( 0.000000000000000000, 1.000000000000000000, 0.000000000000000000 ) ) ;
#277 = PRESENTATION_STYLE_ASSIGNMENT (( #88 ) ) ;
#278 = PRODUCT ( '59647', '59647', '', ( #59 ) ) ;
#279 = UNCERTAINTY_MEASURE_WITH_UNIT (LENGTH_MEASURE( 1.000000000000000082E-05 ), #127, 'distance_accuracy_value', 'NONE');
#280 = CLOSED_SHELL ( 'NONE', ( #113, #179, #133, #219 ) ) ;
#281 = CARTESIAN_POINT ( 'NONE',  ( -1.714505518806293849E-15, 89.00000000000000000, 0.000000000000000000 ) ) ;
#282 = SURFACE_SIDE_STYLE ('',( #186 ) ) ;
#283 =( LENGTH_UNIT ( ) NAMED_UNIT ( * ) SI_UNIT ( .MILLI., .METRE. ) );
#284 = FILL_AREA_STYLE ('',( #114 ) ) ;
#285 = EDGE_CURVE ( 'NONE', #128, #42, #31, .T. ) ;
#286 = ORIENTED_EDGE ( 'NONE', *, *, #125, .T. ) ;
#287 = AXIS2_PLACEMENT_3D ( 'NONE', #260, #140, #258 ) ;
#288 = VERTEX_POINT ( 'NONE', #205 ) ;
ENDSEC;
END-ISO-10303-21;
