ISO-10303-21;
HEADER;
FILE_DESCRIPTION (( 'STEP AP214' ),
    '1' );
FILE_NAME ('Micro_RTCM-080-1X.STEP',
    '2021-09-03T18:25:51',
    ( '' ),
    ( '' ),
    'SwSTEP 2.0',
    'SolidWorks 2020',
    '' );
FILE_SCHEMA (( 'AUTOMOTIVE_DESIGN' ));
ENDSEC;

DATA;
#1 =( CONVERSION_BASED_UNIT ( 'INCH', #183 ) LENGTH_UNIT ( ) NAMED_UNIT ( #6 ) );
#2 = EDGE_CURVE ( 'NONE', #239, #122, #115, .T. ) ;
#3 = ORIENTED_EDGE ( 'NONE', *, *, #83, .F. ) ;
#4 = ORIENTED_EDGE ( 'NONE', *, *, #227, .F. ) ;
#5 = EDGE_CURVE ( 'NONE', #34, #113, #212, .T. ) ;
#6 = DIMENSIONAL_EXPONENTS ( 1.000000000000000000, 0.0000000000000000000, 0.0000000000000000000, 0.0000000000000000000, 0.0000000000000000000, 0.0000000000000000000, 0.0000000000000000000 ) ;
#7 = LINE ( 'NONE', #92, #95 ) ;
#8 = DIRECTION ( 'NONE',  ( -1.000000000000000000, 0.0000000000000000000, 0.0000000000000000000 ) ) ;
#9 =( GEOMETRIC_REPRESENTATION_CONTEXT ( 3 ) GLOBAL_UNCERTAINTY_ASSIGNED_CONTEXT ( ( #132 ) ) GLOBAL_UNIT_ASSIGNED_CONTEXT ( ( #1, #219, #55 ) ) REPRESENTATION_CONTEXT ( 'NONE', 'WORKASPACE' ) );
#10 = PRODUCT_DEFINITION_FORMATION_WITH_SPECIFIED_SOURCE ( 'ANY', '', #125, .NOT_KNOWN. ) ;
#11 =( NAMED_UNIT ( * ) PLANE_ANGLE_UNIT ( ) SI_UNIT ( $, .RADIAN. ) );
#12 = MECHANICAL_DESIGN_GEOMETRIC_PRESENTATION_REPRESENTATION (  '', ( #63 ), #81 ) ;
#13 = SURFACE_STYLE_USAGE ( .BOTH. , #59 ) ;
#14 = DIRECTION ( 'NONE',  ( -0.0000000000000000000, -0.0000000000000000000, -1.000000000000000000 ) ) ;
#15 = AXIS2_PLACEMENT_3D ( 'NONE', #210, #20, #25 ) ;
#16 = ORIENTED_EDGE ( 'NONE', *, *, #128, .F. ) ;
#17 = CARTESIAN_POINT ( 'NONE',  ( 0.0000000000000000000, 0.0000000000000000000, 2.480315000000000047 ) ) ;
#18 = ADVANCED_FACE ( 'NONE', ( #77 ), #152, .F. ) ;
#19 = PRESENTATION_STYLE_ASSIGNMENT (( #207 ) ) ;
#20 = DIRECTION ( 'NONE',  ( 0.0000000000000000000, 0.0000000000000000000, -1.000000000000000000 ) ) ;
#21 = FACE_OUTER_BOUND ( 'NONE', #110, .T. ) ;
#22 = LINE ( 'NONE', #127, #97 ) ;
#23 = CARTESIAN_POINT ( 'NONE',  ( 0.1574804999999999955, 1.928579902531247412E-17, 0.5730321431719496150 ) ) ;
#24 = DIRECTION ( 'NONE',  ( 0.0000000000000000000, 0.0000000000000000000, 1.000000000000000000 ) ) ;
#25 = DIRECTION ( 'NONE',  ( -1.000000000000000000, 0.0000000000000000000, 0.0000000000000000000 ) ) ;
#26 =( CONVERSION_BASED_UNIT ( 'INCH', #126 ) LENGTH_UNIT ( ) NAMED_UNIT ( #195 ) );
#27 = CARTESIAN_POINT ( 'NONE',  ( -0.003936999999999995191, 4.821434448243123477E-19, 0.0000000000000000000 ) ) ;
#28 = CIRCLE ( 'NONE', #73, 0.003936999999999995191 ) ;
#29 =( LENGTH_UNIT ( ) NAMED_UNIT ( * ) SI_UNIT ( $, .METRE. ) );
#30 = ORIENTED_EDGE ( 'NONE', *, *, #147, .T. ) ;
#31 = ORIENTED_EDGE ( 'NONE', *, *, #233, .F. ) ;
#32 = PRESENTATION_LAYER_ASSIGNMENT (  '', '', ( #108 ) ) ;
#33 = CARTESIAN_POINT ( 'NONE',  ( 0.0000000000000000000, 0.0000000000000000000, 2.480315000000000047 ) ) ;
#34 = VERTEX_POINT ( 'NONE', #194 ) ;
#35 =( LENGTH_UNIT ( ) NAMED_UNIT ( * ) SI_UNIT ( $, .METRE. ) );
#36 = DIRECTION ( 'NONE',  ( 0.0000000000000000000, 0.0000000000000000000, 1.000000000000000000 ) ) ;
#37 = DIRECTION ( 'NONE',  ( 0.0000000000000000000, 0.0000000000000000000, -1.000000000000000000 ) ) ;
#38 = APPLICATION_PROTOCOL_DEFINITION ( 'draft international standard', 'automotive_design', 1998, #190 ) ;
#39 = DIRECTION ( 'NONE',  ( -1.000000000000000000, 0.0000000000000000000, 0.0000000000000000000 ) ) ;
#40 = CYLINDRICAL_SURFACE ( 'NONE', #146, 0.1574804999999999955 ) ;
#41 = AXIS2_PLACEMENT_3D ( 'NONE', #33, #150, #245 ) ;
#42 =( GEOMETRIC_REPRESENTATION_CONTEXT ( 3 ) GLOBAL_UNCERTAINTY_ASSIGNED_CONTEXT ( ( #201 ) ) GLOBAL_UNIT_ASSIGNED_CONTEXT ( ( #184, #237, #61 ) ) REPRESENTATION_CONTEXT ( 'NONE', 'WORKASPACE' ) );
#43 = EDGE_CURVE ( 'NONE', #151, #223, #247, .T. ) ;
#44 = FACE_OUTER_BOUND ( 'NONE', #172, .T. ) ;
#45 = CARTESIAN_POINT ( 'NONE',  ( 0.0000000000000000000, 0.0000000000000000000, 2.480315000000000047 ) ) ;
#46 = DIRECTION ( 'NONE',  ( -0.0000000000000000000, -0.0000000000000000000, -1.000000000000000000 ) ) ;
#47 = AXIS2_PLACEMENT_3D ( 'NONE', #104, #106, #170 ) ;
#48 = DIRECTION ( 'NONE',  ( 0.0000000000000000000, 0.0000000000000000000, -1.000000000000000000 ) ) ;
#49 = DIRECTION ( 'NONE',  ( 0.7071067811865627828, 8.659560562355118980E-17, -0.7071067811865321406 ) ) ;
#50 = CIRCLE ( 'NONE', #52, 0.1574804999999999955 ) ;
#51 = DIRECTION ( 'NONE',  ( 1.000000000000000000, 0.0000000000000000000, -0.0000000000000000000 ) ) ;
#52 = AXIS2_PLACEMENT_3D ( 'NONE', #105, #242, #144 ) ;
#53 = FILL_AREA_STYLE ('',( #248 ) ) ;
#54 = DIRECTION ( 'NONE',  ( -1.000000000000000000, 0.0000000000000000000, 0.0000000000000000000 ) ) ;
#55 =( NAMED_UNIT ( * ) SI_UNIT ( $, .STERADIAN. ) SOLID_ANGLE_UNIT ( ) );
#56 = AXIS2_PLACEMENT_3D ( 'NONE', #45, #24, #241 ) ;
#57 = ORIENTED_EDGE ( 'NONE', *, *, #5, .T. ) ;
#58 = APPLICATION_CONTEXT ( 'automotive_design' ) ;
#59 = SURFACE_SIDE_STYLE ('',( #112 ) ) ;
#60 = MANIFOLD_SOLID_BREP ( 'Cut-Revolve1', #157 ) ;
#61 =( NAMED_UNIT ( * ) SI_UNIT ( $, .STERADIAN. ) SOLID_ANGLE_UNIT ( ) );
#62 = CARTESIAN_POINT ( 'NONE',  ( 0.0000000000000000000, 0.0000000000000000000, 0.0000000000000000000 ) ) ;
#63 = STYLED_ITEM ( 'NONE', ( #19 ), #60 ) ;
#64 = AXIS2_PLACEMENT_3D ( 'NONE', #17, #100, #102 ) ;
#65 = FACE_OUTER_BOUND ( 'NONE', #182, .T. ) ;
#66 = CARTESIAN_POINT ( 'NONE',  ( 0.0000000000000000000, 0.0000000000000000000, 0.5730321431719496150 ) ) ;
#67 = EDGE_CURVE ( 'NONE', #149, #113, #171, .T. ) ;
#68 = CARTESIAN_POINT ( 'NONE',  ( -0.1574804999999999955, 0.0000000000000000000, 2.480315000000000047 ) ) ;
#69 = DIRECTION ( 'NONE',  ( 1.000000000000000000, 0.0000000000000000000, 0.0000000000000000000 ) ) ;
#70 = ORIENTED_EDGE ( 'NONE', *, *, #135, .T. ) ;
#71 = ORIENTED_EDGE ( 'NONE', *, *, #2, .F. ) ;
#72 = ADVANCED_BREP_SHAPE_REPRESENTATION ( 'Micro_RTCM-080-1X', ( #60, #153 ), #42 ) ;
#73 = AXIS2_PLACEMENT_3D ( 'NONE', #62, #14, #8 ) ;
#74 = EDGE_CURVE ( 'NONE', #239, #244, #22, .T. ) ;
#75 = ORIENTED_EDGE ( 'NONE', *, *, #135, .F. ) ;
#76 = CARTESIAN_POINT ( 'NONE',  ( 0.1574804999999999955, 1.928579902531247412E-17, 2.465314999999999923 ) ) ;
#77 = FACE_OUTER_BOUND ( 'NONE', #121, .T. ) ;
#78 = ADVANCED_FACE ( 'NONE', ( #174 ), #199, .T. ) ;
#79 = AXIS2_PLACEMENT_3D ( 'NONE', #91, #168, #138 ) ;
#80 = CARTESIAN_POINT ( 'NONE',  ( 0.1424804999999990940, 1.836731392595189962E-17, 2.480315000000000047 ) ) ;
#81 =( GEOMETRIC_REPRESENTATION_CONTEXT ( 3 ) GLOBAL_UNCERTAINTY_ASSIGNED_CONTEXT ( ( #232 ) ) GLOBAL_UNIT_ASSIGNED_CONTEXT ( ( #26, #11, #246 ) ) REPRESENTATION_CONTEXT ( 'NONE', 'WORKASPACE' ) );
#82 = VECTOR ( 'NONE', #167, 39.37007874015748143 ) ;
#83 = EDGE_CURVE ( 'NONE', #113, #223, #50, .T. ) ;
#84 = DIRECTION ( 'NONE',  ( -0.0000000000000000000, -0.0000000000000000000, -1.000000000000000000 ) ) ;
#85 = ADVANCED_FACE ( 'NONE', ( #44 ), #221, .T. ) ;
#86 = ADVANCED_FACE ( 'NONE', ( #21 ), #103, .T. ) ;
#87 = FILL_AREA_STYLE ('',( #165 ) ) ;
#88 = DIRECTION ( 'NONE',  ( 1.000000000000000000, 0.0000000000000000000, 0.0000000000000000000 ) ) ;
#89 = DIRECTION ( 'NONE',  ( -0.0000000000000000000, -0.0000000000000000000, -1.000000000000000000 ) ) ;
#90 = DIRECTION ( 'NONE',  ( -0.0000000000000000000, -0.0000000000000000000, -1.000000000000000000 ) ) ;
#91 = CARTESIAN_POINT ( 'NONE',  ( 0.0000000000000000000, 0.0000000000000000000, 0.0000000000000000000 ) ) ;
#92 = CARTESIAN_POINT ( 'NONE',  ( -0.1424804999999990940, 0.0000000000000000000, 2.480315000000000047 ) ) ;
#93 = CONICAL_SURFACE ( 'NONE', #79, 0.003936999999999995191, 0.2617993877991504625 ) ;
#94 = EDGE_LOOP ( 'NONE', ( #193, #70, #3, #197 ) ) ;
#95 = VECTOR ( 'NONE', #145, 39.37007874015748854 ) ;
#96 = EDGE_CURVE ( 'NONE', #223, #113, #158, .T. ) ;
#97 = VECTOR ( 'NONE', #49, 39.37007874015748854 ) ;
#98 = SHAPE_DEFINITION_REPRESENTATION ( #187, #72 ) ;
#99 = AXIS2_PLACEMENT_3D ( 'NONE', #235, #37, #69 ) ;
#100 = DIRECTION ( 'NONE',  ( 0.0000000000000000000, 0.0000000000000000000, 1.000000000000000000 ) ) ;
#101 = DIMENSIONAL_EXPONENTS ( 1.000000000000000000, 0.0000000000000000000, 0.0000000000000000000, 0.0000000000000000000, 0.0000000000000000000, 0.0000000000000000000, 0.0000000000000000000 ) ;
#102 = DIRECTION ( 'NONE',  ( 1.000000000000000000, 0.0000000000000000000, 0.0000000000000000000 ) ) ;
#103 = PLANE ( 'NONE',  #56 ) ;
#104 = CARTESIAN_POINT ( 'NONE',  ( 0.0000000000000000000, 0.0000000000000000000, 0.0000000000000000000 ) ) ;
#105 = CARTESIAN_POINT ( 'NONE',  ( 0.0000000000000000000, 0.0000000000000000000, 0.5730321431719496150 ) ) ;
#106 = DIRECTION ( 'NONE',  ( 0.0000000000000000000, 0.0000000000000000000, 1.000000000000000000 ) ) ;
#107 = ORIENTED_EDGE ( 'NONE', *, *, #188, .T. ) ;
#108 = STYLED_ITEM ( 'NONE', ( #198 ), #72 ) ;
#109 = DIRECTION ( 'NONE',  ( -0.2588190451025217387, 3.169619151431776651E-17, 0.9659258262890679791 ) ) ;
#110 = EDGE_LOOP ( 'NONE', ( #107, #179 ) ) ;
#111 = SURFACE_SIDE_STYLE ('',( #214 ) ) ;
#112 = SURFACE_STYLE_FILL_AREA ( #87 ) ;
#113 = VERTEX_POINT ( 'NONE', #116 ) ;
#114 = CONICAL_SURFACE ( 'NONE', #15, 0.1424804999999990940, 0.7853981633974699283 ) ;
#115 = CIRCLE ( 'NONE', #41, 0.1424804999999990940 ) ;
#116 = CARTESIAN_POINT ( 'NONE',  ( -0.1574804999999999955, 0.0000000000000000000, 0.5730321431719496150 ) ) ;
#117 = PRODUCT_CONTEXT ( 'NONE', #190, 'mechanical' ) ;
#118 = CARTESIAN_POINT ( 'NONE',  ( 0.0000000000000000000, 0.0000000000000000000, 2.480315000000000047 ) ) ;
#119 = AXIS2_PLACEMENT_3D ( 'NONE', #205, #89, #39 ) ;
#120 = CARTESIAN_POINT ( 'NONE',  ( 0.0000000000000000000, 0.0000000000000000000, 2.480315000000000047 ) ) ;
#121 = EDGE_LOOP ( 'NONE', ( #226, #30 ) ) ;
#122 = VERTEX_POINT ( 'NONE', #160 ) ;
#123 = CYLINDRICAL_SURFACE ( 'NONE', #186, 0.1574804999999999955 ) ;
#124 = ORIENTED_EDGE ( 'NONE', *, *, #74, .T. ) ;
#125 = PRODUCT ( 'Micro_RTCM-080-1X', 'Micro_RTCM-080-1X', '', ( #117 ) ) ;
#126 = LENGTH_MEASURE_WITH_UNIT ( LENGTH_MEASURE( 0.02539999999999999897 ), #133 );
#127 = CARTESIAN_POINT ( 'NONE',  ( 0.1424804999999990940, 1.744882882659133128E-17, 2.480315000000000047 ) ) ;
#128 = EDGE_CURVE ( 'NONE', #244, #149, #243, .T. ) ;
#129 = ORIENTED_EDGE ( 'NONE', *, *, #74, .F. ) ;
#130 = PRESENTATION_LAYER_ASSIGNMENT (  '', '', ( #63 ) ) ;
#131 = DIRECTION ( 'NONE',  ( 0.0000000000000000000, 0.0000000000000000000, 1.000000000000000000 ) ) ;
#132 = UNCERTAINTY_MEASURE_WITH_UNIT (LENGTH_MEASURE( 1.000000000000000082E-05 ), #1, 'distance_accuracy_value', 'NONE');
#133 =( LENGTH_UNIT ( ) NAMED_UNIT ( * ) SI_UNIT ( $, .METRE. ) );
#134 = ADVANCED_FACE ( 'NONE', ( #137 ), #123, .T. ) ;
#135 = EDGE_CURVE ( 'NONE', #244, #223, #220, .T. ) ;
#136 = ORIENTED_EDGE ( 'NONE', *, *, #43, .F. ) ;
#137 = FACE_OUTER_BOUND ( 'NONE', #94, .T. ) ;
#138 = DIRECTION ( 'NONE',  ( 1.000000000000000000, 0.0000000000000000000, 0.0000000000000000000 ) ) ;
#139 = DIRECTION ( 'NONE',  ( -1.000000000000000000, 0.0000000000000000000, 0.0000000000000000000 ) ) ;
#140 = COLOUR_RGB ( '',0.7921568627450980005, 0.8196078431372548767, 0.9333333333333333481 ) ;
#141 = CARTESIAN_POINT ( 'NONE',  ( 0.1574804999999999955, 1.928579902531247412E-17, 2.480315000000000047 ) ) ;
#142 = ORIENTED_EDGE ( 'NONE', *, *, #67, .T. ) ;
#143 = EDGE_LOOP ( 'NONE', ( #200, #192, #236, #177 ) ) ;
#144 = DIRECTION ( 'NONE',  ( -1.000000000000000000, 0.0000000000000000000, 0.0000000000000000000 ) ) ;
#145 = DIRECTION ( 'NONE',  ( -0.7071067811865627828, 0.0000000000000000000, -0.7071067811865321406 ) ) ;
#146 = AXIS2_PLACEMENT_3D ( 'NONE', #118, #166, #203 ) ;
#147 = EDGE_CURVE ( 'NONE', #34, #151, #173, .T. ) ;
#148 = ORIENTED_EDGE ( 'NONE', *, *, #96, .F. ) ;
#149 = VERTEX_POINT ( 'NONE', #240 ) ;
#150 = DIRECTION ( 'NONE',  ( 0.0000000000000000000, 0.0000000000000000000, 1.000000000000000000 ) ) ;
#151 = VERTEX_POINT ( 'NONE', #218 ) ;
#152 = PLANE ( 'NONE',  #163 ) ;
#153 = AXIS2_PLACEMENT_3D ( 'NONE', #217, #36, #88 ) ;
#154 = PRODUCT_DEFINITION ( 'UNKNOWN', '', #10, #162 ) ;
#155 = EDGE_LOOP ( 'NONE', ( #75, #156, #142, #148 ) ) ;
#156 = ORIENTED_EDGE ( 'NONE', *, *, #128, .T. ) ;
#157 = CLOSED_SHELL ( 'NONE', ( #206, #85, #134, #161, #86, #216, #78, #18 ) ) ;
#158 = CIRCLE ( 'NONE', #204, 0.1574804999999999955 ) ;
#159 = VECTOR ( 'NONE', #231, 39.37007874015748854 ) ;
#160 = CARTESIAN_POINT ( 'NONE',  ( -0.1424804999999990940, 0.0000000000000000000, 2.480315000000000047 ) ) ;
#161 = ADVANCED_FACE ( 'NONE', ( #222 ), #40, .T. ) ;
#162 = PRODUCT_DEFINITION_CONTEXT ( 'detailed design', #58, 'design' ) ;
#163 = AXIS2_PLACEMENT_3D ( 'NONE', #228, #131, #51 ) ;
#164 = CIRCLE ( 'NONE', #209, 0.1574804999999999955 ) ;
#165 = FILL_AREA_STYLE_COLOUR ( '', #140 ) ;
#166 = DIRECTION ( 'NONE',  ( -0.0000000000000000000, -0.0000000000000000000, -1.000000000000000000 ) ) ;
#167 = DIRECTION ( 'NONE',  ( -0.0000000000000000000, -0.0000000000000000000, -1.000000000000000000 ) ) ;
#168 = DIRECTION ( 'NONE',  ( 0.0000000000000000000, 0.0000000000000000000, 1.000000000000000000 ) ) ;
#169 = DIRECTION ( 'NONE',  ( 0.0000000000000000000, 0.0000000000000000000, -1.000000000000000000 ) ) ;
#170 = DIRECTION ( 'NONE',  ( 1.000000000000000000, 0.0000000000000000000, 0.0000000000000000000 ) ) ;
#171 = LINE ( 'NONE', #68, #213 ) ;
#172 = EDGE_LOOP ( 'NONE', ( #71, #124, #31, #4 ) ) ;
#173 = CIRCLE ( 'NONE', #119, 0.003936999999999995191 ) ;
#174 = FACE_OUTER_BOUND ( 'NONE', #143, .T. ) ;
#175 = ORIENTED_EDGE ( 'NONE', *, *, #147, .F. ) ;
#176 = EDGE_CURVE ( 'NONE', #151, #34, #28, .T. ) ;
#177 = ORIENTED_EDGE ( 'NONE', *, *, #96, .T. ) ;
#178 = ORIENTED_EDGE ( 'NONE', *, *, #83, .T. ) ;
#179 = ORIENTED_EDGE ( 'NONE', *, *, #2, .T. ) ;
#180 = CARTESIAN_POINT ( 'NONE',  ( 0.003936999999999995191, 0.0000000000000000000, 0.0000000000000000000 ) ) ;
#181 = VECTOR ( 'NONE', #109, 39.37007874015748854 ) ;
#182 = EDGE_LOOP ( 'NONE', ( #129, #211, #215, #16 ) ) ;
#183 = LENGTH_MEASURE_WITH_UNIT ( LENGTH_MEASURE( 0.02539999999999999897 ), #35 );
#184 =( CONVERSION_BASED_UNIT ( 'INCH', #185 ) LENGTH_UNIT ( ) NAMED_UNIT ( #101 ) );
#185 = LENGTH_MEASURE_WITH_UNIT ( LENGTH_MEASURE( 0.02539999999999999897 ), #29 );
#186 = AXIS2_PLACEMENT_3D ( 'NONE', #120, #90, #139 ) ;
#187 = PRODUCT_DEFINITION_SHAPE ( 'NONE', 'NONE',  #154 ) ;
#188 = EDGE_CURVE ( 'NONE', #122, #239, #191, .T. ) ;
#189 = COLOUR_RGB ( '',0.7921568627450980005, 0.8196078431372548767, 0.9333333333333333481 ) ;
#190 = APPLICATION_CONTEXT ( 'automotive_design' ) ;
#191 = CIRCLE ( 'NONE', #64, 0.1424804999999990940 ) ;
#192 = ORIENTED_EDGE ( 'NONE', *, *, #176, .F. ) ;
#193 = ORIENTED_EDGE ( 'NONE', *, *, #233, .T. ) ;
#194 = CARTESIAN_POINT ( 'NONE',  ( -0.003936999999999995191, 9.883971235068394293E-18, 0.0000000000000000000 ) ) ;
#195 = DIMENSIONAL_EXPONENTS ( 1.000000000000000000, 0.0000000000000000000, 0.0000000000000000000, 0.0000000000000000000, 0.0000000000000000000, 0.0000000000000000000, 0.0000000000000000000 ) ;
#196 = PRODUCT_RELATED_PRODUCT_CATEGORY ( 'part', '', ( #125 ) ) ;
#197 = ORIENTED_EDGE ( 'NONE', *, *, #67, .F. ) ;
#198 = PRESENTATION_STYLE_ASSIGNMENT (( #13 ) ) ;
#199 = CONICAL_SURFACE ( 'NONE', #47, 0.003936999999999995191, 0.2617993877991504625 ) ;
#200 = ORIENTED_EDGE ( 'NONE', *, *, #5, .F. ) ;
#201 = UNCERTAINTY_MEASURE_WITH_UNIT (LENGTH_MEASURE( 1.000000000000000082E-05 ), #184, 'distance_accuracy_value', 'NONE');
#202 = APPLICATION_PROTOCOL_DEFINITION ( 'draft international standard', 'automotive_design', 1998, #58 ) ;
#203 = DIRECTION ( 'NONE',  ( -1.000000000000000000, 0.0000000000000000000, 0.0000000000000000000 ) ) ;
#204 = AXIS2_PLACEMENT_3D ( 'NONE', #66, #84, #54 ) ;
#205 = CARTESIAN_POINT ( 'NONE',  ( 0.0000000000000000000, 0.0000000000000000000, 0.0000000000000000000 ) ) ;
#206 = ADVANCED_FACE ( 'NONE', ( #238 ), #93, .T. ) ;
#207 = SURFACE_STYLE_USAGE ( .BOTH. , #111 ) ;
#208 = CARTESIAN_POINT ( 'NONE',  ( 0.0000000000000000000, 0.0000000000000000000, 2.480315000000000047 ) ) ;
#209 = AXIS2_PLACEMENT_3D ( 'NONE', #225, #48, #229 ) ;
#210 = CARTESIAN_POINT ( 'NONE',  ( 0.0000000000000000000, 0.0000000000000000000, 2.480315000000000047 ) ) ;
#211 = ORIENTED_EDGE ( 'NONE', *, *, #188, .F. ) ;
#212 = LINE ( 'NONE', #27, #181 ) ;
#213 = VECTOR ( 'NONE', #46, 39.37007874015748143 ) ;
#214 = SURFACE_STYLE_FILL_AREA ( #53 ) ;
#215 = ORIENTED_EDGE ( 'NONE', *, *, #227, .T. ) ;
#216 = ADVANCED_FACE ( 'NONE', ( #65 ), #114, .T. ) ;
#217 = CARTESIAN_POINT ( 'NONE',  ( 0.0000000000000000000, 0.0000000000000000000, 0.0000000000000000000 ) ) ;
#218 = CARTESIAN_POINT ( 'NONE',  ( 0.003936999999999995191, 0.0000000000000000000, 0.0000000000000000000 ) ) ;
#219 =( NAMED_UNIT ( * ) PLANE_ANGLE_UNIT ( ) SI_UNIT ( $, .RADIAN. ) );
#220 = LINE ( 'NONE', #141, #82 ) ;
#221 = CONICAL_SURFACE ( 'NONE', #230, 0.1424804999999990940, 0.7853981633974699283 ) ;
#222 = FACE_OUTER_BOUND ( 'NONE', #155, .T. ) ;
#223 = VERTEX_POINT ( 'NONE', #23 ) ;
#224 = DIRECTION ( 'NONE',  ( -1.000000000000000000, 0.0000000000000000000, 0.0000000000000000000 ) ) ;
#225 = CARTESIAN_POINT ( 'NONE',  ( 0.0000000000000000000, 0.0000000000000000000, 2.465314999999999923 ) ) ;
#226 = ORIENTED_EDGE ( 'NONE', *, *, #176, .T. ) ;
#227 = EDGE_CURVE ( 'NONE', #122, #149, #7, .T. ) ;
#228 = CARTESIAN_POINT ( 'NONE',  ( 0.0000000000000000000, 0.0000000000000000000, 0.0000000000000000000 ) ) ;
#229 = DIRECTION ( 'NONE',  ( 1.000000000000000000, 0.0000000000000000000, 0.0000000000000000000 ) ) ;
#230 = AXIS2_PLACEMENT_3D ( 'NONE', #208, #169, #224 ) ;
#231 = DIRECTION ( 'NONE',  ( 0.2588190451025217387, 0.0000000000000000000, 0.9659258262890679791 ) ) ;
#232 = UNCERTAINTY_MEASURE_WITH_UNIT (LENGTH_MEASURE( 1.000000000000000082E-05 ), #26, 'distance_accuracy_value', 'NONE');
#233 = EDGE_CURVE ( 'NONE', #149, #244, #164, .T. ) ;
#234 = EDGE_LOOP ( 'NONE', ( #175, #57, #178, #136 ) ) ;
#235 = CARTESIAN_POINT ( 'NONE',  ( 0.0000000000000000000, 0.0000000000000000000, 2.465314999999999923 ) ) ;
#236 = ORIENTED_EDGE ( 'NONE', *, *, #43, .T. ) ;
#237 =( NAMED_UNIT ( * ) PLANE_ANGLE_UNIT ( ) SI_UNIT ( $, .RADIAN. ) );
#238 = FACE_OUTER_BOUND ( 'NONE', #234, .T. ) ;
#239 = VERTEX_POINT ( 'NONE', #80 ) ;
#240 = CARTESIAN_POINT ( 'NONE',  ( -0.1574804999999999955, 0.0000000000000000000, 2.465314999999999923 ) ) ;
#241 = DIRECTION ( 'NONE',  ( 1.000000000000000000, 0.0000000000000000000, -0.0000000000000000000 ) ) ;
#242 = DIRECTION ( 'NONE',  ( -0.0000000000000000000, -0.0000000000000000000, -1.000000000000000000 ) ) ;
#243 = CIRCLE ( 'NONE', #99, 0.1574804999999999955 ) ;
#244 = VERTEX_POINT ( 'NONE', #76 ) ;
#245 = DIRECTION ( 'NONE',  ( 1.000000000000000000, 0.0000000000000000000, 0.0000000000000000000 ) ) ;
#246 =( NAMED_UNIT ( * ) SI_UNIT ( $, .STERADIAN. ) SOLID_ANGLE_UNIT ( ) );
#247 = LINE ( 'NONE', #180, #159 ) ;
#248 = FILL_AREA_STYLE_COLOUR ( '', #189 ) ;
#249 = MECHANICAL_DESIGN_GEOMETRIC_PRESENTATION_REPRESENTATION (  '', ( #108 ), #9 ) ;
ENDSEC;
END-ISO-10303-21;
