ISO-10303-21;
HEADER;
FILE_DESCRIPTION (( 'STEP AP214' ),
    '1' );
FILE_NAME ('Micro_BEM-234-03.STEP',
    '2021-09-03T13:07:46',
    ( '' ),
    ( '' ),
    'SwSTEP 2.0',
    'SolidWorks 2020',
    '' );
FILE_SCHEMA (( 'AUTOMOTIVE_DESIGN' ));
ENDSEC;

DATA;
#1 = EDGE_CURVE ( 'NONE', #261, #240, #67, .T. ) ;
#2 = PRESENTATION_LAYER_ASSIGNMENT (  '', '', ( #26 ) ) ;
#3 = LINE ( 'NONE', #83, #217 ) ;
#4 = ORIENTED_EDGE ( 'NONE', *, *, #214, .T. ) ;
#5 = ORIENTED_EDGE ( 'NONE', *, *, #45, .T. ) ;
#6 = ADVANCED_FACE ( 'NONE', ( #279 ), #110, .T. ) ;
#7 = DIRECTION ( 'NONE',  ( -1.000000000000000000, 0.0000000000000000000, 1.224646799147353207E-16 ) ) ;
#8 = CARTESIAN_POINT ( 'NONE',  ( 0.0000000000000000000, 0.0000000000000000000, 2.500000000000000000 ) ) ;
#9 = PRODUCT_DEFINITION ( 'UNKNOWN', '', #311, #192 ) ;
#10 = CARTESIAN_POINT ( 'NONE',  ( -0.1170328499999999938, 0.0000000000000000000, 1.433239051475923174E-17 ) ) ;
#11 = LINE ( 'NONE', #233, #105 ) ;
#12 = AXIS2_PLACEMENT_3D ( 'NONE', #302, #129, #249 ) ;
#13 = VERTEX_POINT ( 'NONE', #22 ) ;
#14 = EDGE_LOOP ( 'NONE', ( #38, #319, #219, #211 ) ) ;
#15 = ORIENTED_EDGE ( 'NONE', *, *, #307, .T. ) ;
#16 = ADVANCED_FACE ( 'NONE', ( #131 ), #27, .T. ) ;
#17 =( NAMED_UNIT ( * ) PLANE_ANGLE_UNIT ( ) SI_UNIT ( $, .RADIAN. ) );
#18 = ORIENTED_EDGE ( 'NONE', *, *, #49, .T. ) ;
#19 = CIRCLE ( 'NONE', #140, 0.1100000000000001948 ) ;
#20 = ORIENTED_EDGE ( 'NONE', *, *, #273, .F. ) ;
#21 = EDGE_CURVE ( 'NONE', #295, #288, #56, .T. ) ;
#22 = CARTESIAN_POINT ( 'NONE',  ( 0.1250000000000000000, 1.530808498934191509E-17, 2.485000000000000320 ) ) ;
#23 = EDGE_CURVE ( 'NONE', #118, #28, #322, .T. ) ;
#24 = EDGE_CURVE ( 'NONE', #288, #295, #236, .T. ) ;
#25 = DIRECTION ( 'NONE',  ( 0.0000000000000000000, 0.0000000000000000000, -1.000000000000000000 ) ) ;
#26 = STYLED_ITEM ( 'NONE', ( #208 ), #226 ) ;
#27 = CYLINDRICAL_SURFACE ( 'NONE', #179, 0.1170328499999999938 ) ;
#28 = VERTEX_POINT ( 'NONE', #109 ) ;
#29 = CARTESIAN_POINT ( 'NONE',  ( 0.1170328499999999938, 1.433239051475923174E-17, -1.433239051475923174E-17 ) ) ;
#30 = AXIS2_PLACEMENT_3D ( 'NONE', #74, #275, #48 ) ;
#31 = CARTESIAN_POINT ( 'NONE',  ( -0.1170328499999999106, 1.433239051475923174E-17, 0.7500000000000001110 ) ) ;
#32 = LINE ( 'NONE', #31, #185 ) ;
#33 = DIRECTION ( 'NONE',  ( -1.224646799147353207E-16, -0.0000000000000000000, -1.000000000000000000 ) ) ;
#34 = VERTEX_POINT ( 'NONE', #206 ) ;
#35 = CYLINDRICAL_SURFACE ( 'NONE', #284, 0.1250000000000000000 ) ;
#36 = AXIS2_PLACEMENT_3D ( 'NONE', #182, #201, #205 ) ;
#37 = CIRCLE ( 'NONE', #78, 0.1250000000000000000 ) ;
#38 = ORIENTED_EDGE ( 'NONE', *, *, #188, .F. ) ;
#39 = DIRECTION ( 'NONE',  ( -1.000000000000000000, 0.0000000000000000000, 0.0000000000000000000 ) ) ;
#40 = EDGE_LOOP ( 'NONE', ( #264, #189, #313 ) ) ;
#41 = PRODUCT_DEFINITION_SHAPE ( 'NONE', 'NONE',  #9 ) ;
#42 = CARTESIAN_POINT ( 'NONE',  ( 9.184850993605150903E-17, 0.0000000000000000000, 0.7500000000000001110 ) ) ;
#43 = ORIENTED_EDGE ( 'NONE', *, *, #24, .F. ) ;
#44 = CARTESIAN_POINT ( 'NONE',  ( 0.1250000000000000000, 1.530808498934191509E-17, 2.500000000000000000 ) ) ;
#45 = EDGE_CURVE ( 'NONE', #186, #34, #3, .T. ) ;
#46 = MECHANICAL_DESIGN_GEOMETRIC_PRESENTATION_REPRESENTATION (  '', ( #26 ), #180 ) ;
#47 = CARTESIAN_POINT ( 'NONE',  ( 1.433239051475923174E-17, 0.0000000000000000000, 0.1170328499999999938 ) ) ;
#48 = DIRECTION ( 'NONE',  ( -1.000000000000000000, 0.0000000000000000000, 0.0000000000000000000 ) ) ;
#49 = EDGE_CURVE ( 'NONE', #194, #186, #139, .T. ) ;
#50 = FACE_OUTER_BOUND ( 'NONE', #14, .T. ) ;
#51 = DIRECTION ( 'NONE',  ( 1.000000000000000000, 0.0000000000000000000, 0.0000000000000000000 ) ) ;
#52 = ADVANCED_FACE ( 'NONE', ( #104 ), #305, .T. ) ;
#53 = AXIS2_PLACEMENT_3D ( 'NONE', #8, #112, #116 ) ;
#54 = PRODUCT_RELATED_PRODUCT_CATEGORY ( 'part', '', ( #61 ) ) ;
#55 = DIRECTION ( 'NONE',  ( -1.224646799147353207E-16, -0.0000000000000000000, -1.000000000000000000 ) ) ;
#56 = CIRCLE ( 'NONE', #200, 0.1250000000000000000 ) ;
#57 = CARTESIAN_POINT ( 'NONE',  ( 0.0000000000000000000, 0.0000000000000000000, 2.500000000000000000 ) ) ;
#58 = ADVANCED_FACE ( 'NONE', ( #222 ), #258, .T. ) ;
#59 = DIRECTION ( 'NONE',  ( 1.224646799147353207E-16, 1.000000000000000000, -0.0000000000000000000 ) ) ;
#60 = DIRECTION ( 'NONE',  ( 1.224646799147353207E-16, 0.0000000000000000000, 1.000000000000000000 ) ) ;
#61 = PRODUCT ( 'Micro_BEM-234-03', 'Micro_BEM-234-03', '', ( #106 ) ) ;
#62 = CARTESIAN_POINT ( 'NONE',  ( 1.433239051475923174E-17, 0.0000000000000000000, 0.1170328499999999938 ) ) ;
#63 = CONICAL_SURFACE ( 'NONE', #75, 0.1170328499999999938, 0.1745329251994338360 ) ;
#64 = CARTESIAN_POINT ( 'NONE',  ( 0.0000000000000000000, 0.0000000000000000000, 2.500000000000000000 ) ) ;
#65 = SURFACE_SIDE_STYLE ('',( #234 ) ) ;
#66 = ORIENTED_EDGE ( 'NONE', *, *, #273, .T. ) ;
#67 = CIRCLE ( 'NONE', #86, 0.1170328499999999938 ) ;
#68 =( NAMED_UNIT ( * ) PLANE_ANGLE_UNIT ( ) SI_UNIT ( $, .RADIAN. ) );
#69 = AXIS2_PLACEMENT_3D ( 'NONE', #187, #165, #39 ) ;
#70 = CONICAL_SURFACE ( 'NONE', #103, 0.1170328499999999938, 0.1745329251994338360 ) ;
#71 = EDGE_LOOP ( 'NONE', ( #15, #18 ) ) ;
#72 = ORIENTED_EDGE ( 'NONE', *, *, #152, .F. ) ;
#73 = DIRECTION ( 'NONE',  ( 1.000000000000000000, 0.0000000000000000000, 0.0000000000000000000 ) ) ;
#74 = CARTESIAN_POINT ( 'NONE',  ( 0.0000000000000000000, 0.0000000000000000000, 2.500000000000000000 ) ) ;
#75 = AXIS2_PLACEMENT_3D ( 'NONE', #42, #174, #73 ) ;
#76 = DIRECTION ( 'NONE',  ( -1.224646799147353207E-16, -0.0000000000000000000, -1.000000000000000000 ) ) ;
#77 =( LENGTH_UNIT ( ) NAMED_UNIT ( * ) SI_UNIT ( $, .METRE. ) );
#78 = AXIS2_PLACEMENT_3D ( 'NONE', #308, #184, #282 ) ;
#79 = APPLICATION_PROTOCOL_DEFINITION ( 'draft international standard', 'automotive_design', 1998, #202 ) ;
#80 = DIRECTION ( 'NONE',  ( 0.1736481776669313304, 0.0000000000000000000, 0.9848077530122077983 ) ) ;
#81 = FACE_OUTER_BOUND ( 'NONE', #71, .T. ) ;
#82 = EDGE_CURVE ( 'NONE', #245, #118, #203, .T. ) ;
#83 = CARTESIAN_POINT ( 'NONE',  ( -0.1100000000000001948, 0.0000000000000000000, 2.500000000000000000 ) ) ;
#84 = EDGE_CURVE ( 'NONE', #261, #28, #323, .T. ) ;
#85 = DIRECTION ( 'NONE',  ( 0.7071067811865499042, 8.659560562354961208E-17, -0.7071067811865451302 ) ) ;
#86 = AXIS2_PLACEMENT_3D ( 'NONE', #146, #59, #296 ) ;
#87 = VECTOR ( 'NONE', #221, 39.37007874015748143 ) ;
#88 = EDGE_CURVE ( 'NONE', #118, #288, #127, .T. ) ;
#89 = EDGE_LOOP ( 'NONE', ( #317, #163, #122, #120 ) ) ;
#90 = CARTESIAN_POINT ( 'NONE',  ( 0.0000000000000000000, 0.0000000000000000000, 2.485000000000000320 ) ) ;
#91 = EDGE_LOOP ( 'NONE', ( #293, #141, #99 ) ) ;
#92 = SPHERICAL_SURFACE ( 'NONE', #232, 0.1170328499999999938 ) ;
#93 = ORIENTED_EDGE ( 'NONE', *, *, #82, .T. ) ;
#94 = SURFACE_STYLE_FILL_AREA ( #167 ) ;
#95 = COLOUR_RGB ( '',0.7921568627450980005, 0.8196078431372548767, 0.9333333333333333481 ) ;
#96 = ORIENTED_EDGE ( 'NONE', *, *, #23, .T. ) ;
#97 = ADVANCED_FACE ( 'NONE', ( #81 ), #178, .T. ) ;
#98 = ADVANCED_BREP_SHAPE_REPRESENTATION ( 'Micro_BEM-234-03', ( #226, #12 ), #277 ) ;
#99 = ORIENTED_EDGE ( 'NONE', *, *, #280, .F. ) ;
#100 = DIRECTION ( 'NONE',  ( 1.224646799147353207E-16, 0.0000000000000000000, 1.000000000000000000 ) ) ;
#101 = DIRECTION ( 'NONE',  ( 0.0000000000000000000, 0.0000000000000000000, 1.000000000000000000 ) ) ;
#102 = AXIS2_PLACEMENT_3D ( 'NONE', #272, #175, #124 ) ;
#103 = AXIS2_PLACEMENT_3D ( 'NONE', #325, #271, #195 ) ;
#104 = FACE_OUTER_BOUND ( 'NONE', #91, .T. ) ;
#105 = VECTOR ( 'NONE', #159, 39.37007874015748143 ) ;
#106 = PRODUCT_CONTEXT ( 'NONE', #149, 'mechanical' ) ;
#107 = ADVANCED_FACE ( 'NONE', ( #254 ), #278, .T. ) ;
#108 = DIRECTION ( 'NONE',  ( -1.000000000000000000, 0.0000000000000000000, 0.0000000000000000000 ) ) ;
#109 = CARTESIAN_POINT ( 'NONE',  ( 0.1170328500000000077, 1.433239051475923174E-17, 0.1170328499999999800 ) ) ;
#110 = CYLINDRICAL_SURFACE ( 'NONE', #30, 0.1250000000000000000 ) ;
#111 = EDGE_CURVE ( 'NONE', #118, #245, #164, .T. ) ;
#112 = DIRECTION ( 'NONE',  ( 0.0000000000000000000, 0.0000000000000000000, -1.000000000000000000 ) ) ;
#113 = EDGE_CURVE ( 'NONE', #28, #240, #248, .T. ) ;
#114 = CARTESIAN_POINT ( 'NONE',  ( 0.1100000000000001948, 1.438959988998141146E-17, 2.500000000000000000 ) ) ;
#115 = FILL_AREA_STYLE ('',( #287 ) ) ;
#116 = DIRECTION ( 'NONE',  ( -1.000000000000000000, 0.0000000000000000000, 0.0000000000000000000 ) ) ;
#117 = CIRCLE ( 'NONE', #224, 0.1250000000000000000 ) ;
#118 = VERTEX_POINT ( 'NONE', #285 ) ;
#119 =( NAMED_UNIT ( * ) SI_UNIT ( $, .STERADIAN. ) SOLID_ANGLE_UNIT ( ) );
#120 = ORIENTED_EDGE ( 'NONE', *, *, #280, .T. ) ;
#121 = AXIS2_PLACEMENT_3D ( 'NONE', #227, #304, #108 ) ;
#122 = ORIENTED_EDGE ( 'NONE', *, *, #156, .T. ) ;
#123 = FILL_AREA_STYLE_COLOUR ( '', #292 ) ;
#124 = DIRECTION ( 'NONE',  ( 1.000000000000000000, 0.0000000000000000000, 0.0000000000000000000 ) ) ;
#125 =( CONVERSION_BASED_UNIT ( 'INCH', #276 ) LENGTH_UNIT ( ) NAMED_UNIT ( #137 ) );
#126 = AXIS2_PLACEMENT_3D ( 'NONE', #281, #33, #7 ) ;
#127 = LINE ( 'NONE', #204, #301 ) ;
#128 = ORIENTED_EDGE ( 'NONE', *, *, #214, .F. ) ;
#129 = DIRECTION ( 'NONE',  ( 0.0000000000000000000, 0.0000000000000000000, 1.000000000000000000 ) ) ;
#130 = ADVANCED_FACE ( 'NONE', ( #135 ), #92, .T. ) ;
#131 = FACE_OUTER_BOUND ( 'NONE', #89, .T. ) ;
#132 = ORIENTED_EDGE ( 'NONE', *, *, #225, .F. ) ;
#133 = AXIS2_PLACEMENT_3D ( 'NONE', #255, #199, #51 ) ;
#134 = DIRECTION ( 'NONE',  ( 1.000000000000000000, 0.0000000000000000000, 0.0000000000000000000 ) ) ;
#135 = FACE_OUTER_BOUND ( 'NONE', #40, .T. ) ;
#136 = DIRECTION ( 'NONE',  ( -0.1736481776669311639, 2.126576849575782392E-17, 0.9848077530122080203 ) ) ;
#137 = DIMENSIONAL_EXPONENTS ( 1.000000000000000000, 0.0000000000000000000, 0.0000000000000000000, 0.0000000000000000000, 0.0000000000000000000, 0.0000000000000000000, 0.0000000000000000000 ) ;
#138 = ORIENTED_EDGE ( 'NONE', *, *, #21, .F. ) ;
#139 = CIRCLE ( 'NONE', #133, 0.1100000000000001948 ) ;
#140 = AXIS2_PLACEMENT_3D ( 'NONE', #268, #318, #197 ) ;
#141 = ORIENTED_EDGE ( 'NONE', *, *, #84, .T. ) ;
#142 = CARTESIAN_POINT ( 'NONE',  ( -0.1170328499999999106, 1.482023775205057187E-17, 0.7500000000000001110 ) ) ;
#143 = EDGE_LOOP ( 'NONE', ( #20, #161, #191, #43 ) ) ;
#144 = VECTOR ( 'NONE', #283, 39.37007874015748143 ) ;
#145 = ORIENTED_EDGE ( 'NONE', *, *, #307, .F. ) ;
#146 = CARTESIAN_POINT ( 'NONE',  ( 1.433239051475923174E-17, 0.0000000000000000000, 0.1170328499999999938 ) ) ;
#147 =( CONVERSION_BASED_UNIT ( 'INCH', #274 ) LENGTH_UNIT ( ) NAMED_UNIT ( #253 ) );
#148 = VECTOR ( 'NONE', #76, 39.37007874015748143 ) ;
#149 = APPLICATION_CONTEXT ( 'automotive_design' ) ;
#150 = ADVANCED_FACE ( 'NONE', ( #238 ), #297, .T. ) ;
#151 = DIRECTION ( 'NONE',  ( 0.0000000000000000000, 1.000000000000000000, 0.0000000000000000000 ) ) ;
#152 = EDGE_CURVE ( 'NONE', #34, #295, #11, .T. ) ;
#153 = CARTESIAN_POINT ( 'NONE',  ( 9.738194827125370102E-17, 0.0000000000000000000, 0.7951839529491669945 ) ) ;
#154 =( GEOMETRIC_REPRESENTATION_CONTEXT ( 3 ) GLOBAL_UNCERTAINTY_ASSIGNED_CONTEXT ( ( #212 ) ) GLOBAL_UNIT_ASSIGNED_CONTEXT ( ( #147, #176, #169 ) ) REPRESENTATION_CONTEXT ( 'NONE', 'WORKASPACE' ) );
#155 = CARTESIAN_POINT ( 'NONE',  ( 0.0000000000000000000, 0.0000000000000000000, 0.0000000000000000000 ) ) ;
#156 = EDGE_CURVE ( 'NONE', #245, #240, #312, .T. ) ;
#157 = DIRECTION ( 'NONE',  ( -0.7071067811865499042, 0.0000000000000000000, -0.7071067811865451302 ) ) ;
#158 = AXIS2_PLACEMENT_3D ( 'NONE', #47, #100, #220 ) ;
#159 = DIRECTION ( 'NONE',  ( -0.0000000000000000000, -0.0000000000000000000, -1.000000000000000000 ) ) ;
#160 = LINE ( 'NONE', #207, #259 ) ;
#161 = ORIENTED_EDGE ( 'NONE', *, *, #225, .T. ) ;
#162 = CLOSED_SHELL ( 'NONE', ( #130, #107, #257, #150, #6, #209, #97, #58, #270, #16, #52 ) ) ;
#163 = ORIENTED_EDGE ( 'NONE', *, *, #111, .T. ) ;
#164 = CIRCLE ( 'NONE', #69, 0.1170328499999999938 ) ;
#165 = DIRECTION ( 'NONE',  ( -1.224646799147353207E-16, -0.0000000000000000000, -1.000000000000000000 ) ) ;
#166 = ORIENTED_EDGE ( 'NONE', *, *, #198, .F. ) ;
#167 = FILL_AREA_STYLE ('',( #123 ) ) ;
#168 = UNCERTAINTY_MEASURE_WITH_UNIT (LENGTH_MEASURE( 1.000000000000000082E-05 ), #125, 'distance_accuracy_value', 'NONE');
#169 =( NAMED_UNIT ( * ) SI_UNIT ( $, .STERADIAN. ) SOLID_ANGLE_UNIT ( ) );
#170 = ORIENTED_EDGE ( 'NONE', *, *, #88, .F. ) ;
#171 = CARTESIAN_POINT ( 'NONE',  ( 0.1250000000000001110, 1.530808498934192742E-17, 0.7951839529491669945 ) ) ;
#172 = DIRECTION ( 'NONE',  ( 1.000000000000000000, 0.0000000000000000000, 0.0000000000000000000 ) ) ;
#173 = UNCERTAINTY_MEASURE_WITH_UNIT (LENGTH_MEASURE( 1.000000000000000082E-05 ), #309, 'distance_accuracy_value', 'NONE');
#174 = DIRECTION ( 'NONE',  ( 1.224646799147353207E-16, 0.0000000000000000000, 1.000000000000000000 ) ) ;
#175 = DIRECTION ( 'NONE',  ( -1.224646799147353207E-16, -0.0000000000000000000, -1.000000000000000000 ) ) ;
#176 =( NAMED_UNIT ( * ) PLANE_ANGLE_UNIT ( ) SI_UNIT ( $, .RADIAN. ) );
#177 = DIRECTION ( 'NONE',  ( 1.000000000000000000, 0.0000000000000000000, -0.0000000000000000000 ) ) ;
#178 = PLANE ( 'NONE',  #223 ) ;
#179 = AXIS2_PLACEMENT_3D ( 'NONE', #155, #55, #230 ) ;
#180 =( GEOMETRIC_REPRESENTATION_CONTEXT ( 3 ) GLOBAL_UNCERTAINTY_ASSIGNED_CONTEXT ( ( #173 ) ) GLOBAL_UNIT_ASSIGNED_CONTEXT ( ( #309, #68, #119 ) ) REPRESENTATION_CONTEXT ( 'NONE', 'WORKASPACE' ) );
#181 = DIMENSIONAL_EXPONENTS ( 1.000000000000000000, 0.0000000000000000000, 0.0000000000000000000, 0.0000000000000000000, 0.0000000000000000000, 0.0000000000000000000, 0.0000000000000000000 ) ;
#182 = CARTESIAN_POINT ( 'NONE',  ( 0.0000000000000000000, 0.0000000000000000000, 2.500000000000000000 ) ) ;
#183 = FACE_OUTER_BOUND ( 'NONE', #196, .T. ) ;
#184 = DIRECTION ( 'NONE',  ( 0.0000000000000000000, 0.0000000000000000000, -1.000000000000000000 ) ) ;
#185 = VECTOR ( 'NONE', #136, 39.37007874015747433 ) ;
#186 = VERTEX_POINT ( 'NONE', #213 ) ;
#187 = CARTESIAN_POINT ( 'NONE',  ( 9.184850993605150903E-17, 0.0000000000000000000, 0.7500000000000001110 ) ) ;
#188 = EDGE_CURVE ( 'NONE', #245, #295, #32, .T. ) ;
#189 = ORIENTED_EDGE ( 'NONE', *, *, #1, .T. ) ;
#190 = DIRECTION ( 'NONE',  ( 1.000000000000000000, 0.0000000000000000000, 0.0000000000000000000 ) ) ;
#191 = ORIENTED_EDGE ( 'NONE', *, *, #152, .T. ) ;
#192 = PRODUCT_DEFINITION_CONTEXT ( 'detailed design', #202, 'design' ) ;
#193 = AXIS2_PLACEMENT_3D ( 'NONE', #303, #250, #25 ) ;
#194 = VERTEX_POINT ( 'NONE', #114 ) ;
#195 = DIRECTION ( 'NONE',  ( 1.000000000000000000, 0.0000000000000000000, 0.0000000000000000000 ) ) ;
#196 = EDGE_LOOP ( 'NONE', ( #216, #237, #215, #170 ) ) ;
#197 = DIRECTION ( 'NONE',  ( 1.000000000000000000, 0.0000000000000000000, 0.0000000000000000000 ) ) ;
#198 = EDGE_CURVE ( 'NONE', #34, #13, #37, .T. ) ;
#199 = DIRECTION ( 'NONE',  ( 0.0000000000000000000, 0.0000000000000000000, 1.000000000000000000 ) ) ;
#200 = AXIS2_PLACEMENT_3D ( 'NONE', #153, #299, #172 ) ;
#201 = DIRECTION ( 'NONE',  ( 0.0000000000000000000, 0.0000000000000000000, -1.000000000000000000 ) ) ;
#202 = APPLICATION_CONTEXT ( 'automotive_design' ) ;
#203 = CIRCLE ( 'NONE', #121, 0.1170328499999999938 ) ;
#204 = CARTESIAN_POINT ( 'NONE',  ( 0.1170328500000000771, 0.0000000000000000000, 0.7500000000000001110 ) ) ;
#205 = DIRECTION ( 'NONE',  ( -1.000000000000000000, 0.0000000000000000000, 0.0000000000000000000 ) ) ;
#206 = CARTESIAN_POINT ( 'NONE',  ( -0.1250000000000000000, 0.0000000000000000000, 2.485000000000000320 ) ) ;
#207 = CARTESIAN_POINT ( 'NONE',  ( 0.1100000000000001948, 1.347111479062090784E-17, 2.500000000000000000 ) ) ;
#208 = PRESENTATION_STYLE_ASSIGNMENT (( #310 ) ) ;
#209 = ADVANCED_FACE ( 'NONE', ( #314 ), #35, .T. ) ;
#210 = CARTESIAN_POINT ( 'NONE',  ( 1.433239051475923174E-17, 0.0000000000000000000, 0.1170328499999999938 ) ) ;
#211 = ORIENTED_EDGE ( 'NONE', *, *, #24, .T. ) ;
#212 = UNCERTAINTY_MEASURE_WITH_UNIT (LENGTH_MEASURE( 1.000000000000000082E-05 ), #147, 'distance_accuracy_value', 'NONE');
#213 = CARTESIAN_POINT ( 'NONE',  ( -0.1100000000000001948, 0.0000000000000000000, 2.500000000000000000 ) ) ;
#214 = EDGE_CURVE ( 'NONE', #194, #13, #160, .T. ) ;
#215 = ORIENTED_EDGE ( 'NONE', *, *, #21, .T. ) ;
#216 = ORIENTED_EDGE ( 'NONE', *, *, #82, .F. ) ;
#217 = VECTOR ( 'NONE', #157, 39.37007874015748143 ) ;
#218 = SURFACE_SIDE_STYLE ('',( #94 ) ) ;
#219 = ORIENTED_EDGE ( 'NONE', *, *, #88, .T. ) ;
#220 = DIRECTION ( 'NONE',  ( -1.000000000000000000, 0.0000000000000000000, 1.458910892147089034E-16 ) ) ;
#221 = DIRECTION ( 'NONE',  ( -0.0000000000000000000, -0.0000000000000000000, -1.000000000000000000 ) ) ;
#222 = FACE_OUTER_BOUND ( 'NONE', #267, .T. ) ;
#223 = AXIS2_PLACEMENT_3D ( 'NONE', #57, #101, #177 ) ;
#224 = AXIS2_PLACEMENT_3D ( 'NONE', #90, #260, #190 ) ;
#225 = EDGE_CURVE ( 'NONE', #13, #34, #117, .T. ) ;
#226 = MANIFOLD_SOLID_BREP ( 'Fillet1', #162 ) ;
#227 = CARTESIAN_POINT ( 'NONE',  ( 9.184850993605150903E-17, 0.0000000000000000000, 0.7500000000000001110 ) ) ;
#228 = DIRECTION ( 'NONE',  ( 1.000000000000000000, 0.0000000000000000000, 0.0000000000000000000 ) ) ;
#229 = SHAPE_DEFINITION_REPRESENTATION ( #41, #98 ) ;
#230 = DIRECTION ( 'NONE',  ( -1.000000000000000000, 0.0000000000000000000, 1.224646799147353207E-16 ) ) ;
#231 = DIRECTION ( 'NONE',  ( -1.000000000000000000, 0.0000000000000000000, 0.0000000000000000000 ) ) ;
#232 = AXIS2_PLACEMENT_3D ( 'NONE', #210, #265, #134 ) ;
#233 = CARTESIAN_POINT ( 'NONE',  ( -0.1250000000000000000, 0.0000000000000000000, 2.500000000000000000 ) ) ;
#234 = SURFACE_STYLE_FILL_AREA ( #115 ) ;
#235 = DIRECTION ( 'NONE',  ( -0.0000000000000000000, -0.0000000000000000000, -1.000000000000000000 ) ) ;
#236 = CIRCLE ( 'NONE', #102, 0.1250000000000000000 ) ;
#237 = ORIENTED_EDGE ( 'NONE', *, *, #188, .T. ) ;
#238 = FACE_OUTER_BOUND ( 'NONE', #291, .T. ) ;
#239 = EDGE_LOOP ( 'NONE', ( #93, #96, #242, #315 ) ) ;
#240 = VERTEX_POINT ( 'NONE', #320 ) ;
#241 =( LENGTH_UNIT ( ) NAMED_UNIT ( * ) SI_UNIT ( $, .METRE. ) );
#242 = ORIENTED_EDGE ( 'NONE', *, *, #113, .T. ) ;
#243 = PRESENTATION_LAYER_ASSIGNMENT (  '', '', ( #324 ) ) ;
#244 = LINE ( 'NONE', #44, #87 ) ;
#245 = VERTEX_POINT ( 'NONE', #142 ) ;
#246 =( NAMED_UNIT ( * ) SI_UNIT ( $, .STERADIAN. ) SOLID_ANGLE_UNIT ( ) );
#247 = ORIENTED_EDGE ( 'NONE', *, *, #198, .T. ) ;
#248 = CIRCLE ( 'NONE', #290, 0.1170328499999999938 ) ;
#249 = DIRECTION ( 'NONE',  ( 1.000000000000000000, 0.0000000000000000000, 0.0000000000000000000 ) ) ;
#250 = DIRECTION ( 'NONE',  ( 0.0000000000000000000, -1.000000000000000000, 0.0000000000000000000 ) ) ;
#251 = CARTESIAN_POINT ( 'NONE',  ( 1.433239051475923174E-17, 0.0000000000000000000, 0.1170328499999999938 ) ) ;
#252 = CIRCLE ( 'NONE', #158, 0.1170328499999999938 ) ;
#253 = DIMENSIONAL_EXPONENTS ( 1.000000000000000000, 0.0000000000000000000, 0.0000000000000000000, 0.0000000000000000000, 0.0000000000000000000, 0.0000000000000000000, 0.0000000000000000000 ) ;
#254 = FACE_OUTER_BOUND ( 'NONE', #239, .T. ) ;
#255 = CARTESIAN_POINT ( 'NONE',  ( 0.0000000000000000000, 0.0000000000000000000, 2.500000000000000000 ) ) ;
#256 = LENGTH_MEASURE_WITH_UNIT ( LENGTH_MEASURE( 0.02539999999999999897 ), #262 );
#257 = ADVANCED_FACE ( 'NONE', ( #183 ), #63, .T. ) ;
#258 = CONICAL_SURFACE ( 'NONE', #36, 0.1100000000000001948, 0.7853981633974517207 ) ;
#259 = VECTOR ( 'NONE', #85, 39.37007874015748143 ) ;
#260 = DIRECTION ( 'NONE',  ( 0.0000000000000000000, 0.0000000000000000000, -1.000000000000000000 ) ) ;
#261 = VERTEX_POINT ( 'NONE', #316 ) ;
#262 =( LENGTH_UNIT ( ) NAMED_UNIT ( * ) SI_UNIT ( $, .METRE. ) );
#263 = AXIS2_PLACEMENT_3D ( 'NONE', #251, #151, #228 ) ;
#264 = ORIENTED_EDGE ( 'NONE', *, *, #84, .F. ) ;
#265 = DIRECTION ( 'NONE',  ( 0.0000000000000000000, 1.000000000000000000, 0.0000000000000000000 ) ) ;
#266 = EDGE_LOOP ( 'NONE', ( #247, #66, #138, #72 ) ) ;
#267 = EDGE_LOOP ( 'NONE', ( #128, #145, #5, #132 ) ) ;
#268 = CARTESIAN_POINT ( 'NONE',  ( 0.0000000000000000000, 0.0000000000000000000, 2.500000000000000000 ) ) ;
#269 = ORIENTED_EDGE ( 'NONE', *, *, #45, .F. ) ;
#270 = ADVANCED_FACE ( 'NONE', ( #50 ), #70, .T. ) ;
#271 = DIRECTION ( 'NONE',  ( 1.224646799147353207E-16, 0.0000000000000000000, 1.000000000000000000 ) ) ;
#272 = CARTESIAN_POINT ( 'NONE',  ( 9.738194827125370102E-17, 0.0000000000000000000, 0.7951839529491669945 ) ) ;
#273 = EDGE_CURVE ( 'NONE', #13, #288, #244, .T. ) ;
#274 = LENGTH_MEASURE_WITH_UNIT ( LENGTH_MEASURE( 0.02539999999999999897 ), #77 );
#275 = DIRECTION ( 'NONE',  ( -0.0000000000000000000, -0.0000000000000000000, -1.000000000000000000 ) ) ;
#276 = LENGTH_MEASURE_WITH_UNIT ( LENGTH_MEASURE( 0.02539999999999999897 ), #241 );
#277 =( GEOMETRIC_REPRESENTATION_CONTEXT ( 3 ) GLOBAL_UNCERTAINTY_ASSIGNED_CONTEXT ( ( #168 ) ) GLOBAL_UNIT_ASSIGNED_CONTEXT ( ( #125, #17, #246 ) ) REPRESENTATION_CONTEXT ( 'NONE', 'WORKASPACE' ) );
#278 = CYLINDRICAL_SURFACE ( 'NONE', #126, 0.1170328499999999938 ) ;
#279 = FACE_OUTER_BOUND ( 'NONE', #266, .T. ) ;
#280 = EDGE_CURVE ( 'NONE', #240, #28, #252, .T. ) ;
#281 = CARTESIAN_POINT ( 'NONE',  ( 0.0000000000000000000, 0.0000000000000000000, 0.0000000000000000000 ) ) ;
#282 = DIRECTION ( 'NONE',  ( 1.000000000000000000, 0.0000000000000000000, 0.0000000000000000000 ) ) ;
#283 = DIRECTION ( 'NONE',  ( -1.224646799147353207E-16, -0.0000000000000000000, -1.000000000000000000 ) ) ;
#284 = AXIS2_PLACEMENT_3D ( 'NONE', #64, #235, #231 ) ;
#285 = CARTESIAN_POINT ( 'NONE',  ( 0.1170328500000000771, 0.0000000000000000000, 0.7500000000000001110 ) ) ;
#286 = ORIENTED_EDGE ( 'NONE', *, *, #49, .F. ) ;
#287 = FILL_AREA_STYLE_COLOUR ( '', #95 ) ;
#288 = VERTEX_POINT ( 'NONE', #171 ) ;
#289 = DIRECTION ( 'NONE',  ( -1.000000000000000000, 0.0000000000000000000, 1.458910892147089034E-16 ) ) ;
#290 = AXIS2_PLACEMENT_3D ( 'NONE', #62, #60, #289 ) ;
#291 = EDGE_LOOP ( 'NONE', ( #286, #4, #166, #269 ) ) ;
#292 = COLOUR_RGB ( '',0.7921568627450980005, 0.8196078431372548767, 0.9333333333333333481 ) ;
#293 = ORIENTED_EDGE ( 'NONE', *, *, #1, .F. ) ;
#294 = APPLICATION_PROTOCOL_DEFINITION ( 'draft international standard', 'automotive_design', 1998, #149 ) ;
#295 = VERTEX_POINT ( 'NONE', #300 ) ;
#296 = DIRECTION ( 'NONE',  ( -1.000000000000000000, 1.224646799147353207E-16, 0.0000000000000000000 ) ) ;
#297 = CONICAL_SURFACE ( 'NONE', #53, 0.1100000000000001948, 0.7853981633974517207 ) ;
#298 = PRESENTATION_STYLE_ASSIGNMENT (( #321 ) ) ;
#299 = DIRECTION ( 'NONE',  ( -1.224646799147353207E-16, -0.0000000000000000000, -1.000000000000000000 ) ) ;
#300 = CARTESIAN_POINT ( 'NONE',  ( -0.1249999999999999029, 0.0000000000000000000, 0.7951839529491669945 ) ) ;
#301 = VECTOR ( 'NONE', #80, 39.37007874015748143 ) ;
#302 = CARTESIAN_POINT ( 'NONE',  ( 0.0000000000000000000, 0.0000000000000000000, 0.0000000000000000000 ) ) ;
#303 = CARTESIAN_POINT ( 'NONE',  ( 1.433239051475923174E-17, 0.0000000000000000000, 0.1170328499999999938 ) ) ;
#304 = DIRECTION ( 'NONE',  ( -1.224646799147353207E-16, -0.0000000000000000000, -1.000000000000000000 ) ) ;
#305 = SPHERICAL_SURFACE ( 'NONE', #263, 0.1170328499999999938 ) ;
#306 = MECHANICAL_DESIGN_GEOMETRIC_PRESENTATION_REPRESENTATION (  '', ( #324 ), #154 ) ;
#307 = EDGE_CURVE ( 'NONE', #186, #194, #19, .T. ) ;
#308 = CARTESIAN_POINT ( 'NONE',  ( 0.0000000000000000000, 0.0000000000000000000, 2.485000000000000320 ) ) ;
#309 =( CONVERSION_BASED_UNIT ( 'INCH', #256 ) LENGTH_UNIT ( ) NAMED_UNIT ( #181 ) );
#310 = SURFACE_STYLE_USAGE ( .BOTH. , #65 ) ;
#311 = PRODUCT_DEFINITION_FORMATION_WITH_SPECIFIED_SOURCE ( 'ANY', '', #61, .NOT_KNOWN. ) ;
#312 = LINE ( 'NONE', #10, #144 ) ;
#313 = ORIENTED_EDGE ( 'NONE', *, *, #113, .F. ) ;
#314 = FACE_OUTER_BOUND ( 'NONE', #143, .T. ) ;
#315 = ORIENTED_EDGE ( 'NONE', *, *, #156, .F. ) ;
#316 = CARTESIAN_POINT ( 'NONE',  ( 2.149858577213884760E-17, 0.0000000000000000000, 0.0000000000000000000 ) ) ;
#317 = ORIENTED_EDGE ( 'NONE', *, *, #23, .F. ) ;
#318 = DIRECTION ( 'NONE',  ( 0.0000000000000000000, 0.0000000000000000000, 1.000000000000000000 ) ) ;
#319 = ORIENTED_EDGE ( 'NONE', *, *, #111, .F. ) ;
#320 = CARTESIAN_POINT ( 'NONE',  ( -0.1170328499999999800, 0.0000000000000000000, 0.1170328500000000077 ) ) ;
#321 = SURFACE_STYLE_USAGE ( .BOTH. , #218 ) ;
#322 = LINE ( 'NONE', #29, #148 ) ;
#323 = CIRCLE ( 'NONE', #193, 0.1170328499999999938 ) ;
#324 = STYLED_ITEM ( 'NONE', ( #298 ), #98 ) ;
#325 = CARTESIAN_POINT ( 'NONE',  ( 9.184850993605150903E-17, 0.0000000000000000000, 0.7500000000000001110 ) ) ;
ENDSEC;
END-ISO-10303-21;
