ISO-10303-21;
HEADER;
FILE_DESCRIPTION (( 'STEP AP214' ),
    '1' );
FILE_NAME ('Micro_BMS-018-2.STEP',
    '2021-09-03T14:53:18',
    ( '' ),
    ( '' ),
    'SwSTEP 2.0',
    'SolidWorks 2020',
    '' );
FILE_SCHEMA (( 'AUTOMOTIVE_DESIGN' ));
ENDSEC;

DATA;
#1 = VERTEX_POINT ( 'NONE', #152 ) ;
#2 = DIRECTION ( 'NONE',  ( 0.0000000000000000000, 0.0000000000000000000, 1.000000000000000000 ) ) ;
#3 = UNCERTAINTY_MEASURE_WITH_UNIT (LENGTH_MEASURE( 1.000000000000000082E-05 ), #228, 'distance_accuracy_value', 'NONE');
#4 = CONICAL_SURFACE ( 'NONE', #164, 0.008991000000000000728, 0.1745329251994338360 ) ;
#5 =( GEOMETRIC_REPRESENTATION_CONTEXT ( 3 ) GLOBAL_UNCERTAINTY_ASSIGNED_CONTEXT ( ( #128 ) ) GLOBAL_UNIT_ASSIGNED_CONTEXT ( ( #238, #70, #39 ) ) REPRESENTATION_CONTEXT ( 'NONE', 'WORKASPACE' ) );
#6 = CARTESIAN_POINT ( 'NONE',  ( 0.0000000000000000000, 0.0000000000000000000, 0.0000000000000000000 ) ) ;
#7 = DIRECTION ( 'NONE',  ( 0.0000000000000000000, 0.0000000000000000000, -1.000000000000000000 ) ) ;
#8 = CARTESIAN_POINT ( 'NONE',  ( 4.047024377500949802E-17, 0.0000000000000000000, 0.3304646188859224898 ) ) ;
#9 =( LENGTH_UNIT ( ) NAMED_UNIT ( * ) SI_UNIT ( $, .METRE. ) );
#10 = CONICAL_SURFACE ( 'NONE', #158, 0.008991000000000000728, 0.1745329251994338360 ) ;
#11 = EDGE_CURVE ( 'NONE', #17, #287, #114, .T. ) ;
#12 = UNCERTAINTY_MEASURE_WITH_UNIT (LENGTH_MEASURE( 1.000000000000000082E-05 ), #102, 'distance_accuracy_value', 'NONE');
#13 = CARTESIAN_POINT ( 'NONE',  ( 1.101079937113385482E-18, 0.0000000000000000000, 0.008991000000000000728 ) ) ;
#14 = ORIENTED_EDGE ( 'NONE', *, *, #82, .T. ) ;
#15 = ORIENTED_EDGE ( 'NONE', *, *, #319, .F. ) ;
#16 = MECHANICAL_DESIGN_GEOMETRIC_PRESENTATION_REPRESENTATION (  '', ( #60 ), #273 ) ;
#17 = VERTEX_POINT ( 'NONE', #199 ) ;
#18 = ORIENTED_EDGE ( 'NONE', *, *, #11, .F. ) ;
#19 = CIRCLE ( 'NONE', #229, 0.008990999999999998993 ) ;
#20 = ORIENTED_EDGE ( 'NONE', *, *, #240, .T. ) ;
#21 = ORIENTED_EDGE ( 'NONE', *, *, #85, .T. ) ;
#22 = CARTESIAN_POINT ( 'NONE',  ( -0.06250000000000000000, 0.0000000000000000000, 1.500000000000000222 ) ) ;
#23 = EDGE_LOOP ( 'NONE', ( #116, #274, #261 ) ) ;
#24 = CIRCLE ( 'NONE', #320, 0.008990999999999998993 ) ;
#25 = EDGE_LOOP ( 'NONE', ( #257, #246, #21, #234 ) ) ;
#26 = CARTESIAN_POINT ( 'NONE',  ( 1.101079937113385482E-18, 0.0000000000000000000, 0.008991000000000000728 ) ) ;
#27 = CYLINDRICAL_SURFACE ( 'NONE', #249, 0.06250000000000000000 ) ;
#28 = PRODUCT_CONTEXT ( 'NONE', #283, 'mechanical' ) ;
#29 = DIRECTION ( 'NONE',  ( 1.000000000000000000, 0.0000000000000000000, 0.0000000000000000000 ) ) ;
#30 = AXIS2_PLACEMENT_3D ( 'NONE', #175, #232, #294 ) ;
#31 = DIRECTION ( 'NONE',  ( 1.224646799147353454E-16, 0.0000000000000000000, 1.000000000000000000 ) ) ;
#32 = FACE_OUTER_BOUND ( 'NONE', #170, .T. ) ;
#33 = SHAPE_DEFINITION_REPRESENTATION ( #100, #226 ) ;
#34 = CARTESIAN_POINT ( 'NONE',  ( 0.0000000000000000000, 0.0000000000000000000, 1.500000000000000222 ) ) ;
#35 = CARTESIAN_POINT ( 'NONE',  ( 0.06250000000000000000, 7.654042494670956004E-18, 1.485000000000000764 ) ) ;
#36 = VERTEX_POINT ( 'NONE', #220 ) ;
#37 = ORIENTED_EDGE ( 'NONE', *, *, #286, .T. ) ;
#38 = ORIENTED_EDGE ( 'NONE', *, *, #284, .T. ) ;
#39 =( NAMED_UNIT ( * ) SI_UNIT ( $, .STERADIAN. ) SOLID_ANGLE_UNIT ( ) );
#40 = ORIENTED_EDGE ( 'NONE', *, *, #312, .T. ) ;
#41 = LENGTH_MEASURE_WITH_UNIT ( LENGTH_MEASURE( 0.02539999999999999897 ), #125 );
#42 = COLOUR_RGB ( '',0.7921568627450980005, 0.8196078431372548767, 0.9333333333333333481 ) ;
#43 = DIRECTION ( 'NONE',  ( 0.0000000000000000000, 0.0000000000000000000, -1.000000000000000000 ) ) ;
#44 = DIRECTION ( 'NONE',  ( -1.000000000000000000, 0.0000000000000000000, 0.0000000000000000000 ) ) ;
#45 = LINE ( 'NONE', #202, #235 ) ;
#46 = CARTESIAN_POINT ( 'NONE',  ( 0.04750000000000064587, 6.735557395310482421E-18, 1.500000000000000222 ) ) ;
#47 = CARTESIAN_POINT ( 'NONE',  ( 0.0000000000000000000, 0.0000000000000000000, 1.485000000000000764 ) ) ;
#48 = CARTESIAN_POINT ( 'NONE',  ( 1.101079937113385482E-18, 0.0000000000000000000, 0.008991000000000000728 ) ) ;
#49 = EDGE_CURVE ( 'NONE', #94, #61, #291, .T. ) ;
#50 = LINE ( 'NONE', #180, #219 ) ;
#51 =( NAMED_UNIT ( * ) PLANE_ANGLE_UNIT ( ) SI_UNIT ( $, .RADIAN. ) );
#52 = DIRECTION ( 'NONE',  ( 1.000000000000000000, 0.0000000000000000000, -0.0000000000000000000 ) ) ;
#53 = ADVANCED_FACE ( 'NONE', ( #97 ), #10, .T. ) ;
#54 = EDGE_CURVE ( 'NONE', #178, #36, #305, .T. ) ;
#55 = FACE_OUTER_BOUND ( 'NONE', #183, .T. ) ;
#56 = PRESENTATION_LAYER_ASSIGNMENT (  '', '', ( #276 ) ) ;
#57 = CYLINDRICAL_SURFACE ( 'NONE', #141, 0.008990999999999998993 ) ;
#58 = APPLICATION_PROTOCOL_DEFINITION ( 'draft international standard', 'automotive_design', 1998, #311 ) ;
#59 = CARTESIAN_POINT ( 'NONE',  ( 0.008991000000000000728, 1.101079937113385097E-18, 0.008990999999999998993 ) ) ;
#60 = STYLED_ITEM ( 'NONE', ( #133 ), #226 ) ;
#61 = VERTEX_POINT ( 'NONE', #293 ) ;
#62 = EDGE_LOOP ( 'NONE', ( #142, #244, #144, #198 ) ) ;
#63 = CONICAL_SURFACE ( 'NONE', #84, 0.04750000000000064587, 0.7853981633974457255 ) ;
#64 = CARTESIAN_POINT ( 'NONE',  ( 0.06250000000000000000, 7.654042494670956004E-18, 1.500000000000000222 ) ) ;
#65 = DIRECTION ( 'NONE',  ( 0.0000000000000000000, 0.0000000000000000000, 1.000000000000000000 ) ) ;
#66 = ORIENTED_EDGE ( 'NONE', *, *, #254, .F. ) ;
#67 = FACE_OUTER_BOUND ( 'NONE', #289, .T. ) ;
#68 = ORIENTED_EDGE ( 'NONE', *, *, #11, .T. ) ;
#69 = VECTOR ( 'NONE', #278, 39.37007874015748143 ) ;
#70 =( NAMED_UNIT ( * ) PLANE_ANGLE_UNIT ( ) SI_UNIT ( $, .RADIAN. ) );
#71 = VERTEX_POINT ( 'NONE', #265 ) ;
#72 = FILL_AREA_STYLE_COLOUR ( '', #314 ) ;
#73 = PLANE ( 'NONE',  #258 ) ;
#74 = DIRECTION ( 'NONE',  ( 0.0000000000000000000, 1.000000000000000000, 0.0000000000000000000 ) ) ;
#75 = CARTESIAN_POINT ( 'NONE',  ( 3.306546357697854427E-18, 0.0000000000000000000, 0.02699999999999999969 ) ) ;
#76 = AXIS2_PLACEMENT_3D ( 'NONE', #155, #77, #99 ) ;
#77 = DIRECTION ( 'NONE',  ( 0.0000000000000000000, 0.0000000000000000000, -1.000000000000000000 ) ) ;
#78 = LENGTH_MEASURE_WITH_UNIT ( LENGTH_MEASURE( 0.02539999999999999897 ), #9 );
#79 = CARTESIAN_POINT ( 'NONE',  ( 0.06250000000000004163, 7.654042494670960626E-18, 0.3304646188859224898 ) ) ;
#80 = FACE_OUTER_BOUND ( 'NONE', #62, .T. ) ;
#81 = DIRECTION ( 'NONE',  ( -1.224646799147353454E-16, -0.0000000000000000000, -1.000000000000000000 ) ) ;
#82 = EDGE_CURVE ( 'NONE', #1, #17, #45, .T. ) ;
#83 = CARTESIAN_POINT ( 'NONE',  ( 0.008991000000000004197, 0.0000000000000000000, 0.02699999999999999969 ) ) ;
#84 = AXIS2_PLACEMENT_3D ( 'NONE', #159, #134, #86 ) ;
#85 = EDGE_CURVE ( 'NONE', #178, #231, #50, .T. ) ;
#86 = DIRECTION ( 'NONE',  ( -1.000000000000000000, 0.0000000000000000000, 0.0000000000000000000 ) ) ;
#87 = CARTESIAN_POINT ( 'NONE',  ( 0.008990999999999998993, 1.101079937113385097E-18, -1.101079937113385289E-18 ) ) ;
#88 = DIMENSIONAL_EXPONENTS ( 1.000000000000000000, 0.0000000000000000000, 0.0000000000000000000, 0.0000000000000000000, 0.0000000000000000000, 0.0000000000000000000, 0.0000000000000000000 ) ;
#89 = CIRCLE ( 'NONE', #309, 0.06250000000000000000 ) ;
#90 = ORIENTED_EDGE ( 'NONE', *, *, #303, .F. ) ;
#91 = VECTOR ( 'NONE', #109, 39.37007874015748143 ) ;
#92 = ORIENTED_EDGE ( 'NONE', *, *, #296, .F. ) ;
#93 = ADVANCED_FACE ( 'NONE', ( #221 ), #73, .T. ) ;
#94 = VERTEX_POINT ( 'NONE', #322 ) ;
#95 = ORIENTED_EDGE ( 'NONE', *, *, #227, .T. ) ;
#96 = FACE_OUTER_BOUND ( 'NONE', #282, .T. ) ;
#97 = FACE_OUTER_BOUND ( 'NONE', #25, .T. ) ;
#98 = CONICAL_SURFACE ( 'NONE', #139, 0.04750000000000064587, 0.7853981633974457255 ) ;
#99 = DIRECTION ( 'NONE',  ( 1.000000000000000000, 0.0000000000000000000, 0.0000000000000000000 ) ) ;
#100 = PRODUCT_DEFINITION_SHAPE ( 'NONE', 'NONE',  #104 ) ;
#101 = DIRECTION ( 'NONE',  ( 1.000000000000000000, 0.0000000000000000000, 0.0000000000000000000 ) ) ;
#102 =( CONVERSION_BASED_UNIT ( 'INCH', #78 ) LENGTH_UNIT ( ) NAMED_UNIT ( #205 ) );
#103 = FILL_AREA_STYLE ('',( #297 ) ) ;
#104 = PRODUCT_DEFINITION ( 'UNKNOWN', '', #188, #118 ) ;
#105 = DIRECTION ( 'NONE',  ( 1.000000000000000000, 0.0000000000000000000, 0.0000000000000000000 ) ) ;
#106 = CARTESIAN_POINT ( 'NONE',  ( 0.0000000000000000000, 0.0000000000000000000, 0.0000000000000000000 ) ) ;
#107 = CIRCLE ( 'NONE', #145, 0.06250000000000000000 ) ;
#108 = DIRECTION ( 'NONE',  ( -1.224646799147353454E-16, -0.0000000000000000000, -1.000000000000000000 ) ) ;
#109 = DIRECTION ( 'NONE',  ( -1.224646799147353454E-16, -0.0000000000000000000, -1.000000000000000000 ) ) ;
#110 = DIRECTION ( 'NONE',  ( 0.0000000000000000000, 0.0000000000000000000, -1.000000000000000000 ) ) ;
#111 = MANIFOLD_SOLID_BREP ( 'Fillet1', #169 ) ;
#112 = AXIS2_PLACEMENT_3D ( 'NONE', #214, #65, #266 ) ;
#113 = VERTEX_POINT ( 'NONE', #59 ) ;
#114 = CIRCLE ( 'NONE', #76, 0.06250000000000000000 ) ;
#115 = CARTESIAN_POINT ( 'NONE',  ( 1.101079937113385482E-18, 0.0000000000000000000, 0.008991000000000000728 ) ) ;
#116 = ORIENTED_EDGE ( 'NONE', *, *, #49, .F. ) ;
#117 = CARTESIAN_POINT ( 'NONE',  ( 1.101079937113385482E-18, 0.0000000000000000000, 0.008991000000000000728 ) ) ;
#118 = PRODUCT_DEFINITION_CONTEXT ( 'detailed design', #311, 'design' ) ;
#119 = CARTESIAN_POINT ( 'NONE',  ( 3.306546357697854427E-18, 0.0000000000000000000, 0.02699999999999999969 ) ) ;
#120 = EDGE_CURVE ( 'NONE', #287, #17, #224, .T. ) ;
#121 = CARTESIAN_POINT ( 'NONE',  ( 0.0000000000000000000, 0.0000000000000000000, 1.500000000000000222 ) ) ;
#122 = MECHANICAL_DESIGN_GEOMETRIC_PRESENTATION_REPRESENTATION (  '', ( #276 ), #280 ) ;
#123 = APPLICATION_PROTOCOL_DEFINITION ( 'draft international standard', 'automotive_design', 1998, #283 ) ;
#124 = ORIENTED_EDGE ( 'NONE', *, *, #49, .T. ) ;
#125 =( LENGTH_UNIT ( ) NAMED_UNIT ( * ) SI_UNIT ( $, .METRE. ) );
#126 = DIRECTION ( 'NONE',  ( -1.000000000000000000, 1.224646799147353207E-16, 0.0000000000000000000 ) ) ;
#127 = SURFACE_STYLE_USAGE ( .BOTH. , #161 ) ;
#128 = UNCERTAINTY_MEASURE_WITH_UNIT (LENGTH_MEASURE( 1.000000000000000082E-05 ), #238, 'distance_accuracy_value', 'NONE');
#129 = AXIS2_PLACEMENT_3D ( 'NONE', #47, #7, #29 ) ;
#130 = DIRECTION ( 'NONE',  ( -1.224646799147353454E-16, -0.0000000000000000000, -1.000000000000000000 ) ) ;
#131 = DIMENSIONAL_EXPONENTS ( 1.000000000000000000, 0.0000000000000000000, 0.0000000000000000000, 0.0000000000000000000, 0.0000000000000000000, 0.0000000000000000000, 0.0000000000000000000 ) ;
#132 = DIRECTION ( 'NONE',  ( -0.0000000000000000000, -0.0000000000000000000, -1.000000000000000000 ) ) ;
#133 = PRESENTATION_STYLE_ASSIGNMENT (( #127 ) ) ;
#134 = DIRECTION ( 'NONE',  ( 0.0000000000000000000, 0.0000000000000000000, -1.000000000000000000 ) ) ;
#135 = EDGE_CURVE ( 'NONE', #231, #71, #107, .T. ) ;
#136 = ADVANCED_FACE ( 'NONE', ( #32 ), #277, .T. ) ;
#137 = DIRECTION ( 'NONE',  ( -1.000000000000000000, 0.0000000000000000000, 1.186884798715496451E-16 ) ) ;
#138 = DIRECTION ( 'NONE',  ( 1.224646799147353454E-16, 0.0000000000000000000, 1.000000000000000000 ) ) ;
#139 = AXIS2_PLACEMENT_3D ( 'NONE', #34, #110, #210 ) ;
#140 = AXIS2_PLACEMENT_3D ( 'NONE', #269, #323, #315 ) ;
#141 = AXIS2_PLACEMENT_3D ( 'NONE', #106, #81, #204 ) ;
#142 = ORIENTED_EDGE ( 'NONE', *, *, #296, .T. ) ;
#143 = ORIENTED_EDGE ( 'NONE', *, *, #82, .F. ) ;
#144 = ORIENTED_EDGE ( 'NONE', *, *, #167, .T. ) ;
#145 = AXIS2_PLACEMENT_3D ( 'NONE', #8, #251, #105 ) ;
#146 = DIRECTION ( 'NONE',  ( 0.0000000000000000000, 1.000000000000000000, 0.0000000000000000000 ) ) ;
#147 = ORIENTED_EDGE ( 'NONE', *, *, #135, .F. ) ;
#148 = EDGE_CURVE ( 'NONE', #178, #113, #250, .T. ) ;
#149 = LINE ( 'NONE', #22, #212 ) ;
#150 = DIRECTION ( 'NONE',  ( 0.0000000000000000000, 0.0000000000000000000, 1.000000000000000000 ) ) ;
#151 = SURFACE_STYLE_FILL_AREA ( #177 ) ;
#152 = CARTESIAN_POINT ( 'NONE',  ( -0.04750000000000064587, 0.0000000000000000000, 1.500000000000000222 ) ) ;
#153 = DIRECTION ( 'NONE',  ( 1.000000000000000000, 0.0000000000000000000, 0.0000000000000000000 ) ) ;
#154 = AXIS2_PLACEMENT_3D ( 'NONE', #48, #288, #43 ) ;
#155 = CARTESIAN_POINT ( 'NONE',  ( 0.0000000000000000000, 0.0000000000000000000, 1.485000000000000764 ) ) ;
#156 = LINE ( 'NONE', #64, #233 ) ;
#157 = EDGE_CURVE ( 'NONE', #61, #113, #19, .T. ) ;
#158 = AXIS2_PLACEMENT_3D ( 'NONE', #119, #217, #101 ) ;
#159 = CARTESIAN_POINT ( 'NONE',  ( 0.0000000000000000000, 0.0000000000000000000, 1.500000000000000222 ) ) ;
#160 = DIRECTION ( 'NONE',  ( -0.1736481776669311639, 2.126576849575782392E-17, 0.9848077530122080203 ) ) ;
#161 = SURFACE_SIDE_STYLE ('',( #151 ) ) ;
#162 = CARTESIAN_POINT ( 'NONE',  ( -0.008990999999999998993, 0.0000000000000000000, 1.101079937113385289E-18 ) ) ;
#163 = CARTESIAN_POINT ( 'NONE',  ( 0.0000000000000000000, 0.0000000000000000000, 1.500000000000000222 ) ) ;
#164 = AXIS2_PLACEMENT_3D ( 'NONE', #206, #138, #304 ) ;
#165 = ADVANCED_FACE ( 'NONE', ( #209 ), #4, .T. ) ;
#166 = EDGE_LOOP ( 'NONE', ( #40, #193 ) ) ;
#167 = EDGE_CURVE ( 'NONE', #113, #61, #24, .T. ) ;
#168 = EDGE_LOOP ( 'NONE', ( #66, #194, #14, #171 ) ) ;
#169 = CLOSED_SHELL ( 'NONE', ( #253, #200, #165, #207, #179, #279, #93, #222, #53, #136, #241 ) ) ;
#170 = EDGE_LOOP ( 'NONE', ( #268, #172, #20, #192 ) ) ;
#171 = ORIENTED_EDGE ( 'NONE', *, *, #120, .F. ) ;
#172 = ORIENTED_EDGE ( 'NONE', *, *, #54, .T. ) ;
#173 = DIRECTION ( 'NONE',  ( -1.224646799147353454E-16, -0.0000000000000000000, -1.000000000000000000 ) ) ;
#174 = CIRCLE ( 'NONE', #30, 0.008991000000000000728 ) ;
#175 = CARTESIAN_POINT ( 'NONE',  ( 3.306546357697854427E-18, 0.0000000000000000000, 0.02699999999999999969 ) ) ;
#176 = DIRECTION ( 'NONE',  ( -1.000000000000000000, 0.0000000000000000000, 0.0000000000000000000 ) ) ;
#177 = FILL_AREA_STYLE ('',( #72 ) ) ;
#178 = VERTEX_POINT ( 'NONE', #83 ) ;
#179 = ADVANCED_FACE ( 'NONE', ( #189 ), #27, .T. ) ;
#180 = CARTESIAN_POINT ( 'NONE',  ( 0.008991000000000004197, 0.0000000000000000000, 0.02699999999999999969 ) ) ;
#181 = AXIS2_PLACEMENT_3D ( 'NONE', #117, #146, #243 ) ;
#182 = CIRCLE ( 'NONE', #154, 0.008991000000000000728 ) ;
#183 = EDGE_LOOP ( 'NONE', ( #90, #259, #18, #143 ) ) ;
#184 = CARTESIAN_POINT ( 'NONE',  ( 4.047024377500949802E-17, 0.0000000000000000000, 0.3304646188859224898 ) ) ;
#185 = DIRECTION ( 'NONE',  ( -1.000000000000000000, 0.0000000000000000000, 1.224646799147353454E-16 ) ) ;
#186 = CARTESIAN_POINT ( 'NONE',  ( -0.008990999999999997258, 1.101079937113385289E-18, 0.02699999999999999969 ) ) ;
#187 = DIRECTION ( 'NONE',  ( -0.0000000000000000000, -0.0000000000000000000, -1.000000000000000000 ) ) ;
#188 = PRODUCT_DEFINITION_FORMATION_WITH_SPECIFIED_SOURCE ( 'ANY', '', #281, .NOT_KNOWN. ) ;
#189 = FACE_OUTER_BOUND ( 'NONE', #237, .T. ) ;
#190 =( NAMED_UNIT ( * ) SI_UNIT ( $, .STERADIAN. ) SOLID_ANGLE_UNIT ( ) );
#191 =( LENGTH_UNIT ( ) NAMED_UNIT ( * ) SI_UNIT ( $, .METRE. ) );
#192 = ORIENTED_EDGE ( 'NONE', *, *, #157, .T. ) ;
#193 = ORIENTED_EDGE ( 'NONE', *, *, #303, .T. ) ;
#194 = ORIENTED_EDGE ( 'NONE', *, *, #312, .F. ) ;
#195 = SURFACE_STYLE_USAGE ( .BOTH. , #215 ) ;
#196 = PRODUCT_RELATED_PRODUCT_CATEGORY ( 'part', '', ( #281 ) ) ;
#197 = CARTESIAN_POINT ( 'NONE',  ( 0.0000000000000000000, 0.0000000000000000000, 1.500000000000000222 ) ) ;
#198 = ORIENTED_EDGE ( 'NONE', *, *, #240, .F. ) ;
#199 = CARTESIAN_POINT ( 'NONE',  ( -0.06250000000000000000, 0.0000000000000000000, 1.485000000000000764 ) ) ;
#200 = ADVANCED_FACE ( 'NONE', ( #80 ), #57, .T. ) ;
#201 = DIRECTION ( 'NONE',  ( 0.1736481776669313304, 0.0000000000000000000, 0.9848077530122077983 ) ) ;
#202 = CARTESIAN_POINT ( 'NONE',  ( -0.04750000000000064587, 0.0000000000000000000, 1.500000000000000222 ) ) ;
#203 = EDGE_CURVE ( 'NONE', #36, #71, #302, .T. ) ;
#204 = DIRECTION ( 'NONE',  ( -1.000000000000000000, 0.0000000000000000000, 1.224646799147353454E-16 ) ) ;
#205 = DIMENSIONAL_EXPONENTS ( 1.000000000000000000, 0.0000000000000000000, 0.0000000000000000000, 0.0000000000000000000, 0.0000000000000000000, 0.0000000000000000000, 0.0000000000000000000 ) ;
#206 = CARTESIAN_POINT ( 'NONE',  ( 3.306546357697854427E-18, 0.0000000000000000000, 0.02699999999999999969 ) ) ;
#207 = ADVANCED_FACE ( 'NONE', ( #55 ), #63, .T. ) ;
#208 = AXIS2_PLACEMENT_3D ( 'NONE', #75, #173, #176 ) ;
#209 = FACE_OUTER_BOUND ( 'NONE', #310, .T. ) ;
#210 = DIRECTION ( 'NONE',  ( -1.000000000000000000, 0.0000000000000000000, 0.0000000000000000000 ) ) ;
#211 = CIRCLE ( 'NONE', #112, 0.04750000000000064587 ) ;
#212 = VECTOR ( 'NONE', #187, 39.37007874015748143 ) ;
#213 = ORIENTED_EDGE ( 'NONE', *, *, #167, .F. ) ;
#214 = CARTESIAN_POINT ( 'NONE',  ( 0.0000000000000000000, 0.0000000000000000000, 1.500000000000000222 ) ) ;
#215 = SURFACE_SIDE_STYLE ('',( #236 ) ) ;
#216 = LINE ( 'NONE', #324, #263 ) ;
#217 = DIRECTION ( 'NONE',  ( 1.224646799147353454E-16, 0.0000000000000000000, 1.000000000000000000 ) ) ;
#218 = ORIENTED_EDGE ( 'NONE', *, *, #227, .F. ) ;
#219 = VECTOR ( 'NONE', #201, 39.37007874015748143 ) ;
#220 = CARTESIAN_POINT ( 'NONE',  ( -0.008990999999999997258, 4.377561215892171802E-18, 0.02699999999999999969 ) ) ;
#221 = FACE_OUTER_BOUND ( 'NONE', #166, .T. ) ;
#222 = ADVANCED_FACE ( 'NONE', ( #252 ), #98, .T. ) ;
#223 = LENGTH_MEASURE_WITH_UNIT ( LENGTH_MEASURE( 0.02539999999999999897 ), #191 );
#224 = CIRCLE ( 'NONE', #129, 0.06250000000000000000 ) ;
#225 = DIRECTION ( 'NONE',  ( -1.000000000000000000, 0.0000000000000000000, 0.0000000000000000000 ) ) ;
#226 = ADVANCED_BREP_SHAPE_REPRESENTATION ( 'Micro_BMS-018-2', ( #111, #256 ), #5 ) ;
#227 = EDGE_CURVE ( 'NONE', #287, #231, #156, .T. ) ;
#228 =( CONVERSION_BASED_UNIT ( 'INCH', #223 ) LENGTH_UNIT ( ) NAMED_UNIT ( #88 ) );
#229 = AXIS2_PLACEMENT_3D ( 'NONE', #230, #247, #275 ) ;
#230 = CARTESIAN_POINT ( 'NONE',  ( 1.101079937113385482E-18, 0.0000000000000000000, 0.008991000000000000728 ) ) ;
#231 = VERTEX_POINT ( 'NONE', #79 ) ;
#232 = DIRECTION ( 'NONE',  ( -1.224646799147353454E-16, -0.0000000000000000000, -1.000000000000000000 ) ) ;
#233 = VECTOR ( 'NONE', #132, 39.37007874015748143 ) ;
#234 = ORIENTED_EDGE ( 'NONE', *, *, #135, .T. ) ;
#235 = VECTOR ( 'NONE', #271, 39.37007874015748143 ) ;
#236 = SURFACE_STYLE_FILL_AREA ( #103 ) ;
#237 = EDGE_LOOP ( 'NONE', ( #68, #95, #318, #260 ) ) ;
#238 =( CONVERSION_BASED_UNIT ( 'INCH', #41 ) LENGTH_UNIT ( ) NAMED_UNIT ( #131 ) );
#239 = SPHERICAL_SURFACE ( 'NONE', #313, 0.008991000000000000728 ) ;
#240 = EDGE_CURVE ( 'NONE', #36, #61, #301, .T. ) ;
#241 = ADVANCED_FACE ( 'NONE', ( #270 ), #239, .T. ) ;
#242 = ORIENTED_EDGE ( 'NONE', *, *, #120, .T. ) ;
#243 = DIRECTION ( 'NONE',  ( 1.000000000000000000, 0.0000000000000000000, 0.0000000000000000000 ) ) ;
#244 = ORIENTED_EDGE ( 'NONE', *, *, #148, .T. ) ;
#245 = AXIS2_PLACEMENT_3D ( 'NONE', #300, #130, #185 ) ;
#246 = ORIENTED_EDGE ( 'NONE', *, *, #54, .F. ) ;
#247 = DIRECTION ( 'NONE',  ( 1.224646799147353454E-16, 0.0000000000000000000, 1.000000000000000000 ) ) ;
#248 =( NAMED_UNIT ( * ) PLANE_ANGLE_UNIT ( ) SI_UNIT ( $, .RADIAN. ) );
#249 = AXIS2_PLACEMENT_3D ( 'NONE', #163, #307, #225 ) ;
#250 = LINE ( 'NONE', #87, #69 ) ;
#251 = DIRECTION ( 'NONE',  ( -1.224646799147353454E-16, -0.0000000000000000000, -1.000000000000000000 ) ) ;
#252 = FACE_OUTER_BOUND ( 'NONE', #168, .T. ) ;
#253 = ADVANCED_FACE ( 'NONE', ( #67 ), #295, .T. ) ;
#254 = EDGE_CURVE ( 'NONE', #316, #287, #216, .T. ) ;
#255 = DIRECTION ( 'NONE',  ( 1.000000000000000000, 0.0000000000000000000, 0.0000000000000000000 ) ) ;
#256 = AXIS2_PLACEMENT_3D ( 'NONE', #6, #2, #306 ) ;
#257 = ORIENTED_EDGE ( 'NONE', *, *, #203, .F. ) ;
#258 = AXIS2_PLACEMENT_3D ( 'NONE', #121, #150, #52 ) ;
#259 = ORIENTED_EDGE ( 'NONE', *, *, #254, .T. ) ;
#260 = ORIENTED_EDGE ( 'NONE', *, *, #284, .F. ) ;
#261 = ORIENTED_EDGE ( 'NONE', *, *, #157, .F. ) ;
#262 = AXIS2_PLACEMENT_3D ( 'NONE', #197, #290, #44 ) ;
#263 = VECTOR ( 'NONE', #317, 39.37007874015748143 ) ;
#264 = PRESENTATION_STYLE_ASSIGNMENT (( #195 ) ) ;
#265 = CARTESIAN_POINT ( 'NONE',  ( -0.06249999999999995837, 0.0000000000000000000, 0.3304646188859224898 ) ) ;
#266 = DIRECTION ( 'NONE',  ( 1.000000000000000000, 0.0000000000000000000, 0.0000000000000000000 ) ) ;
#267 = CYLINDRICAL_SURFACE ( 'NONE', #262, 0.06250000000000000000 ) ;
#268 = ORIENTED_EDGE ( 'NONE', *, *, #148, .F. ) ;
#269 = CARTESIAN_POINT ( 'NONE',  ( 0.0000000000000000000, 0.0000000000000000000, 1.500000000000000222 ) ) ;
#270 = FACE_OUTER_BOUND ( 'NONE', #23, .T. ) ;
#271 = DIRECTION ( 'NONE',  ( -0.7071067811865456854, 0.0000000000000000000, -0.7071067811865493491 ) ) ;
#272 = VECTOR ( 'NONE', #160, 39.37007874015747433 ) ;
#273 =( GEOMETRIC_REPRESENTATION_CONTEXT ( 3 ) GLOBAL_UNCERTAINTY_ASSIGNED_CONTEXT ( ( #12 ) ) GLOBAL_UNIT_ASSIGNED_CONTEXT ( ( #102, #51, #190 ) ) REPRESENTATION_CONTEXT ( 'NONE', 'WORKASPACE' ) );
#274 = ORIENTED_EDGE ( 'NONE', *, *, #319, .T. ) ;
#275 = DIRECTION ( 'NONE',  ( -1.000000000000000000, 0.0000000000000000000, 1.186884798715496451E-16 ) ) ;
#276 = STYLED_ITEM ( 'NONE', ( #264 ), #111 ) ;
#277 = CYLINDRICAL_SURFACE ( 'NONE', #245, 0.008990999999999998993 ) ;
#278 = DIRECTION ( 'NONE',  ( -1.224646799147353454E-16, -0.0000000000000000000, -1.000000000000000000 ) ) ;
#279 = ADVANCED_FACE ( 'NONE', ( #96 ), #267, .T. ) ;
#280 =( GEOMETRIC_REPRESENTATION_CONTEXT ( 3 ) GLOBAL_UNCERTAINTY_ASSIGNED_CONTEXT ( ( #3 ) ) GLOBAL_UNIT_ASSIGNED_CONTEXT ( ( #228, #248, #308 ) ) REPRESENTATION_CONTEXT ( 'NONE', 'WORKASPACE' ) );
#281 = PRODUCT ( 'Micro_BMS-018-2', 'Micro_BMS-018-2', '', ( #28 ) ) ;
#282 = EDGE_LOOP ( 'NONE', ( #218, #242, #38, #147 ) ) ;
#283 = APPLICATION_CONTEXT ( 'automotive_design' ) ;
#284 = EDGE_CURVE ( 'NONE', #17, #71, #149, .T. ) ;
#285 = AXIS2_PLACEMENT_3D ( 'NONE', #26, #325, #126 ) ;
#286 = EDGE_CURVE ( 'NONE', #71, #231, #89, .T. ) ;
#287 = VERTEX_POINT ( 'NONE', #35 ) ;
#288 = DIRECTION ( 'NONE',  ( 0.0000000000000000000, -1.000000000000000000, 0.0000000000000000000 ) ) ;
#289 = EDGE_LOOP ( 'NONE', ( #15, #124, #213 ) ) ;
#290 = DIRECTION ( 'NONE',  ( -0.0000000000000000000, -0.0000000000000000000, -1.000000000000000000 ) ) ;
#291 = CIRCLE ( 'NONE', #285, 0.008991000000000000728 ) ;
#292 = ORIENTED_EDGE ( 'NONE', *, *, #203, .T. ) ;
#293 = CARTESIAN_POINT ( 'NONE',  ( -0.008990999999999998993, 0.0000000000000000000, 0.008991000000000000728 ) ) ;
#294 = DIRECTION ( 'NONE',  ( -1.000000000000000000, 0.0000000000000000000, 0.0000000000000000000 ) ) ;
#295 = SPHERICAL_SURFACE ( 'NONE', #181, 0.008991000000000000728 ) ;
#296 = EDGE_CURVE ( 'NONE', #36, #178, #174, .T. ) ;
#297 = FILL_AREA_STYLE_COLOUR ( '', #42 ) ;
#298 = ORIENTED_EDGE ( 'NONE', *, *, #85, .F. ) ;
#299 = PRESENTATION_LAYER_ASSIGNMENT (  '', '', ( #60 ) ) ;
#300 = CARTESIAN_POINT ( 'NONE',  ( 0.0000000000000000000, 0.0000000000000000000, 0.0000000000000000000 ) ) ;
#301 = LINE ( 'NONE', #162, #91 ) ;
#302 = LINE ( 'NONE', #186, #272 ) ;
#303 = EDGE_CURVE ( 'NONE', #316, #1, #211, .T. ) ;
#304 = DIRECTION ( 'NONE',  ( 1.000000000000000000, 0.0000000000000000000, 0.0000000000000000000 ) ) ;
#305 = CIRCLE ( 'NONE', #208, 0.008991000000000000728 ) ;
#306 = DIRECTION ( 'NONE',  ( 1.000000000000000000, 0.0000000000000000000, 0.0000000000000000000 ) ) ;
#307 = DIRECTION ( 'NONE',  ( -0.0000000000000000000, -0.0000000000000000000, -1.000000000000000000 ) ) ;
#308 =( NAMED_UNIT ( * ) SI_UNIT ( $, .STERADIAN. ) SOLID_ANGLE_UNIT ( ) );
#309 = AXIS2_PLACEMENT_3D ( 'NONE', #184, #108, #255 ) ;
#310 = EDGE_LOOP ( 'NONE', ( #92, #292, #37, #298 ) ) ;
#311 = APPLICATION_CONTEXT ( 'automotive_design' ) ;
#312 = EDGE_CURVE ( 'NONE', #1, #316, #321, .T. ) ;
#313 = AXIS2_PLACEMENT_3D ( 'NONE', #115, #74, #153 ) ;
#314 = COLOUR_RGB ( '',0.7921568627450980005, 0.8196078431372548767, 0.9333333333333333481 ) ;
#315 = DIRECTION ( 'NONE',  ( 1.000000000000000000, 0.0000000000000000000, 0.0000000000000000000 ) ) ;
#316 = VERTEX_POINT ( 'NONE', #46 ) ;
#317 = DIRECTION ( 'NONE',  ( 0.7071067811865456854, 8.659560562354911904E-17, -0.7071067811865493491 ) ) ;
#318 = ORIENTED_EDGE ( 'NONE', *, *, #286, .F. ) ;
#319 = EDGE_CURVE ( 'NONE', #94, #113, #182, .T. ) ;
#320 = AXIS2_PLACEMENT_3D ( 'NONE', #13, #31, #137 ) ;
#321 = CIRCLE ( 'NONE', #140, 0.04750000000000064587 ) ;
#322 = CARTESIAN_POINT ( 'NONE',  ( 1.651619905670078319E-18, 0.0000000000000000000, 0.0000000000000000000 ) ) ;
#323 = DIRECTION ( 'NONE',  ( 0.0000000000000000000, 0.0000000000000000000, 1.000000000000000000 ) ) ;
#324 = CARTESIAN_POINT ( 'NONE',  ( 0.04750000000000064587, 5.817072295950006528E-18, 1.500000000000000222 ) ) ;
#325 = DIRECTION ( 'NONE',  ( 1.224646799147353207E-16, 1.000000000000000000, -0.0000000000000000000 ) ) ;
ENDSEC;
END-ISO-10303-21;
