ISO-10303-21;
HEADER;
FILE_DESCRIPTION (( 'STEP AP214' ),
    '1' );
FILE_NAME ('Micro_BEMM-030-3X.STEP',
    '2021-09-03T13:21:59',
    ( '' ),
    ( '' ),
    'SwSTEP 2.0',
    'SolidWorks 2020',
    '' );
FILE_SCHEMA (( 'AUTOMOTIVE_DESIGN' ));
ENDSEC;

DATA;
#1 = CARTESIAN_POINT ( 'NONE',  ( 7.236265475862304269E-17, 0.0000000000000000000, 0.5908859175478575754 ) ) ;
#2 = CARTESIAN_POINT ( 'NONE',  ( 0.0000000000000000000, 0.0000000000000000000, 0.0000000000000000000 ) ) ;
#3 = EDGE_LOOP ( 'NONE', ( #253, #88, #82 ) ) ;
#4 = EDGE_LOOP ( 'NONE', ( #29, #152, #144, #100 ) ) ;
#5 = AXIS2_PLACEMENT_3D ( 'NONE', #103, #271, #44 ) ;
#6 = EDGE_CURVE ( 'NONE', #174, #80, #304, .T. ) ;
#7 = CARTESIAN_POINT ( 'NONE',  ( 1.083737928103849376E-17, 0.0000000000000000000, 0.0000000000000000000 ) ) ;
#8 = CARTESIAN_POINT ( 'NONE',  ( 0.05899594500000004266, 0.0000000000000000000, 0.5905510000000000481 ) ) ;
#9 = ADVANCED_FACE ( 'NONE', ( #57 ), #202, .T. ) ;
#10 = PRESENTATION_LAYER_ASSIGNMENT (  '', '', ( #242 ) ) ;
#11 = FACE_OUTER_BOUND ( 'NONE', #248, .T. ) ;
#12 = DIRECTION ( 'NONE',  ( -1.224646799147352961E-16, -0.0000000000000000000, -1.000000000000000000 ) ) ;
#13 = AXIS2_PLACEMENT_3D ( 'NONE', #312, #184, #241 ) ;
#14 = AXIS2_PLACEMENT_3D ( 'NONE', #2, #130, #112 ) ;
#15 = CARTESIAN_POINT ( 'NONE',  ( -0.05899594499999990388, 7.228535596528510244E-18, 0.5905510000000000481 ) ) ;
#16 = EDGE_CURVE ( 'NONE', #170, #325, #282, .T. ) ;
#17 = DIMENSIONAL_EXPONENTS ( 1.000000000000000000, 0.0000000000000000000, 0.0000000000000000000, 0.0000000000000000000, 0.0000000000000000000, 0.0000000000000000000, 0.0000000000000000000 ) ;
#18 = CARTESIAN_POINT ( 'NONE',  ( 7.224919520692328148E-18, 0.0000000000000000000, 0.05899594499999999409 ) ) ;
#19 = EDGE_CURVE ( 'NONE', #76, #319, #315, .T. ) ;
#20 = ORIENTED_EDGE ( 'NONE', *, *, #46, .F. ) ;
#21 =( GEOMETRIC_REPRESENTATION_CONTEXT ( 3 ) GLOBAL_UNCERTAINTY_ASSIGNED_CONTEXT ( ( #41 ) ) GLOBAL_UNIT_ASSIGNED_CONTEXT ( ( #65, #215, #286 ) ) REPRESENTATION_CONTEXT ( 'NONE', 'WORKASPACE' ) );
#22 = MECHANICAL_DESIGN_GEOMETRIC_PRESENTATION_REPRESENTATION (  '', ( #43 ), #203 ) ;
#23 = ORIENTED_EDGE ( 'NONE', *, *, #77, .T. ) ;
#24 = ORIENTED_EDGE ( 'NONE', *, *, #6, .T. ) ;
#25 =( LENGTH_UNIT ( ) NAMED_UNIT ( * ) SI_UNIT ( $, .METRE. ) );
#26 = ORIENTED_EDGE ( 'NONE', *, *, #69, .F. ) ;
#27 = SHAPE_DEFINITION_REPRESENTATION ( #198, #214 ) ;
#28 = CIRCLE ( 'NONE', #116, 0.04405500000000001082 ) ;
#29 = ORIENTED_EDGE ( 'NONE', *, *, #62, .T. ) ;
#30 = ADVANCED_FACE ( 'NONE', ( #110 ), #263, .T. ) ;
#31 = CARTESIAN_POINT ( 'NONE',  ( 0.04405500000000001082, 5.395181473643666598E-18, 1.496062999999999921 ) ) ;
#32 = CARTESIAN_POINT ( 'NONE',  ( -0.05899594499999997327, 0.0000000000000000000, 7.224919520692323526E-18 ) ) ;
#33 = EDGE_LOOP ( 'NONE', ( #197, #127, #23, #55 ) ) ;
#34 = VECTOR ( 'NONE', #262, 39.37007874015748854 ) ;
#35 = CARTESIAN_POINT ( 'NONE',  ( -0.05899594499999990388, 7.224919520692326607E-18, 0.5905510000000000481 ) ) ;
#36 = LINE ( 'NONE', #280, #89 ) ;
#37 = AXIS2_PLACEMENT_3D ( 'NONE', #115, #117, #163 ) ;
#38 = SURFACE_SIDE_STYLE ('',( #160 ) ) ;
#39 = LINE ( 'NONE', #40, #300 ) ;
#40 = CARTESIAN_POINT ( 'NONE',  ( 0.05899594499999997327, 7.224919520692326607E-18, -7.224919520692323526E-18 ) ) ;
#41 = UNCERTAINTY_MEASURE_WITH_UNIT (LENGTH_MEASURE( 1.000000000000000082E-05 ), #65, 'distance_accuracy_value', 'NONE');
#42 = AXIS2_PLACEMENT_3D ( 'NONE', #187, #164, #268 ) ;
#43 = STYLED_ITEM ( 'NONE', ( #47 ), #214 ) ;
#44 = DIRECTION ( 'NONE',  ( 1.000000000000000000, 0.0000000000000000000, 0.0000000000000000000 ) ) ;
#45 = EDGE_CURVE ( 'NONE', #319, #76, #28, .T. ) ;
#46 = EDGE_CURVE ( 'NONE', #319, #231, #132, .T. ) ;
#47 = PRESENTATION_STYLE_ASSIGNMENT (( #247 ) ) ;
#48 = FACE_OUTER_BOUND ( 'NONE', #244, .T. ) ;
#49 = ORIENTED_EDGE ( 'NONE', *, *, #159, .F. ) ;
#50 = AXIS2_PLACEMENT_3D ( 'NONE', #226, #121, #122 ) ;
#51 = DIRECTION ( 'NONE',  ( -1.224646799147352961E-16, -0.0000000000000000000, -1.000000000000000000 ) ) ;
#52 = ORIENTED_EDGE ( 'NONE', *, *, #16, .T. ) ;
#53 = CARTESIAN_POINT ( 'NONE',  ( 0.05905499999999998251, 7.232151672364692341E-18, 1.481063000000000240 ) ) ;
#54 = VERTEX_POINT ( 'NONE', #299 ) ;
#55 = ORIENTED_EDGE ( 'NONE', *, *, #251, .T. ) ;
#56 = AXIS2_PLACEMENT_3D ( 'NONE', #71, #288, #211 ) ;
#57 = FACE_OUTER_BOUND ( 'NONE', #294, .T. ) ;
#58 = DIRECTION ( 'NONE',  ( -1.000000000000000000, 0.0000000000000000000, 0.0000000000000000000 ) ) ;
#59 = CARTESIAN_POINT ( 'NONE',  ( 7.224919520692328148E-18, 0.0000000000000000000, 0.05899594499999999409 ) ) ;
#60 = DIRECTION ( 'NONE',  ( 1.000000000000000000, 0.0000000000000000000, 0.0000000000000000000 ) ) ;
#61 = CIRCLE ( 'NONE', #124, 0.05899594499999997327 ) ;
#62 = EDGE_CURVE ( 'NONE', #54, #231, #255, .T. ) ;
#63 = PRODUCT_DEFINITION_FORMATION_WITH_SPECIFIED_SOURCE ( 'ANY', '', #200, .NOT_KNOWN. ) ;
#64 = DIRECTION ( 'NONE',  ( 0.1736481776669321631, 0.0000000000000000000, 0.9848077530122076872 ) ) ;
#65 =( CONVERSION_BASED_UNIT ( 'INCH', #140 ) LENGTH_UNIT ( ) NAMED_UNIT ( #79 ) );
#66 = CARTESIAN_POINT ( 'NONE',  ( 0.05905499999999998251, 7.232151672364692341E-18, 1.496062999999999921 ) ) ;
#67 = CIRCLE ( 'NONE', #254, 0.05905499999999998251 ) ;
#68 = EDGE_CURVE ( 'NONE', #126, #325, #67, .T. ) ;
#69 = EDGE_CURVE ( 'NONE', #325, #126, #119, .T. ) ;
#70 = CARTESIAN_POINT ( 'NONE',  ( 0.05899594499999998021, 7.224919520692326607E-18, 0.05899594499999998715 ) ) ;
#71 = CARTESIAN_POINT ( 'NONE',  ( 0.0000000000000000000, 0.0000000000000000000, 1.481063000000000240 ) ) ;
#72 = ADVANCED_FACE ( 'NONE', ( #85 ), #204, .T. ) ;
#73 = AXIS2_PLACEMENT_3D ( 'NONE', #18, #125, #243 ) ;
#74 = AXIS2_PLACEMENT_3D ( 'NONE', #284, #213, #266 ) ;
#75 = SURFACE_STYLE_FILL_AREA ( #274 ) ;
#76 = VERTEX_POINT ( 'NONE', #87 ) ;
#77 = EDGE_CURVE ( 'NONE', #194, #80, #277, .T. ) ;
#78 = EDGE_LOOP ( 'NONE', ( #292, #129, #52, #150 ) ) ;
#79 = DIMENSIONAL_EXPONENTS ( 1.000000000000000000, 0.0000000000000000000, 0.0000000000000000000, 0.0000000000000000000, 0.0000000000000000000, 0.0000000000000000000, 0.0000000000000000000 ) ;
#80 = VERTEX_POINT ( 'NONE', #301 ) ;
#81 =( CONVERSION_BASED_UNIT ( 'INCH', #296 ) LENGTH_UNIT ( ) NAMED_UNIT ( #17 ) );
#82 = ORIENTED_EDGE ( 'NONE', *, *, #251, .F. ) ;
#83 = DIRECTION ( 'NONE',  ( -1.224646799147352961E-16, -0.0000000000000000000, -1.000000000000000000 ) ) ;
#84 = PRODUCT_DEFINITION ( 'UNKNOWN', '', #63, #155 ) ;
#85 = FACE_OUTER_BOUND ( 'NONE', #4, .T. ) ;
#86 = DIRECTION ( 'NONE',  ( -1.000000000000000000, 0.0000000000000000000, 0.0000000000000000000 ) ) ;
#87 = CARTESIAN_POINT ( 'NONE',  ( -0.04405500000000001082, 0.0000000000000000000, 1.496062999999999921 ) ) ;
#88 = ORIENTED_EDGE ( 'NONE', *, *, #142, .T. ) ;
#89 = VECTOR ( 'NONE', #154, 39.37007874015748143 ) ;
#90 = UNCERTAINTY_MEASURE_WITH_UNIT (LENGTH_MEASURE( 1.000000000000000082E-05 ), #81, 'distance_accuracy_value', 'NONE');
#91 = DIRECTION ( 'NONE',  ( 0.0000000000000000000, -1.000000000000000000, 0.0000000000000000000 ) ) ;
#92 = PLANE ( 'NONE',  #74 ) ;
#93 = FACE_OUTER_BOUND ( 'NONE', #3, .T. ) ;
#94 = DIRECTION ( 'NONE',  ( -0.0000000000000000000, -0.0000000000000000000, -1.000000000000000000 ) ) ;
#95 = CARTESIAN_POINT ( 'NONE',  ( -0.04405500000000001082, 0.0000000000000000000, 1.496062999999999921 ) ) ;
#96 = CARTESIAN_POINT ( 'NONE',  ( 0.0000000000000000000, 0.0000000000000000000, 0.0000000000000000000 ) ) ;
#97 = ORIENTED_EDGE ( 'NONE', *, *, #238, .T. ) ;
#98 = COLOUR_RGB ( '',0.7921568627450980005, 0.8196078431372548767, 0.9333333333333333481 ) ;
#99 = FACE_OUTER_BOUND ( 'NONE', #317, .T. ) ;
#100 = ORIENTED_EDGE ( 'NONE', *, *, #107, .F. ) ;
#101 = ORIENTED_EDGE ( 'NONE', *, *, #134, .T. ) ;
#102 = APPLICATION_PROTOCOL_DEFINITION ( 'draft international standard', 'automotive_design', 1998, #239 ) ;
#103 = CARTESIAN_POINT ( 'NONE',  ( 7.232163918832683761E-17, 0.0000000000000000000, 0.5905510000000000481 ) ) ;
#104 = COLOUR_RGB ( '',0.7921568627450980005, 0.8196078431372548767, 0.9333333333333333481 ) ;
#105 = ORIENTED_EDGE ( 'NONE', *, *, #142, .F. ) ;
#106 = DIRECTION ( 'NONE',  ( 1.000000000000000000, 0.0000000000000000000, 0.0000000000000000000 ) ) ;
#107 = EDGE_CURVE ( 'NONE', #54, #126, #36, .T. ) ;
#108 = CARTESIAN_POINT ( 'NONE',  ( 0.0000000000000000000, 0.0000000000000000000, 1.481063000000000240 ) ) ;
#109 = CONICAL_SURFACE ( 'NONE', #42, 0.05899594499999997327, 0.1745329251994346687 ) ;
#110 = FACE_OUTER_BOUND ( 'NONE', #222, .T. ) ;
#111 = ORIENTED_EDGE ( 'NONE', *, *, #228, .F. ) ;
#112 = DIRECTION ( 'NONE',  ( 1.000000000000000000, 0.0000000000000000000, 0.0000000000000000000 ) ) ;
#113 = DIRECTION ( 'NONE',  ( -0.1736481776669319688, 2.126576849575792869E-17, 0.9848077530122077983 ) ) ;
#114 = EDGE_CURVE ( 'NONE', #170, #194, #221, .T. ) ;
#115 = CARTESIAN_POINT ( 'NONE',  ( 7.224919520692328148E-18, 0.0000000000000000000, 0.05899594499999999409 ) ) ;
#116 = AXIS2_PLACEMENT_3D ( 'NONE', #258, #158, #60 ) ;
#117 = DIRECTION ( 'NONE',  ( 0.0000000000000000000, 1.000000000000000000, 0.0000000000000000000 ) ) ;
#118 = PRESENTATION_STYLE_ASSIGNMENT (( #307 ) ) ;
#119 = CIRCLE ( 'NONE', #162, 0.05905499999999998251 ) ;
#120 = LINE ( 'NONE', #95, #245 ) ;
#121 = DIRECTION ( 'NONE',  ( 1.224646799147352961E-16, 0.0000000000000000000, 1.000000000000000000 ) ) ;
#122 = DIRECTION ( 'NONE',  ( -1.000000000000000000, 0.0000000000000000000, 1.447052840699615392E-16 ) ) ;
#123 = VERTEX_POINT ( 'NONE', #7 ) ;
#124 = AXIS2_PLACEMENT_3D ( 'NONE', #188, #309, #264 ) ;
#125 = DIRECTION ( 'NONE',  ( 1.224646799147353207E-16, 1.000000000000000000, -0.0000000000000000000 ) ) ;
#126 = VERTEX_POINT ( 'NONE', #303 ) ;
#127 = ORIENTED_EDGE ( 'NONE', *, *, #114, .T. ) ;
#128 = ORIENTED_EDGE ( 'NONE', *, *, #107, .T. ) ;
#129 = ORIENTED_EDGE ( 'NONE', *, *, #114, .F. ) ;
#130 = DIRECTION ( 'NONE',  ( 0.0000000000000000000, 0.0000000000000000000, 1.000000000000000000 ) ) ;
#131 = DIRECTION ( 'NONE',  ( 0.0000000000000000000, 0.0000000000000000000, -1.000000000000000000 ) ) ;
#132 = LINE ( 'NONE', #31, #34 ) ;
#133 = DIRECTION ( 'NONE',  ( -1.224646799147352961E-16, -0.0000000000000000000, -1.000000000000000000 ) ) ;
#134 = EDGE_CURVE ( 'NONE', #194, #126, #180, .T. ) ;
#135 = DIRECTION ( 'NONE',  ( 1.224646799147352961E-16, 0.0000000000000000000, 1.000000000000000000 ) ) ;
#136 = ADVANCED_FACE ( 'NONE', ( #93 ), #166, .T. ) ;
#137 = UNCERTAINTY_MEASURE_WITH_UNIT (LENGTH_MEASURE( 1.000000000000000082E-05 ), #219, 'distance_accuracy_value', 'NONE');
#138 =( LENGTH_UNIT ( ) NAMED_UNIT ( * ) SI_UNIT ( $, .METRE. ) );
#139 = FILL_AREA_STYLE_COLOUR ( '', #98 ) ;
#140 = LENGTH_MEASURE_WITH_UNIT ( LENGTH_MEASURE( 0.02539999999999999897 ), #138 );
#141 = EDGE_CURVE ( 'NONE', #170, #174, #39, .T. ) ;
#142 = EDGE_CURVE ( 'NONE', #123, #174, #306, .T. ) ;
#143 = FACE_OUTER_BOUND ( 'NONE', #78, .T. ) ;
#144 = ORIENTED_EDGE ( 'NONE', *, *, #68, .F. ) ;
#145 = AXIS2_PLACEMENT_3D ( 'NONE', #108, #131, #229 ) ;
#146 = DIRECTION ( 'NONE',  ( -1.224646799147352961E-16, -0.0000000000000000000, -1.000000000000000000 ) ) ;
#147 = ORIENTED_EDGE ( 'NONE', *, *, #159, .T. ) ;
#148 = FACE_OUTER_BOUND ( 'NONE', #33, .T. ) ;
#149 = EDGE_LOOP ( 'NONE', ( #49, #101, #275, #234 ) ) ;
#150 = ORIENTED_EDGE ( 'NONE', *, *, #69, .T. ) ;
#151 = CIRCLE ( 'NONE', #56, 0.05905499999999998251 ) ;
#152 = ORIENTED_EDGE ( 'NONE', *, *, #186, .T. ) ;
#153 = ORIENTED_EDGE ( 'NONE', *, *, #6, .F. ) ;
#154 = DIRECTION ( 'NONE',  ( -0.0000000000000000000, -0.0000000000000000000, -1.000000000000000000 ) ) ;
#155 = PRODUCT_DEFINITION_CONTEXT ( 'detailed design', #205, 'design' ) ;
#156 = VECTOR ( 'NONE', #207, 39.37007874015748143 ) ;
#157 = DIRECTION ( 'NONE',  ( 1.000000000000000000, 0.0000000000000000000, 0.0000000000000000000 ) ) ;
#158 = DIRECTION ( 'NONE',  ( 0.0000000000000000000, 0.0000000000000000000, 1.000000000000000000 ) ) ;
#159 = EDGE_CURVE ( 'NONE', #194, #170, #61, .T. ) ;
#160 = SURFACE_STYLE_FILL_AREA ( #161 ) ;
#161 = FILL_AREA_STYLE ('',( #139 ) ) ;
#162 = AXIS2_PLACEMENT_3D ( 'NONE', #1, #179, #106 ) ;
#163 = DIRECTION ( 'NONE',  ( 1.000000000000000000, 0.0000000000000000000, 0.0000000000000000000 ) ) ;
#164 = DIRECTION ( 'NONE',  ( 1.224646799147352961E-16, 0.0000000000000000000, 1.000000000000000000 ) ) ;
#165 = EDGE_CURVE ( 'NONE', #231, #54, #151, .T. ) ;
#166 = SPHERICAL_SURFACE ( 'NONE', #13, 0.05899594499999999409 ) ;
#167 = MANIFOLD_SOLID_BREP ( 'Fillet1', #283 ) ;
#168 = SURFACE_SIDE_STYLE ('',( #75 ) ) ;
#169 = ORIENTED_EDGE ( 'NONE', *, *, #186, .F. ) ;
#170 = VERTEX_POINT ( 'NONE', #237 ) ;
#171 =( LENGTH_UNIT ( ) NAMED_UNIT ( * ) SI_UNIT ( $, .METRE. ) );
#172 = ORIENTED_EDGE ( 'NONE', *, *, #62, .F. ) ;
#173 = CARTESIAN_POINT ( 'NONE',  ( 0.04405500000000001082, 6.313666573004179469E-18, 1.496062999999999921 ) ) ;
#174 = VERTEX_POINT ( 'NONE', #70 ) ;
#175 = CARTESIAN_POINT ( 'NONE',  ( 0.0000000000000000000, 0.0000000000000000000, 1.496062999999999921 ) ) ;
#176 = AXIS2_PLACEMENT_3D ( 'NONE', #260, #133, #233 ) ;
#177 = DIRECTION ( 'NONE',  ( -1.000000000000000000, 0.0000000000000000000, 1.447052840699615392E-16 ) ) ;
#178 = ADVANCED_FACE ( 'NONE', ( #11 ), #217, .T. ) ;
#179 = DIRECTION ( 'NONE',  ( -1.224646799147352961E-16, -0.0000000000000000000, -1.000000000000000000 ) ) ;
#180 = LINE ( 'NONE', #35, #261 ) ;
#181 = AXIS2_PLACEMENT_3D ( 'NONE', #59, #135, #177 ) ;
#182 = CARTESIAN_POINT ( 'NONE',  ( 0.0000000000000000000, 0.0000000000000000000, 1.496062999999999921 ) ) ;
#183 = ADVANCED_FACE ( 'NONE', ( #212 ), #92, .T. ) ;
#184 = DIRECTION ( 'NONE',  ( 0.0000000000000000000, 1.000000000000000000, 0.0000000000000000000 ) ) ;
#185 = AXIS2_PLACEMENT_3D ( 'NONE', #305, #199, #279 ) ;
#186 = EDGE_CURVE ( 'NONE', #231, #325, #267, .T. ) ;
#187 = CARTESIAN_POINT ( 'NONE',  ( 7.232163918832683761E-17, 0.0000000000000000000, 0.5905510000000000481 ) ) ;
#188 = CARTESIAN_POINT ( 'NONE',  ( 7.232163918832683761E-17, 0.0000000000000000000, 0.5905510000000000481 ) ) ;
#189 = DIRECTION ( 'NONE',  ( -1.000000000000000000, 0.0000000000000000000, 1.224646799147352714E-16 ) ) ;
#190 = CONICAL_SURFACE ( 'NONE', #273, 0.04405500000000001082, 0.7853981633974570498 ) ;
#191 = ADVANCED_FACE ( 'NONE', ( #311 ), #109, .T. ) ;
#192 = DIRECTION ( 'NONE',  ( 0.0000000000000000000, 0.0000000000000000000, -1.000000000000000000 ) ) ;
#193 = ORIENTED_EDGE ( 'NONE', *, *, #19, .T. ) ;
#194 = VERTEX_POINT ( 'NONE', #15 ) ;
#195 = ORIENTED_EDGE ( 'NONE', *, *, #77, .F. ) ;
#196 = AXIS2_PLACEMENT_3D ( 'NONE', #240, #91, #287 ) ;
#197 = ORIENTED_EDGE ( 'NONE', *, *, #141, .F. ) ;
#198 = PRODUCT_DEFINITION_SHAPE ( 'NONE', 'NONE',  #84 ) ;
#199 = DIRECTION ( 'NONE',  ( -0.0000000000000000000, -0.0000000000000000000, -1.000000000000000000 ) ) ;
#200 = PRODUCT ( 'Micro_BEMM-030-3X', 'Micro_BEMM-030-3X', '', ( #252 ) ) ;
#201 = CARTESIAN_POINT ( 'NONE',  ( 7.236265475862304269E-17, 0.0000000000000000000, 0.5908859175478575754 ) ) ;
#202 = CONICAL_SURFACE ( 'NONE', #310, 0.04405500000000001082, 0.7853981633974570498 ) ;
#203 =( GEOMETRIC_REPRESENTATION_CONTEXT ( 3 ) GLOBAL_UNCERTAINTY_ASSIGNED_CONTEXT ( ( #90 ) ) GLOBAL_UNIT_ASSIGNED_CONTEXT ( ( #81, #313, #259 ) ) REPRESENTATION_CONTEXT ( 'NONE', 'WORKASPACE' ) );
#204 = CYLINDRICAL_SURFACE ( 'NONE', #185, 0.05905499999999998251 ) ;
#205 = APPLICATION_CONTEXT ( 'automotive_design' ) ;
#206 = APPLICATION_PROTOCOL_DEFINITION ( 'draft international standard', 'automotive_design', 1998, #205 ) ;
#207 = DIRECTION ( 'NONE',  ( -1.224646799147352961E-16, -0.0000000000000000000, -1.000000000000000000 ) ) ;
#208 = DIRECTION ( 'NONE',  ( 1.000000000000000000, 0.0000000000000000000, 0.0000000000000000000 ) ) ;
#209 = VECTOR ( 'NONE', #64, 39.37007874015748854 ) ;
#210 = PRESENTATION_LAYER_ASSIGNMENT (  '', '', ( #43 ) ) ;
#211 = DIRECTION ( 'NONE',  ( 1.000000000000000000, 0.0000000000000000000, 0.0000000000000000000 ) ) ;
#212 = FACE_OUTER_BOUND ( 'NONE', #224, .T. ) ;
#213 = DIRECTION ( 'NONE',  ( 0.0000000000000000000, 0.0000000000000000000, 1.000000000000000000 ) ) ;
#214 = ADVANCED_BREP_SHAPE_REPRESENTATION ( 'Micro_BEMM-030-3X', ( #167, #14 ), #216 ) ;
#215 =( NAMED_UNIT ( * ) PLANE_ANGLE_UNIT ( ) SI_UNIT ( $, .RADIAN. ) );
#216 =( GEOMETRIC_REPRESENTATION_CONTEXT ( 3 ) GLOBAL_UNCERTAINTY_ASSIGNED_CONTEXT ( ( #137 ) ) GLOBAL_UNIT_ASSIGNED_CONTEXT ( ( #219, #293, #323 ) ) REPRESENTATION_CONTEXT ( 'NONE', 'WORKASPACE' ) );
#217 = SPHERICAL_SURFACE ( 'NONE', #37, 0.05899594499999999409 ) ;
#218 = PRODUCT_RELATED_PRODUCT_CATEGORY ( 'part', '', ( #200 ) ) ;
#219 =( CONVERSION_BASED_UNIT ( 'INCH', #318 ) LENGTH_UNIT ( ) NAMED_UNIT ( #320 ) );
#220 = CARTESIAN_POINT ( 'NONE',  ( 0.0000000000000000000, 0.0000000000000000000, 1.496062999999999921 ) ) ;
#221 = CIRCLE ( 'NONE', #176, 0.05899594499999997327 ) ;
#222 = EDGE_LOOP ( 'NONE', ( #169, #297, #128, #26 ) ) ;
#223 = CYLINDRICAL_SURFACE ( 'NONE', #269, 0.05899594499999997327 ) ;
#224 = EDGE_LOOP ( 'NONE', ( #193, #314 ) ) ;
#225 = DIRECTION ( 'NONE',  ( -1.000000000000000000, 0.0000000000000000000, 0.0000000000000000000 ) ) ;
#226 = CARTESIAN_POINT ( 'NONE',  ( 7.224919520692328148E-18, 0.0000000000000000000, 0.05899594499999999409 ) ) ;
#227 = CIRCLE ( 'NONE', #50, 0.05899594499999997327 ) ;
#228 = EDGE_CURVE ( 'NONE', #76, #54, #120, .T. ) ;
#229 = DIRECTION ( 'NONE',  ( 1.000000000000000000, 0.0000000000000000000, 0.0000000000000000000 ) ) ;
#230 = CARTESIAN_POINT ( 'NONE',  ( 0.0000000000000000000, 0.0000000000000000000, 1.496062999999999921 ) ) ;
#231 = VERTEX_POINT ( 'NONE', #53 ) ;
#232 = AXIS2_PLACEMENT_3D ( 'NONE', #96, #146, #189 ) ;
#233 = DIRECTION ( 'NONE',  ( -1.000000000000000000, 0.0000000000000000000, 0.0000000000000000000 ) ) ;
#234 = ORIENTED_EDGE ( 'NONE', *, *, #16, .F. ) ;
#235 = DIRECTION ( 'NONE',  ( -0.7071067811865536790, 0.0000000000000000000, -0.7071067811865412445 ) ) ;
#236 = AXIS2_PLACEMENT_3D ( 'NONE', #230, #257, #86 ) ;
#237 = CARTESIAN_POINT ( 'NONE',  ( 0.05899594500000004266, 0.0000000000000000000, 0.5905510000000000481 ) ) ;
#238 = EDGE_CURVE ( 'NONE', #123, #80, #289, .T. ) ;
#239 = APPLICATION_CONTEXT ( 'automotive_design' ) ;
#240 = CARTESIAN_POINT ( 'NONE',  ( 7.224919520692328148E-18, 0.0000000000000000000, 0.05899594499999999409 ) ) ;
#241 = DIRECTION ( 'NONE',  ( 1.000000000000000000, 0.0000000000000000000, 0.0000000000000000000 ) ) ;
#242 = STYLED_ITEM ( 'NONE', ( #118 ), #167 ) ;
#243 = DIRECTION ( 'NONE',  ( -1.000000000000000000, 1.224646799147353454E-16, 0.0000000000000000000 ) ) ;
#244 = EDGE_LOOP ( 'NONE', ( #20, #250, #270, #291 ) ) ;
#245 = VECTOR ( 'NONE', #235, 39.37007874015748854 ) ;
#246 = ORIENTED_EDGE ( 'NONE', *, *, #141, .T. ) ;
#247 = SURFACE_STYLE_USAGE ( .BOTH. , #168 ) ;
#248 = EDGE_LOOP ( 'NONE', ( #105, #97, #153 ) ) ;
#249 = ADVANCED_FACE ( 'NONE', ( #143 ), #285, .T. ) ;
#250 = ORIENTED_EDGE ( 'NONE', *, *, #19, .F. ) ;
#251 = EDGE_CURVE ( 'NONE', #80, #174, #227, .T. ) ;
#252 = PRODUCT_CONTEXT ( 'NONE', #239, 'mechanical' ) ;
#253 = ORIENTED_EDGE ( 'NONE', *, *, #238, .F. ) ;
#254 = AXIS2_PLACEMENT_3D ( 'NONE', #201, #83, #208 ) ;
#255 = CIRCLE ( 'NONE', #145, 0.05905499999999998251 ) ;
#256 = ADVANCED_FACE ( 'NONE', ( #148 ), #316, .T. ) ;
#257 = DIRECTION ( 'NONE',  ( -0.0000000000000000000, -0.0000000000000000000, -1.000000000000000000 ) ) ;
#258 = CARTESIAN_POINT ( 'NONE',  ( 0.0000000000000000000, 0.0000000000000000000, 1.496062999999999921 ) ) ;
#259 =( NAMED_UNIT ( * ) SI_UNIT ( $, .STERADIAN. ) SOLID_ANGLE_UNIT ( ) );
#260 = CARTESIAN_POINT ( 'NONE',  ( 7.232163918832683761E-17, 0.0000000000000000000, 0.5905510000000000481 ) ) ;
#261 = VECTOR ( 'NONE', #113, 39.37007874015748143 ) ;
#262 = DIRECTION ( 'NONE',  ( 0.7071067811865536790, 8.659560562355008046E-17, -0.7071067811865412445 ) ) ;
#263 = CYLINDRICAL_SURFACE ( 'NONE', #236, 0.05905499999999998251 ) ;
#264 = DIRECTION ( 'NONE',  ( -1.000000000000000000, 0.0000000000000000000, 0.0000000000000000000 ) ) ;
#265 = AXIS2_PLACEMENT_3D ( 'NONE', #175, #298, #157 ) ;
#266 = DIRECTION ( 'NONE',  ( 1.000000000000000000, 0.0000000000000000000, -0.0000000000000000000 ) ) ;
#267 = LINE ( 'NONE', #66, #324 ) ;
#268 = DIRECTION ( 'NONE',  ( 1.000000000000000000, 0.0000000000000000000, 0.0000000000000000000 ) ) ;
#269 = AXIS2_PLACEMENT_3D ( 'NONE', #295, #51, #290 ) ;
#270 = ORIENTED_EDGE ( 'NONE', *, *, #228, .T. ) ;
#271 = DIRECTION ( 'NONE',  ( 1.224646799147352961E-16, 0.0000000000000000000, 1.000000000000000000 ) ) ;
#272 = FILL_AREA_STYLE_COLOUR ( '', #104 ) ;
#273 = AXIS2_PLACEMENT_3D ( 'NONE', #220, #192, #225 ) ;
#274 = FILL_AREA_STYLE ('',( #272 ) ) ;
#275 = ORIENTED_EDGE ( 'NONE', *, *, #68, .T. ) ;
#276 = ORIENTED_EDGE ( 'NONE', *, *, #46, .T. ) ;
#277 = LINE ( 'NONE', #32, #156 ) ;
#278 = MECHANICAL_DESIGN_GEOMETRIC_PRESENTATION_REPRESENTATION (  '', ( #242 ), #21 ) ;
#279 = DIRECTION ( 'NONE',  ( -1.000000000000000000, 0.0000000000000000000, 0.0000000000000000000 ) ) ;
#280 = CARTESIAN_POINT ( 'NONE',  ( -0.05905499999999998251, 0.0000000000000000000, 1.496062999999999921 ) ) ;
#281 = DIRECTION ( 'NONE',  ( 0.0000000000000000000, 0.0000000000000000000, -1.000000000000000000 ) ) ;
#282 = LINE ( 'NONE', #8, #209 ) ;
#283 = CLOSED_SHELL ( 'NONE', ( #178, #302, #191, #9, #72, #30, #183, #308, #249, #256, #136 ) ) ;
#284 = CARTESIAN_POINT ( 'NONE',  ( 0.0000000000000000000, 0.0000000000000000000, 1.496062999999999921 ) ) ;
#285 = CONICAL_SURFACE ( 'NONE', #5, 0.05899594499999997327, 0.1745329251994346687 ) ;
#286 =( NAMED_UNIT ( * ) SI_UNIT ( $, .STERADIAN. ) SOLID_ANGLE_UNIT ( ) );
#287 = DIRECTION ( 'NONE',  ( 0.0000000000000000000, 0.0000000000000000000, -1.000000000000000000 ) ) ;
#288 = DIRECTION ( 'NONE',  ( 0.0000000000000000000, 0.0000000000000000000, -1.000000000000000000 ) ) ;
#289 = CIRCLE ( 'NONE', #73, 0.05899594499999999409 ) ;
#290 = DIRECTION ( 'NONE',  ( -1.000000000000000000, 0.0000000000000000000, 1.224646799147352714E-16 ) ) ;
#291 = ORIENTED_EDGE ( 'NONE', *, *, #165, .F. ) ;
#292 = ORIENTED_EDGE ( 'NONE', *, *, #134, .F. ) ;
#293 =( NAMED_UNIT ( * ) PLANE_ANGLE_UNIT ( ) SI_UNIT ( $, .RADIAN. ) );
#294 = EDGE_LOOP ( 'NONE', ( #322, #276, #172, #111 ) ) ;
#295 = CARTESIAN_POINT ( 'NONE',  ( 0.0000000000000000000, 0.0000000000000000000, 0.0000000000000000000 ) ) ;
#296 = LENGTH_MEASURE_WITH_UNIT ( LENGTH_MEASURE( 0.02539999999999999897 ), #25 );
#297 = ORIENTED_EDGE ( 'NONE', *, *, #165, .T. ) ;
#298 = DIRECTION ( 'NONE',  ( 0.0000000000000000000, 0.0000000000000000000, 1.000000000000000000 ) ) ;
#299 = CARTESIAN_POINT ( 'NONE',  ( -0.05905499999999998251, 0.0000000000000000000, 1.481063000000000240 ) ) ;
#300 = VECTOR ( 'NONE', #12, 39.37007874015748143 ) ;
#301 = CARTESIAN_POINT ( 'NONE',  ( -0.05899594499999995939, 0.0000000000000000000, 0.05899594500000000796 ) ) ;
#302 = ADVANCED_FACE ( 'NONE', ( #99 ), #223, .T. ) ;
#303 = CARTESIAN_POINT ( 'NONE',  ( -0.05905499999999991312, 0.0000000000000000000, 0.5908859175478575754 ) ) ;
#304 = CIRCLE ( 'NONE', #181, 0.05899594499999997327 ) ;
#305 = CARTESIAN_POINT ( 'NONE',  ( 0.0000000000000000000, 0.0000000000000000000, 1.496062999999999921 ) ) ;
#306 = CIRCLE ( 'NONE', #196, 0.05899594499999999409 ) ;
#307 = SURFACE_STYLE_USAGE ( .BOTH. , #38 ) ;
#308 = ADVANCED_FACE ( 'NONE', ( #48 ), #190, .T. ) ;
#309 = DIRECTION ( 'NONE',  ( -1.224646799147352961E-16, -0.0000000000000000000, -1.000000000000000000 ) ) ;
#310 = AXIS2_PLACEMENT_3D ( 'NONE', #182, #281, #58 ) ;
#311 = FACE_OUTER_BOUND ( 'NONE', #149, .T. ) ;
#312 = CARTESIAN_POINT ( 'NONE',  ( 7.224919520692328148E-18, 0.0000000000000000000, 0.05899594499999999409 ) ) ;
#313 =( NAMED_UNIT ( * ) PLANE_ANGLE_UNIT ( ) SI_UNIT ( $, .RADIAN. ) );
#314 = ORIENTED_EDGE ( 'NONE', *, *, #45, .T. ) ;
#315 = CIRCLE ( 'NONE', #265, 0.04405500000000001082 ) ;
#316 = CYLINDRICAL_SURFACE ( 'NONE', #232, 0.05899594499999997327 ) ;
#317 = EDGE_LOOP ( 'NONE', ( #147, #246, #24, #195 ) ) ;
#318 = LENGTH_MEASURE_WITH_UNIT ( LENGTH_MEASURE( 0.02539999999999999897 ), #171 );
#319 = VERTEX_POINT ( 'NONE', #173 ) ;
#320 = DIMENSIONAL_EXPONENTS ( 1.000000000000000000, 0.0000000000000000000, 0.0000000000000000000, 0.0000000000000000000, 0.0000000000000000000, 0.0000000000000000000, 0.0000000000000000000 ) ;
#321 = CARTESIAN_POINT ( 'NONE',  ( 0.05905500000000004496, 7.232151672364700045E-18, 0.5908859175478575754 ) ) ;
#322 = ORIENTED_EDGE ( 'NONE', *, *, #45, .F. ) ;
#323 =( NAMED_UNIT ( * ) SI_UNIT ( $, .STERADIAN. ) SOLID_ANGLE_UNIT ( ) );
#324 = VECTOR ( 'NONE', #94, 39.37007874015748143 ) ;
#325 = VERTEX_POINT ( 'NONE', #321 ) ;
ENDSEC;
END-ISO-10303-21;
