ISO-10303-21;
HEADER;
FILE_DESCRIPTION (( 'STEP AP214' ),
    '1' );
FILE_NAME ('Micro_GEM-171-4.STEP',
    '2021-09-01T19:57:27',
    ( '' ),
    ( '' ),
    'SwSTEP 2.0',
    'SolidWorks 2020',
    '' );
FILE_SCHEMA (( 'AUTOMOTIVE_DESIGN' ));
ENDSEC;

DATA;
#1 = DIRECTION ( 'NONE',  ( -1.000000000000000000, 0.0000000000000000000, 0.0000000000000000000 ) ) ;
#2 = CYLINDRICAL_SURFACE ( 'NONE', #262, 0.09375000000000001388 ) ;
#3 = DIRECTION ( 'NONE',  ( 0.7071067811865463515, 8.659560562354916834E-17, -0.7071067811865486830 ) ) ;
#4 = DIRECTION ( 'NONE',  ( -1.224646799147353207E-16, -0.0000000000000000000, -1.000000000000000000 ) ) ;
#5 = CARTESIAN_POINT ( 'NONE',  ( -0.09375000000000001388, 0.0000000000000000000, 2.000000000000000000 ) ) ;
#6 = CARTESIAN_POINT ( 'NONE',  ( -0.08586404999999999732, 0.0000000000000000000, 2.103062679886566065E-17 ) ) ;
#7 = SHAPE_DEFINITION_REPRESENTATION ( #201, #120 ) ;
#8 = CARTESIAN_POINT ( 'NONE',  ( 0.0000000000000000000, 0.0000000000000000000, 2.000000000000000000 ) ) ;
#9 = LINE ( 'NONE', #167, #133 ) ;
#10 = CIRCLE ( 'NONE', #112, 0.09375000000000001388 ) ;
#11 = CARTESIAN_POINT ( 'NONE',  ( -0.08586404999999992793, 1.099818857071963216E-17, 0.6250000000000000000 ) ) ;
#12 = LINE ( 'NONE', #103, #218 ) ;
#13 = AXIS2_PLACEMENT_3D ( 'NONE', #166, #30, #190 ) ;
#14 = VERTEX_POINT ( 'NONE', #11 ) ;
#15 = EDGE_CURVE ( 'NONE', #223, #195, #257, .T. ) ;
#16 = FILL_AREA_STYLE_COLOUR ( '', #251 ) ;
#17 = VERTEX_POINT ( 'NONE', #35 ) ;
#18 = ORIENTED_EDGE ( 'NONE', *, *, #64, .T. ) ;
#19 = AXIS2_PLACEMENT_3D ( 'NONE', #138, #163, #95 ) ;
#20 = AXIS2_PLACEMENT_3D ( 'NONE', #283, #114, #207 ) ;
#21 = ORIENTED_EDGE ( 'NONE', *, *, #92, .T. ) ;
#22 = DIRECTION ( 'NONE',  ( 0.0000000000000000000, 0.0000000000000000000, -1.000000000000000000 ) ) ;
#23 = EDGE_CURVE ( 'NONE', #195, #150, #12, .T. ) ;
#24 = CYLINDRICAL_SURFACE ( 'NONE', #98, 0.08586404999999999732 ) ;
#25 = DIRECTION ( 'NONE',  ( 1.000000000000000000, 0.0000000000000000000, 0.0000000000000000000 ) ) ;
#26 = DIRECTION ( 'NONE',  ( 1.000000000000000000, 0.0000000000000000000, -0.0000000000000000000 ) ) ;
#27 = AXIS2_PLACEMENT_3D ( 'NONE', #211, #182, #162 ) ;
#28 = DIRECTION ( 'NONE',  ( 0.0000000000000000000, 0.0000000000000000000, -1.000000000000000000 ) ) ;
#29 = LINE ( 'NONE', #121, #110 ) ;
#30 = DIRECTION ( 'NONE',  ( -1.224646799147353207E-16, -0.0000000000000000000, -1.000000000000000000 ) ) ;
#31 = DIRECTION ( 'NONE',  ( -1.224646799147353207E-16, -0.0000000000000000000, -1.000000000000000000 ) ) ;
#32 = PRESENTATION_LAYER_ASSIGNMENT (  '', '', ( #57 ) ) ;
#33 = EDGE_CURVE ( 'NONE', #291, #195, #171, .T. ) ;
#34 = ORIENTED_EDGE ( 'NONE', *, *, #213, .T. ) ;
#35 = CARTESIAN_POINT ( 'NONE',  ( 0.08586404999999999732, 1.051531339943283032E-17, 0.0000000000000000000 ) ) ;
#36 = EDGE_CURVE ( 'NONE', #195, #223, #169, .T. ) ;
#37 = ORIENTED_EDGE ( 'NONE', *, *, #15, .F. ) ;
#38 = EDGE_LOOP ( 'NONE', ( #58, #198, #151, #191 ) ) ;
#39 = ADVANCED_FACE ( 'NONE', ( #286 ), #229, .T. ) ;
#40 = ORIENTED_EDGE ( 'NONE', *, *, #64, .F. ) ;
#41 =( NAMED_UNIT ( * ) SI_UNIT ( $, .STERADIAN. ) SOLID_ANGLE_UNIT ( ) );
#42 = EDGE_CURVE ( 'NONE', #295, #291, #61, .T. ) ;
#43 = LENGTH_MEASURE_WITH_UNIT ( LENGTH_MEASURE( 0.02539999999999999897 ), #215 );
#44 = CARTESIAN_POINT ( 'NONE',  ( 0.09375000000000001388, 1.148106374200643863E-17, 1.984999999999999654 ) ) ;
#45 = CARTESIAN_POINT ( 'NONE',  ( 0.0000000000000000000, 0.0000000000000000000, 2.000000000000000000 ) ) ;
#46 = FACE_OUTER_BOUND ( 'NONE', #38, .T. ) ;
#47 = LINE ( 'NONE', #5, #243 ) ;
#48 = DIRECTION ( 'NONE',  ( -0.0000000000000000000, -0.0000000000000000000, -1.000000000000000000 ) ) ;
#49 = ORIENTED_EDGE ( 'NONE', *, *, #289, .T. ) ;
#50 = DIRECTION ( 'NONE',  ( -1.224646799147353207E-16, -0.0000000000000000000, -1.000000000000000000 ) ) ;
#51 = CIRCLE ( 'NONE', #238, 0.08586404999999999732 ) ;
#52 = DIRECTION ( 'NONE',  ( -1.000000000000000000, 0.0000000000000000000, 0.0000000000000000000 ) ) ;
#53 =( GEOMETRIC_REPRESENTATION_CONTEXT ( 3 ) GLOBAL_UNCERTAINTY_ASSIGNED_CONTEXT ( ( #248 ) ) GLOBAL_UNIT_ASSIGNED_CONTEXT ( ( #173, #276, #41 ) ) REPRESENTATION_CONTEXT ( 'NONE', 'WORKASPACE' ) );
#54 = CARTESIAN_POINT ( 'NONE',  ( 7.654042494670957853E-17, 0.0000000000000000000, 0.6250000000000000000 ) ) ;
#55 = ORIENTED_EDGE ( 'NONE', *, *, #23, .F. ) ;
#56 = AXIS2_PLACEMENT_3D ( 'NONE', #8, #266, #206 ) ;
#57 = STYLED_ITEM ( 'NONE', ( #231 ), #120 ) ;
#58 = ORIENTED_EDGE ( 'NONE', *, *, #149, .F. ) ;
#59 = MANIFOLD_SOLID_BREP ( 'Cut-Revolve1', #109 ) ;
#60 = ORIENTED_EDGE ( 'NONE', *, *, #42, .F. ) ;
#61 = CIRCLE ( 'NONE', #296, 0.07874999999999980627 ) ;
#62 = ORIENTED_EDGE ( 'NONE', *, *, #73, .T. ) ;
#63 = ADVANCED_FACE ( 'NONE', ( #72 ), #230, .T. ) ;
#64 = EDGE_CURVE ( 'NONE', #14, #152, #9, .T. ) ;
#65 =( NAMED_UNIT ( * ) SI_UNIT ( $, .STERADIAN. ) SOLID_ANGLE_UNIT ( ) );
#66 = DIRECTION ( 'NONE',  ( 1.000000000000000000, 0.0000000000000000000, 0.0000000000000000000 ) ) ;
#67 = DIRECTION ( 'NONE',  ( -1.224646799147353207E-16, -0.0000000000000000000, -1.000000000000000000 ) ) ;
#68 = CARTESIAN_POINT ( 'NONE',  ( 8.201746730683681886E-17, 0.0000000000000000000, 0.6697234448654140193 ) ) ;
#69 = FACE_OUTER_BOUND ( 'NONE', #96, .T. ) ;
#70 = AXIS2_PLACEMENT_3D ( 'NONE', #232, #22, #90 ) ;
#71 = DIRECTION ( 'NONE',  ( 1.000000000000000000, 0.0000000000000000000, 0.0000000000000000000 ) ) ;
#72 = FACE_OUTER_BOUND ( 'NONE', #293, .T. ) ;
#73 = EDGE_CURVE ( 'NONE', #274, #17, #239, .T. ) ;
#74 = AXIS2_PLACEMENT_3D ( 'NONE', #157, #113, #203 ) ;
#75 = DIRECTION ( 'NONE',  ( 1.000000000000000000, 0.0000000000000000000, 0.0000000000000000000 ) ) ;
#76 = AXIS2_PLACEMENT_3D ( 'NONE', #93, #158, #25 ) ;
#77 = ADVANCED_FACE ( 'NONE', ( #267 ), #237, .F. ) ;
#78 = DIRECTION ( 'NONE',  ( -1.224646799147353207E-16, -0.0000000000000000000, -1.000000000000000000 ) ) ;
#79 = EDGE_LOOP ( 'NONE', ( #40, #294, #278, #100 ) ) ;
#80 = UNCERTAINTY_MEASURE_WITH_UNIT (LENGTH_MEASURE( 1.000000000000000082E-05 ), #179, 'distance_accuracy_value', 'NONE');
#81 = CARTESIAN_POINT ( 'NONE',  ( 0.07874999999999980627, 1.056257864264590573E-17, 2.000000000000000000 ) ) ;
#82 = DIRECTION ( 'NONE',  ( -0.0000000000000000000, -0.0000000000000000000, -1.000000000000000000 ) ) ;
#83 = CARTESIAN_POINT ( 'NONE',  ( -0.07874999999999980627, 0.0000000000000000000, 2.000000000000000000 ) ) ;
#84 = ORIENTED_EDGE ( 'NONE', *, *, #15, .T. ) ;
#85 = LENGTH_MEASURE_WITH_UNIT ( LENGTH_MEASURE( 0.02539999999999999897 ), #88 );
#86 = DIMENSIONAL_EXPONENTS ( 1.000000000000000000, 0.0000000000000000000, 0.0000000000000000000, 0.0000000000000000000, 0.0000000000000000000, 0.0000000000000000000, 0.0000000000000000000 ) ;
#87 = ORIENTED_EDGE ( 'NONE', *, *, #36, .F. ) ;
#88 =( LENGTH_UNIT ( ) NAMED_UNIT ( * ) SI_UNIT ( $, .METRE. ) );
#89 = CONICAL_SURFACE ( 'NONE', #139, 0.08586404999999999732, 0.1745329251994338360 ) ;
#90 = DIRECTION ( 'NONE',  ( -1.000000000000000000, 0.0000000000000000000, 0.0000000000000000000 ) ) ;
#91 = DIRECTION ( 'NONE',  ( 1.000000000000000000, 0.0000000000000000000, 0.0000000000000000000 ) ) ;
#92 = EDGE_CURVE ( 'NONE', #14, #127, #51, .T. ) ;
#93 = CARTESIAN_POINT ( 'NONE',  ( 8.201746730683681886E-17, 0.0000000000000000000, 0.6697234448654140193 ) ) ;
#94 = ADVANCED_FACE ( 'NONE', ( #241 ), #89, .T. ) ;
#95 = DIRECTION ( 'NONE',  ( -1.000000000000000000, 0.0000000000000000000, 1.224646799147353454E-16 ) ) ;
#96 = EDGE_LOOP ( 'NONE', ( #84, #106, #168, #175 ) ) ;
#97 = DIRECTION ( 'NONE',  ( -0.1736481776669311639, 2.126576849575782392E-17, 0.9848077530122080203 ) ) ;
#98 = AXIS2_PLACEMENT_3D ( 'NONE', #234, #4, #259 ) ;
#99 = DIRECTION ( 'NONE',  ( 1.224646799147353207E-16, 0.0000000000000000000, 1.000000000000000000 ) ) ;
#100 = ORIENTED_EDGE ( 'NONE', *, *, #236, .T. ) ;
#101 = DIRECTION ( 'NONE',  ( 0.0000000000000000000, 0.0000000000000000000, 1.000000000000000000 ) ) ;
#102 = CARTESIAN_POINT ( 'NONE',  ( 0.0000000000000000000, 0.0000000000000000000, 1.984999999999999654 ) ) ;
#103 = CARTESIAN_POINT ( 'NONE',  ( 0.09375000000000001388, 1.148106374200643863E-17, 2.000000000000000000 ) ) ;
#104 = AXIS2_PLACEMENT_3D ( 'NONE', #119, #123, #26 ) ;
#105 = ORIENTED_EDGE ( 'NONE', *, *, #130, .T. ) ;
#106 = ORIENTED_EDGE ( 'NONE', *, *, #23, .T. ) ;
#107 = ADVANCED_FACE ( 'NONE', ( #187 ), #287, .T. ) ;
#108 = ORIENTED_EDGE ( 'NONE', *, *, #236, .F. ) ;
#109 = CLOSED_SHELL ( 'NONE', ( #107, #94, #210, #146, #63, #142, #39, #227, #174, #77 ) ) ;
#110 = VECTOR ( 'NONE', #219, 39.37007874015748143 ) ;
#111 =( LENGTH_UNIT ( ) NAMED_UNIT ( * ) SI_UNIT ( $, .METRE. ) );
#112 = AXIS2_PLACEMENT_3D ( 'NONE', #68, #50, #71 ) ;
#113 = DIRECTION ( 'NONE',  ( 0.0000000000000000000, 0.0000000000000000000, 1.000000000000000000 ) ) ;
#114 = DIRECTION ( 'NONE',  ( 0.0000000000000000000, 0.0000000000000000000, 1.000000000000000000 ) ) ;
#115 = CARTESIAN_POINT ( 'NONE',  ( 0.09375000000000009714, 1.148106374200644787E-17, 0.6697234448654140193 ) ) ;
#116 = AXIS2_PLACEMENT_3D ( 'NONE', #102, #170, #246 ) ;
#117 = COLOUR_RGB ( '',0.7921568627450980005, 0.8196078431372548767, 0.9333333333333333481 ) ;
#118 = LINE ( 'NONE', #261, #273 ) ;
#119 = CARTESIAN_POINT ( 'NONE',  ( 0.0000000000000000000, 0.0000000000000000000, 0.0000000000000000000 ) ) ;
#120 = ADVANCED_BREP_SHAPE_REPRESENTATION ( 'Micro_GEM-171-4', ( #59, #20 ), #263 ) ;
#121 = CARTESIAN_POINT ( 'NONE',  ( -0.07874999999999980627, 0.0000000000000000000, 2.000000000000000000 ) ) ;
#122 =( NAMED_UNIT ( * ) SI_UNIT ( $, .STERADIAN. ) SOLID_ANGLE_UNIT ( ) );
#123 = DIRECTION ( 'NONE',  ( 0.0000000000000000000, 0.0000000000000000000, 1.000000000000000000 ) ) ;
#124 = ORIENTED_EDGE ( 'NONE', *, *, #36, .T. ) ;
#125 = EDGE_CURVE ( 'NONE', #127, #14, #233, .T. ) ;
#126 = EDGE_LOOP ( 'NONE', ( #226, #60, #49, #87 ) ) ;
#127 = VERTEX_POINT ( 'NONE', #143 ) ;
#128 = CIRCLE ( 'NONE', #200, 0.08586404999999999732 ) ;
#129 = EDGE_LOOP ( 'NONE', ( #216, #160, #37, #245 ) ) ;
#130 = EDGE_CURVE ( 'NONE', #17, #274, #128, .T. ) ;
#131 = SURFACE_STYLE_USAGE ( .BOTH. , #178 ) ;
#132 = FACE_OUTER_BOUND ( 'NONE', #129, .T. ) ;
#133 = VECTOR ( 'NONE', #97, 39.37007874015747433 ) ;
#134 = LINE ( 'NONE', #205, #288 ) ;
#135 = DIRECTION ( 'NONE',  ( 1.224646799147353207E-16, 0.0000000000000000000, 1.000000000000000000 ) ) ;
#136 = APPLICATION_PROTOCOL_DEFINITION ( 'draft international standard', 'automotive_design', 1998, #247 ) ;
#137 = DIRECTION ( 'NONE',  ( -0.0000000000000000000, -0.0000000000000000000, -1.000000000000000000 ) ) ;
#138 = CARTESIAN_POINT ( 'NONE',  ( 1.287754489664668799E-33, 0.0000000000000000000, 1.051531339943283032E-17 ) ) ;
#139 = AXIS2_PLACEMENT_3D ( 'NONE', #54, #99, #75 ) ;
#140 = CIRCLE ( 'NONE', #76, 0.09375000000000001388 ) ;
#141 = FACE_OUTER_BOUND ( 'NONE', #79, .T. ) ;
#142 = ADVANCED_FACE ( 'NONE', ( #204 ), #181, .T. ) ;
#143 = CARTESIAN_POINT ( 'NONE',  ( 0.08586405000000006671, 0.0000000000000000000, 0.6250000000000000000 ) ) ;
#144 = STYLED_ITEM ( 'NONE', ( #297 ), #59 ) ;
#145 = EDGE_LOOP ( 'NONE', ( #21, #272, #196, #147 ) ) ;
#146 = ADVANCED_FACE ( 'NONE', ( #69 ), #2, .T. ) ;
#147 = ORIENTED_EDGE ( 'NONE', *, *, #156, .F. ) ;
#148 = PRODUCT_DEFINITION_CONTEXT ( 'detailed design', #247, 'design' ) ;
#149 = EDGE_CURVE ( 'NONE', #127, #17, #235, .T. ) ;
#150 = VERTEX_POINT ( 'NONE', #115 ) ;
#151 = ORIENTED_EDGE ( 'NONE', *, *, #156, .T. ) ;
#152 = VERTEX_POINT ( 'NONE', #161 ) ;
#153 = DIMENSIONAL_EXPONENTS ( 1.000000000000000000, 0.0000000000000000000, 0.0000000000000000000, 0.0000000000000000000, 0.0000000000000000000, 0.0000000000000000000, 0.0000000000000000000 ) ;
#154 = FILL_AREA_STYLE ('',( #16 ) ) ;
#155 = SURFACE_STYLE_USAGE ( .BOTH. , #255 ) ;
#156 = EDGE_CURVE ( 'NONE', #14, #274, #134, .T. ) ;
#157 = CARTESIAN_POINT ( 'NONE',  ( 0.0000000000000000000, 0.0000000000000000000, 2.000000000000000000 ) ) ;
#158 = DIRECTION ( 'NONE',  ( -1.224646799147353207E-16, -0.0000000000000000000, -1.000000000000000000 ) ) ;
#159 = MECHANICAL_DESIGN_GEOMETRIC_PRESENTATION_REPRESENTATION (  '', ( #144 ), #208 ) ;
#160 = ORIENTED_EDGE ( 'NONE', *, *, #33, .T. ) ;
#161 = CARTESIAN_POINT ( 'NONE',  ( -0.09374999999999991673, 0.0000000000000000000, 0.6697234448654140193 ) ) ;
#162 = DIRECTION ( 'NONE',  ( -1.000000000000000000, 0.0000000000000000000, 0.0000000000000000000 ) ) ;
#163 = DIRECTION ( 'NONE',  ( -1.224646799147353207E-16, -0.0000000000000000000, -1.000000000000000000 ) ) ;
#164 = APPLICATION_PROTOCOL_DEFINITION ( 'draft international standard', 'automotive_design', 1998, #180 ) ;
#165 = DIRECTION ( 'NONE',  ( -0.0000000000000000000, -0.0000000000000000000, -1.000000000000000000 ) ) ;
#166 = CARTESIAN_POINT ( 'NONE',  ( 0.0000000000000000000, 0.0000000000000000000, 0.0000000000000000000 ) ) ;
#167 = CARTESIAN_POINT ( 'NONE',  ( -0.08586404999999992793, 1.051531339943283032E-17, 0.6250000000000000000 ) ) ;
#168 = ORIENTED_EDGE ( 'NONE', *, *, #254, .F. ) ;
#169 = CIRCLE ( 'NONE', #258, 0.09375000000000001388 ) ;
#170 = DIRECTION ( 'NONE',  ( 0.0000000000000000000, 0.0000000000000000000, -1.000000000000000000 ) ) ;
#171 = LINE ( 'NONE', #275, #292 ) ;
#172 = ORIENTED_EDGE ( 'NONE', *, *, #268, .F. ) ;
#173 =( CONVERSION_BASED_UNIT ( 'INCH', #85 ) LENGTH_UNIT ( ) NAMED_UNIT ( #225 ) );
#174 = ADVANCED_FACE ( 'NONE', ( #46 ), #24, .T. ) ;
#175 = ORIENTED_EDGE ( 'NONE', *, *, #222, .F. ) ;
#176 = VECTOR ( 'NONE', #67, 39.37007874015748143 ) ;
#177 = CONICAL_SURFACE ( 'NONE', #244, 0.08586404999999999732, 0.1745329251994338360 ) ;
#178 = SURFACE_SIDE_STYLE ('',( #298 ) ) ;
#179 =( CONVERSION_BASED_UNIT ( 'INCH', #43 ) LENGTH_UNIT ( ) NAMED_UNIT ( #153 ) );
#180 = APPLICATION_CONTEXT ( 'automotive_design' ) ;
#181 = PLANE ( 'NONE',  #74 ) ;
#182 = DIRECTION ( 'NONE',  ( 0.0000000000000000000, 0.0000000000000000000, -1.000000000000000000 ) ) ;
#183 = DIRECTION ( 'NONE',  ( 1.000000000000000000, 0.0000000000000000000, 0.0000000000000000000 ) ) ;
#184 = CARTESIAN_POINT ( 'NONE',  ( 0.0000000000000000000, 0.0000000000000000000, 2.000000000000000000 ) ) ;
#185 = CARTESIAN_POINT ( 'NONE',  ( 0.0000000000000000000, 0.0000000000000000000, 1.984999999999999654 ) ) ;
#186 = CARTESIAN_POINT ( 'NONE',  ( 7.654042494670957853E-17, 0.0000000000000000000, 0.6250000000000000000 ) ) ;
#187 = FACE_OUTER_BOUND ( 'NONE', #145, .T. ) ;
#188 = CIRCLE ( 'NONE', #56, 0.07874999999999980627 ) ;
#189 = PRODUCT_RELATED_PRODUCT_CATEGORY ( 'part', '', ( #260 ) ) ;
#190 = DIRECTION ( 'NONE',  ( -1.000000000000000000, 0.0000000000000000000, 1.224646799147353454E-16 ) ) ;
#191 = ORIENTED_EDGE ( 'NONE', *, *, #130, .F. ) ;
#192 = UNCERTAINTY_MEASURE_WITH_UNIT (LENGTH_MEASURE( 1.000000000000000082E-05 ), #228, 'distance_accuracy_value', 'NONE');
#193 = PRESENTATION_LAYER_ASSIGNMENT (  '', '', ( #144 ) ) ;
#194 = ORIENTED_EDGE ( 'NONE', *, *, #42, .T. ) ;
#195 = VERTEX_POINT ( 'NONE', #44 ) ;
#196 = ORIENTED_EDGE ( 'NONE', *, *, #73, .F. ) ;
#197 = SURFACE_STYLE_FILL_AREA ( #224 ) ;
#198 = ORIENTED_EDGE ( 'NONE', *, *, #125, .T. ) ;
#199 = FILL_AREA_STYLE_COLOUR ( '', #117 ) ;
#200 = AXIS2_PLACEMENT_3D ( 'NONE', #242, #31, #279 ) ;
#201 = PRODUCT_DEFINITION_SHAPE ( 'NONE', 'NONE',  #284 ) ;
#202 = LENGTH_MEASURE_WITH_UNIT ( LENGTH_MEASURE( 0.02539999999999999897 ), #111 );
#203 = DIRECTION ( 'NONE',  ( 1.000000000000000000, 0.0000000000000000000, -0.0000000000000000000 ) ) ;
#204 = FACE_OUTER_BOUND ( 'NONE', #221, .T. ) ;
#205 = CARTESIAN_POINT ( 'NONE',  ( -0.08586404999999999732, 0.0000000000000000000, 1.051531339943283032E-17 ) ) ;
#206 = DIRECTION ( 'NONE',  ( 1.000000000000000000, 0.0000000000000000000, 0.0000000000000000000 ) ) ;
#207 = DIRECTION ( 'NONE',  ( 1.000000000000000000, 0.0000000000000000000, 0.0000000000000000000 ) ) ;
#208 =( GEOMETRIC_REPRESENTATION_CONTEXT ( 3 ) GLOBAL_UNCERTAINTY_ASSIGNED_CONTEXT ( ( #192 ) ) GLOBAL_UNIT_ASSIGNED_CONTEXT ( ( #228, #212, #122 ) ) REPRESENTATION_CONTEXT ( 'NONE', 'WORKASPACE' ) );
#209 = DIRECTION ( 'NONE',  ( 0.1736481776669313304, 0.0000000000000000000, 0.9848077530122077983 ) ) ;
#210 = ADVANCED_FACE ( 'NONE', ( #132 ), #214, .T. ) ;
#211 = CARTESIAN_POINT ( 'NONE',  ( 0.0000000000000000000, 0.0000000000000000000, 2.000000000000000000 ) ) ;
#212 =( NAMED_UNIT ( * ) PLANE_ANGLE_UNIT ( ) SI_UNIT ( $, .RADIAN. ) );
#213 = EDGE_CURVE ( 'NONE', #291, #295, #188, .T. ) ;
#214 = CONICAL_SURFACE ( 'NONE', #70, 0.07874999999999980627, 0.7853981633974466137 ) ;
#215 =( LENGTH_UNIT ( ) NAMED_UNIT ( * ) SI_UNIT ( $, .METRE. ) );
#216 = ORIENTED_EDGE ( 'NONE', *, *, #213, .F. ) ;
#217 = ORIENTED_EDGE ( 'NONE', *, *, #92, .F. ) ;
#218 = VECTOR ( 'NONE', #82, 39.37007874015748143 ) ;
#219 = DIRECTION ( 'NONE',  ( -0.7071067811865463515, 0.0000000000000000000, -0.7071067811865486830 ) ) ;
#220 = PRODUCT_DEFINITION_FORMATION_WITH_SPECIFIED_SOURCE ( 'ANY', '', #260, .NOT_KNOWN. ) ;
#221 = EDGE_LOOP ( 'NONE', ( #194, #34 ) ) ;
#222 = EDGE_CURVE ( 'NONE', #223, #152, #47, .T. ) ;
#223 = VERTEX_POINT ( 'NONE', #240 ) ;
#224 = FILL_AREA_STYLE ('',( #199 ) ) ;
#225 = DIMENSIONAL_EXPONENTS ( 1.000000000000000000, 0.0000000000000000000, 0.0000000000000000000, 0.0000000000000000000, 0.0000000000000000000, 0.0000000000000000000, 0.0000000000000000000 ) ;
#226 = ORIENTED_EDGE ( 'NONE', *, *, #33, .F. ) ;
#227 = ADVANCED_FACE ( 'NONE', ( #141 ), #177, .T. ) ;
#228 =( CONVERSION_BASED_UNIT ( 'INCH', #202 ) LENGTH_UNIT ( ) NAMED_UNIT ( #86 ) );
#229 = CONICAL_SURFACE ( 'NONE', #27, 0.07874999999999980627, 0.7853981633974466137 ) ;
#230 = CYLINDRICAL_SURFACE ( 'NONE', #250, 0.09375000000000001388 ) ;
#231 = PRESENTATION_STYLE_ASSIGNMENT (( #131 ) ) ;
#232 = CARTESIAN_POINT ( 'NONE',  ( 0.0000000000000000000, 0.0000000000000000000, 2.000000000000000000 ) ) ;
#233 = CIRCLE ( 'NONE', #270, 0.08586404999999999732 ) ;
#234 = CARTESIAN_POINT ( 'NONE',  ( 0.0000000000000000000, 0.0000000000000000000, 0.0000000000000000000 ) ) ;
#235 = LINE ( 'NONE', #280, #176 ) ;
#236 = EDGE_CURVE ( 'NONE', #150, #152, #10, .T. ) ;
#237 = PLANE ( 'NONE',  #104 ) ;
#238 = AXIS2_PLACEMENT_3D ( 'NONE', #186, #285, #52 ) ;
#239 = CIRCLE ( 'NONE', #19, 0.08586404999999999732 ) ;
#240 = CARTESIAN_POINT ( 'NONE',  ( -0.09375000000000001388, 0.0000000000000000000, 1.984999999999999654 ) ) ;
#241 = FACE_OUTER_BOUND ( 'NONE', #249, .T. ) ;
#242 = CARTESIAN_POINT ( 'NONE',  ( 1.287754489664668799E-33, 0.0000000000000000000, 1.051531339943283032E-17 ) ) ;
#243 = VECTOR ( 'NONE', #165, 39.37007874015748143 ) ;
#244 = AXIS2_PLACEMENT_3D ( 'NONE', #269, #135, #183 ) ;
#245 = ORIENTED_EDGE ( 'NONE', *, *, #289, .F. ) ;
#246 = DIRECTION ( 'NONE',  ( 1.000000000000000000, 0.0000000000000000000, 0.0000000000000000000 ) ) ;
#247 = APPLICATION_CONTEXT ( 'automotive_design' ) ;
#248 = UNCERTAINTY_MEASURE_WITH_UNIT (LENGTH_MEASURE( 1.000000000000000082E-05 ), #173, 'distance_accuracy_value', 'NONE');
#249 = EDGE_LOOP ( 'NONE', ( #217, #18, #253, #172 ) ) ;
#250 = AXIS2_PLACEMENT_3D ( 'NONE', #184, #48, #282 ) ;
#251 = COLOUR_RGB ( '',0.7921568627450980005, 0.8196078431372548767, 0.9333333333333333481 ) ;
#252 = ORIENTED_EDGE ( 'NONE', *, *, #222, .T. ) ;
#253 = ORIENTED_EDGE ( 'NONE', *, *, #254, .T. ) ;
#254 = EDGE_CURVE ( 'NONE', #152, #150, #140, .T. ) ;
#255 = SURFACE_SIDE_STYLE ('',( #197 ) ) ;
#256 =( NAMED_UNIT ( * ) PLANE_ANGLE_UNIT ( ) SI_UNIT ( $, .RADIAN. ) );
#257 = CIRCLE ( 'NONE', #116, 0.09375000000000001388 ) ;
#258 = AXIS2_PLACEMENT_3D ( 'NONE', #185, #28, #91 ) ;
#259 = DIRECTION ( 'NONE',  ( -1.000000000000000000, 0.0000000000000000000, 1.224646799147353454E-16 ) ) ;
#260 = PRODUCT ( 'Micro_GEM-171-4', 'Micro_GEM-171-4', '', ( #281 ) ) ;
#261 = CARTESIAN_POINT ( 'NONE',  ( 0.08586405000000006671, 0.0000000000000000000, 0.6250000000000000000 ) ) ;
#262 = AXIS2_PLACEMENT_3D ( 'NONE', #45, #137, #1 ) ;
#263 =( GEOMETRIC_REPRESENTATION_CONTEXT ( 3 ) GLOBAL_UNCERTAINTY_ASSIGNED_CONTEXT ( ( #80 ) ) GLOBAL_UNIT_ASSIGNED_CONTEXT ( ( #179, #256, #65 ) ) REPRESENTATION_CONTEXT ( 'NONE', 'WORKASPACE' ) );
#264 = DIRECTION ( 'NONE',  ( -1.224646799147353207E-16, -0.0000000000000000000, -1.000000000000000000 ) ) ;
#265 = CARTESIAN_POINT ( 'NONE',  ( 0.0000000000000000000, 0.0000000000000000000, 2.000000000000000000 ) ) ;
#266 = DIRECTION ( 'NONE',  ( 0.0000000000000000000, 0.0000000000000000000, 1.000000000000000000 ) ) ;
#267 = FACE_OUTER_BOUND ( 'NONE', #299, .T. ) ;
#268 = EDGE_CURVE ( 'NONE', #127, #150, #118, .T. ) ;
#269 = CARTESIAN_POINT ( 'NONE',  ( 7.654042494670957853E-17, 0.0000000000000000000, 0.6250000000000000000 ) ) ;
#270 = AXIS2_PLACEMENT_3D ( 'NONE', #290, #78, #271 ) ;
#271 = DIRECTION ( 'NONE',  ( -1.000000000000000000, 0.0000000000000000000, 0.0000000000000000000 ) ) ;
#272 = ORIENTED_EDGE ( 'NONE', *, *, #149, .T. ) ;
#273 = VECTOR ( 'NONE', #209, 39.37007874015748143 ) ;
#274 = VERTEX_POINT ( 'NONE', #6 ) ;
#275 = CARTESIAN_POINT ( 'NONE',  ( 0.07874999999999980627, 9.644093543285380530E-18, 2.000000000000000000 ) ) ;
#276 =( NAMED_UNIT ( * ) PLANE_ANGLE_UNIT ( ) SI_UNIT ( $, .RADIAN. ) );
#277 = MECHANICAL_DESIGN_GEOMETRIC_PRESENTATION_REPRESENTATION (  '', ( #57 ), #53 ) ;
#278 = ORIENTED_EDGE ( 'NONE', *, *, #268, .T. ) ;
#279 = DIRECTION ( 'NONE',  ( -1.000000000000000000, 0.0000000000000000000, 1.224646799147353454E-16 ) ) ;
#280 = CARTESIAN_POINT ( 'NONE',  ( 0.08586404999999999732, 1.051531339943283032E-17, -1.051531339943283032E-17 ) ) ;
#281 = PRODUCT_CONTEXT ( 'NONE', #180, 'mechanical' ) ;
#282 = DIRECTION ( 'NONE',  ( -1.000000000000000000, 0.0000000000000000000, 0.0000000000000000000 ) ) ;
#283 = CARTESIAN_POINT ( 'NONE',  ( 0.0000000000000000000, 0.0000000000000000000, 0.0000000000000000000 ) ) ;
#284 = PRODUCT_DEFINITION ( 'UNKNOWN', '', #220, #148 ) ;
#285 = DIRECTION ( 'NONE',  ( -1.224646799147353207E-16, -0.0000000000000000000, -1.000000000000000000 ) ) ;
#286 = FACE_OUTER_BOUND ( 'NONE', #126, .T. ) ;
#287 = CYLINDRICAL_SURFACE ( 'NONE', #13, 0.08586404999999999732 ) ;
#288 = VECTOR ( 'NONE', #264, 39.37007874015748143 ) ;
#289 = EDGE_CURVE ( 'NONE', #295, #223, #29, .T. ) ;
#290 = CARTESIAN_POINT ( 'NONE',  ( 7.654042494670957853E-17, 0.0000000000000000000, 0.6250000000000000000 ) ) ;
#291 = VERTEX_POINT ( 'NONE', #81 ) ;
#292 = VECTOR ( 'NONE', #3, 39.37007874015748143 ) ;
#293 = EDGE_LOOP ( 'NONE', ( #55, #124, #252, #108 ) ) ;
#294 = ORIENTED_EDGE ( 'NONE', *, *, #125, .F. ) ;
#295 = VERTEX_POINT ( 'NONE', #83 ) ;
#296 = AXIS2_PLACEMENT_3D ( 'NONE', #265, #101, #66 ) ;
#297 = PRESENTATION_STYLE_ASSIGNMENT (( #155 ) ) ;
#298 = SURFACE_STYLE_FILL_AREA ( #154 ) ;
#299 = EDGE_LOOP ( 'NONE', ( #62, #105 ) ) ;
ENDSEC;
END-ISO-10303-21;
