ISO-10303-21;
HEADER;
FILE_DESCRIPTION (( 'STEP AP214' ),
    '1' );
FILE_NAME ('Micro_SBMM-060-448X.STEP',
    '2021-09-02T17:15:55',
    ( '' ),
    ( '' ),
    'SwSTEP 2.0',
    'SolidWorks 2020',
    '' );
FILE_SCHEMA (( 'AUTOMOTIVE_DESIGN' ));
ENDSEC;

DATA;
#1 = EDGE_CURVE ( 'NONE', #285, #259, #96, .T. ) ;
#2 = DIRECTION ( 'NONE',  ( -0.0000000000000000000, -0.0000000000000000000, -1.000000000000000000 ) ) ;
#3 = DIRECTION ( 'NONE',  ( 0.7071067811865422437, 8.659560562354868763E-17, -0.7071067811865526798 ) ) ;
#4 = AXIS2_PLACEMENT_3D ( 'NONE', #23, #123, #225 ) ;
#5 = DIRECTION ( 'NONE',  ( 0.0000000000000000000, 0.0000000000000000000, 1.000000000000000000 ) ) ;
#6 =( NAMED_UNIT ( * ) PLANE_ANGLE_UNIT ( ) SI_UNIT ( $, .RADIAN. ) );
#7 = FACE_OUTER_BOUND ( 'NONE', #277, .T. ) ;
#8 = ORIENTED_EDGE ( 'NONE', *, *, #205, .F. ) ;
#9 = PRODUCT_DEFINITION_CONTEXT ( 'detailed design', #307, 'design' ) ;
#10 = VERTEX_POINT ( 'NONE', #222 ) ;
#11 = DIMENSIONAL_EXPONENTS ( 1.000000000000000000, 0.0000000000000000000, 0.0000000000000000000, 0.0000000000000000000, 0.0000000000000000000, 0.0000000000000000000, 0.0000000000000000000 ) ;
#12 = CIRCLE ( 'NONE', #268, 0.07873999999999996280 ) ;
#13 = SURFACE_SIDE_STYLE ('',( #301 ) ) ;
#14 =( NAMED_UNIT ( * ) SI_UNIT ( $, .STERADIAN. ) SOLID_ANGLE_UNIT ( ) );
#15 = VERTEX_POINT ( 'NONE', #121 ) ;
#16 = VECTOR ( 'NONE', #320, 39.37007874015748854 ) ;
#17 = VERTEX_POINT ( 'NONE', #175 ) ;
#18 = CARTESIAN_POINT ( 'NONE',  ( 0.0000000000000000000, 0.0000000000000000000, 0.2061439962741667686 ) ) ;
#19 = ORIENTED_EDGE ( 'NONE', *, *, #205, .T. ) ;
#20 =( GEOMETRIC_REPRESENTATION_CONTEXT ( 3 ) GLOBAL_UNCERTAINTY_ASSIGNED_CONTEXT ( ( #240 ) ) GLOBAL_UNIT_ASSIGNED_CONTEXT ( ( #239, #6, #14 ) ) REPRESENTATION_CONTEXT ( 'NONE', 'WORKASPACE' ) );
#21 = DIRECTION ( 'NONE',  ( 0.0000000000000000000, 0.0000000000000000000, -1.000000000000000000 ) ) ;
#22 = CARTESIAN_POINT ( 'NONE',  ( 0.0000000000000000000, 0.0000000000000000000, 0.0000000000000000000 ) ) ;
#23 = CARTESIAN_POINT ( 'NONE',  ( 0.0000000000000000000, 0.0000000000000000000, 0.2061439962741667686 ) ) ;
#24 = DIRECTION ( 'NONE',  ( 1.000000000000000000, 0.0000000000000000000, 0.0000000000000000000 ) ) ;
#25 = SPHERICAL_SURFACE ( 'NONE', #228, 0.1181099999999999928 ) ;
#26 = CIRCLE ( 'NONE', #149, 0.07873999999999996280 ) ;
#27 = CARTESIAN_POINT ( 'NONE',  ( 0.0000000000000000000, 0.0000000000000000000, 0.0000000000000000000 ) ) ;
#28 = CARTESIAN_POINT ( 'NONE',  ( 0.1181100000000000344, 0.0000000000000000000, 1.732283000000000017 ) ) ;
#29 = DIRECTION ( 'NONE',  ( 0.0000000000000000000, 0.0000000000000000000, 1.000000000000000000 ) ) ;
#30 = EDGE_CURVE ( 'NONE', #17, #255, #224, .T. ) ;
#31 = CYLINDRICAL_SURFACE ( 'NONE', #85, 0.1181100000000000344 ) ;
#32 = CIRCLE ( 'NONE', #212, 0.07873999999999985178 ) ;
#33 = ORIENTED_EDGE ( 'NONE', *, *, #326, .F. ) ;
#34 = APPLICATION_PROTOCOL_DEFINITION ( 'draft international standard', 'automotive_design', 1998, #165 ) ;
#35 = SURFACE_STYLE_USAGE ( .BOTH. , #13 ) ;
#36 = EDGE_CURVE ( 'NONE', #192, #255, #204, .T. ) ;
#37 = CARTESIAN_POINT ( 'NONE',  ( 0.0000000000000000000, 0.0000000000000000000, 0.2061439962741667686 ) ) ;
#38 = DIRECTION ( 'NONE',  ( -0.0000000000000000000, -0.0000000000000000000, -1.000000000000000000 ) ) ;
#39 = EDGE_CURVE ( 'NONE', #10, #49, #48, .T. ) ;
#40 = CYLINDRICAL_SURFACE ( 'NONE', #178, 0.07873999999999992117 ) ;
#41 = CARTESIAN_POINT ( 'NONE',  ( 0.0000000000000000000, 0.0000000000000000000, 3.922007999999999939 ) ) ;
#42 = CLOSED_SHELL ( 'NONE', ( #163, #314, #282, #300, #226, #197, #214, #321, #254, #46, #62 ) ) ;
#43 = CARTESIAN_POINT ( 'NONE',  ( 0.0000000000000000000, 0.0000000000000000000, 3.937007999999999619 ) ) ;
#44 = ORIENTED_EDGE ( 'NONE', *, *, #211, .F. ) ;
#45 = ORIENTED_EDGE ( 'NONE', *, *, #143, .T. ) ;
#46 = ADVANCED_FACE ( 'NONE', ( #342 ), #250, .T. ) ;
#47 = AXIS2_PLACEMENT_3D ( 'NONE', #266, #2, #177 ) ;
#48 = CIRCLE ( 'NONE', #4, 0.07873999999999996280 ) ;
#49 = VERTEX_POINT ( 'NONE', #91 ) ;
#50 = DIRECTION ( 'NONE',  ( 0.0000000000000000000, 1.000000000000000000, 0.0000000000000000000 ) ) ;
#51 = EDGE_CURVE ( 'NONE', #286, #10, #12, .T. ) ;
#52 = CARTESIAN_POINT ( 'NONE',  ( 0.1299209999999997589, 0.0000000000000000000, 1.874014999999996212 ) ) ;
#53 = CARTESIAN_POINT ( 'NONE',  ( 0.0000000000000000000, 0.0000000000000000000, 1.732283000000000017 ) ) ;
#54 = AXIS2_PLACEMENT_3D ( 'NONE', #227, #78, #233 ) ;
#55 = FACE_OUTER_BOUND ( 'NONE', #184, .T. ) ;
#56 = CARTESIAN_POINT ( 'NONE',  ( 0.0000000000000000000, 0.0000000000000000000, 3.937007999999999619 ) ) ;
#57 = CARTESIAN_POINT ( 'NONE',  ( 0.0000000000000000000, 0.0000000000000000000, 1.874014999999996212 ) ) ;
#58 = DIRECTION ( 'NONE',  ( 1.000000000000000000, 0.0000000000000000000, 0.0000000000000000000 ) ) ;
#59 = AXIS2_PLACEMENT_3D ( 'NONE', #27, #231, #104 ) ;
#60 = CONICAL_SURFACE ( 'NONE', #135, 0.1031100000000005484, 0.7853981633974410625 ) ;
#61 = ORIENTED_EDGE ( 'NONE', *, *, #173, .F. ) ;
#62 = ADVANCED_FACE ( 'NONE', ( #281 ), #187, .T. ) ;
#63 =( LENGTH_UNIT ( ) NAMED_UNIT ( * ) SI_UNIT ( $, .METRE. ) );
#64 = DIRECTION ( 'NONE',  ( -0.0000000000000000000, -0.0000000000000000000, -1.000000000000000000 ) ) ;
#65 = CIRCLE ( 'NONE', #279, 0.1031100000000005484 ) ;
#66 = CARTESIAN_POINT ( 'NONE',  ( 0.0000000000000000000, 0.0000000000000000000, 0.0000000000000000000 ) ) ;
#67 = DIRECTION ( 'NONE',  ( -1.000000000000000000, 0.0000000000000000000, 0.0000000000000000000 ) ) ;
#68 = DIRECTION ( 'NONE',  ( -0.0000000000000000000, -0.0000000000000000000, -1.000000000000000000 ) ) ;
#69 = AXIS2_PLACEMENT_3D ( 'NONE', #53, #29, #201 ) ;
#70 = EDGE_LOOP ( 'NONE', ( #161, #138, #148, #72, #33 ) ) ;
#71 = ORIENTED_EDGE ( 'NONE', *, *, #139, .F. ) ;
#72 = ORIENTED_EDGE ( 'NONE', *, *, #258, .F. ) ;
#73 = AXIS2_PLACEMENT_3D ( 'NONE', #316, #194, #150 ) ;
#74 = CARTESIAN_POINT ( 'NONE',  ( -0.1181100000000000344, 0.0000000000000000000, 3.937007999999999619 ) ) ;
#75 = ORIENTED_EDGE ( 'NONE', *, *, #122, .T. ) ;
#76 = CARTESIAN_POINT ( 'NONE',  ( 0.0000000000000000000, 0.0000000000000000000, 3.937007999999999619 ) ) ;
#77 = FACE_OUTER_BOUND ( 'NONE', #188, .T. ) ;
#78 = DIRECTION ( 'NONE',  ( -1.000000000000000000, 0.0000000000000000000, 0.0000000000000000000 ) ) ;
#79 = FACE_OUTER_BOUND ( 'NONE', #86, .T. ) ;
#80 = EDGE_CURVE ( 'NONE', #284, #217, #293, .T. ) ;
#81 = DIRECTION ( 'NONE',  ( 1.000000000000000000, 0.0000000000000000000, 0.0000000000000000000 ) ) ;
#82 = DIRECTION ( 'NONE',  ( 1.000000000000000000, 0.0000000000000000000, 0.0000000000000000000 ) ) ;
#83 =( GEOMETRIC_REPRESENTATION_CONTEXT ( 3 ) GLOBAL_UNCERTAINTY_ASSIGNED_CONTEXT ( ( #244 ) ) GLOBAL_UNIT_ASSIGNED_CONTEXT ( ( #229, #283, #133 ) ) REPRESENTATION_CONTEXT ( 'NONE', 'WORKASPACE' ) );
#84 = ORIENTED_EDGE ( 'NONE', *, *, #143, .F. ) ;
#85 = AXIS2_PLACEMENT_3D ( 'NONE', #186, #209, #298 ) ;
#86 = EDGE_LOOP ( 'NONE', ( #340, #221, #219, #142 ) ) ;
#87 = AXIS2_PLACEMENT_3D ( 'NONE', #345, #322, #156 ) ;
#88 = VECTOR ( 'NONE', #131, 39.37007874015748143 ) ;
#89 = DIRECTION ( 'NONE',  ( 1.000000000000000000, 0.0000000000000000000, 0.0000000000000000000 ) ) ;
#90 = ORIENTED_EDGE ( 'NONE', *, *, #180, .F. ) ;
#91 = CARTESIAN_POINT ( 'NONE',  ( -0.07873999999999996280, 0.0000000000000000000, 0.2061439962741667686 ) ) ;
#92 = CARTESIAN_POINT ( 'NONE',  ( 0.1181100000000000344, 1.446430334472939084E-17, 3.922007999999999939 ) ) ;
#93 = ORIENTED_EDGE ( 'NONE', *, *, #292, .T. ) ;
#94 =( GEOMETRIC_REPRESENTATION_CONTEXT ( 3 ) GLOBAL_UNCERTAINTY_ASSIGNED_CONTEXT ( ( #136 ) ) GLOBAL_UNIT_ASSIGNED_CONTEXT ( ( #271, #216, #245 ) ) REPRESENTATION_CONTEXT ( 'NONE', 'WORKASPACE' ) );
#95 = PRODUCT_DEFINITION ( 'UNKNOWN', '', #162, #9 ) ;
#96 = CIRCLE ( 'NONE', #218, 0.1181100000000000344 ) ;
#97 = EDGE_LOOP ( 'NONE', ( #171, #213, #75, #116 ) ) ;
#98 = ORIENTED_EDGE ( 'NONE', *, *, #180, .T. ) ;
#99 = CARTESIAN_POINT ( 'NONE',  ( -0.1299209999999997589, 1.591073367920229727E-17, 1.874014999999996212 ) ) ;
#100 = VECTOR ( 'NONE', #263, 39.37007874015748854 ) ;
#101 = FILL_AREA_STYLE_COLOUR ( '', #331 ) ;
#102 = DIRECTION ( 'NONE',  ( -0.0000000000000000000, -0.0000000000000000000, -1.000000000000000000 ) ) ;
#103 = DIRECTION ( 'NONE',  ( 0.0000000000000000000, 0.0000000000000000000, -1.000000000000000000 ) ) ;
#104 = DIRECTION ( 'NONE',  ( -1.000000000000000000, 0.0000000000000000000, 0.0000000000000000000 ) ) ;
#105 = DIRECTION ( 'NONE',  ( -0.0000000000000000000, -0.0000000000000000000, -1.000000000000000000 ) ) ;
#106 = DIRECTION ( 'NONE',  ( -0.0000000000000000000, -0.0000000000000000000, -1.000000000000000000 ) ) ;
#107 = CARTESIAN_POINT ( 'NONE',  ( 0.0000000000000000000, 0.0000000000000000000, 3.922007999999999939 ) ) ;
#108 = CONICAL_SURFACE ( 'NONE', #306, 0.1299209999999997589, 0.08314123188844159407 ) ;
#109 = LINE ( 'NONE', #267, #311 ) ;
#110 = EDGE_CURVE ( 'NONE', #15, #189, #65, .T. ) ;
#111 = ORIENTED_EDGE ( 'NONE', *, *, #39, .T. ) ;
#112 = DIRECTION ( 'NONE',  ( -1.000000000000000000, 0.0000000000000000000, 0.0000000000000000000 ) ) ;
#113 = ORIENTED_EDGE ( 'NONE', *, *, #1, .F. ) ;
#114 = CIRCLE ( 'NONE', #69, 0.1181100000000000344 ) ;
#115 = EDGE_LOOP ( 'NONE', ( #84, #90, #210, #113 ) ) ;
#116 = ORIENTED_EDGE ( 'NONE', *, *, #80, .F. ) ;
#117 = CARTESIAN_POINT ( 'NONE',  ( 0.0000000000000000000, 0.0000000000000000000, 3.937007999999999619 ) ) ;
#118 = ORIENTED_EDGE ( 'NONE', *, *, #310, .F. ) ;
#119 = ORIENTED_EDGE ( 'NONE', *, *, #36, .F. ) ;
#120 = CIRCLE ( 'NONE', #174, 0.1181099999999999928 ) ;
#121 = CARTESIAN_POINT ( 'NONE',  ( 0.1031100000000005484, 1.354581824536890879E-17, 3.937007999999999619 ) ) ;
#122 = EDGE_CURVE ( 'NONE', #10, #217, #120, .T. ) ;
#123 = DIRECTION ( 'NONE',  ( -0.0000000000000000000, -0.0000000000000000000, -1.000000000000000000 ) ) ;
#124 = FACE_OUTER_BOUND ( 'NONE', #97, .T. ) ;
#125 = CARTESIAN_POINT ( 'NONE',  ( 0.0000000000000000000, 0.0000000000000000000, 0.1181100000000000066 ) ) ;
#126 = DIRECTION ( 'NONE',  ( 1.000000000000000000, 1.224646799147353207E-16, -0.0000000000000000000 ) ) ;
#127 = CARTESIAN_POINT ( 'NONE',  ( 0.0000000000000000000, 0.0000000000000000000, 1.259842999999999824 ) ) ;
#128 = FACE_OUTER_BOUND ( 'NONE', #256, .T. ) ;
#129 = CARTESIAN_POINT ( 'NONE',  ( -0.1031100000000005484, 0.0000000000000000000, 3.937007999999999619 ) ) ;
#130 = PRESENTATION_STYLE_ASSIGNMENT (( #328 ) ) ;
#131 = DIRECTION ( 'NONE',  ( -0.0000000000000000000, -0.0000000000000000000, -1.000000000000000000 ) ) ;
#132 = AXIS2_PLACEMENT_3D ( 'NONE', #272, #106, #319 ) ;
#133 =( NAMED_UNIT ( * ) SI_UNIT ( $, .STERADIAN. ) SOLID_ANGLE_UNIT ( ) );
#134 = ORIENTED_EDGE ( 'NONE', *, *, #167, .T. ) ;
#135 = AXIS2_PLACEMENT_3D ( 'NONE', #56, #234, #230 ) ;
#136 = UNCERTAINTY_MEASURE_WITH_UNIT (LENGTH_MEASURE( 1.000000000000000082E-05 ), #271, 'distance_accuracy_value', 'NONE');
#137 = CARTESIAN_POINT ( 'NONE',  ( -0.1181100000000000344, 0.0000000000000000000, 3.922007999999999939 ) ) ;
#138 = ORIENTED_EDGE ( 'NONE', *, *, #247, .T. ) ;
#139 = EDGE_CURVE ( 'NONE', #285, #192, #327, .T. ) ;
#140 = SHAPE_DEFINITION_REPRESENTATION ( #203, #264 ) ;
#141 = DIRECTION ( 'NONE',  ( -0.0000000000000000000, -0.0000000000000000000, -1.000000000000000000 ) ) ;
#142 = ORIENTED_EDGE ( 'NONE', *, *, #292, .F. ) ;
#143 = EDGE_CURVE ( 'NONE', #15, #285, #261, .T. ) ;
#144 = AXIS2_PLACEMENT_3D ( 'NONE', #325, #179, #81 ) ;
#145 = DIRECTION ( 'NONE',  ( 0.0000000000000000000, 0.0000000000000000000, -1.000000000000000000 ) ) ;
#146 = ORIENTED_EDGE ( 'NONE', *, *, #154, .F. ) ;
#147 = PRESENTATION_STYLE_ASSIGNMENT (( #35 ) ) ;
#148 = ORIENTED_EDGE ( 'NONE', *, *, #269, .F. ) ;
#149 = AXIS2_PLACEMENT_3D ( 'NONE', #37, #242, #112 ) ;
#150 = DIRECTION ( 'NONE',  ( 1.000000000000000000, 0.0000000000000000000, 0.0000000000000000000 ) ) ;
#151 = LINE ( 'NONE', #289, #16 ) ;
#152 = CARTESIAN_POINT ( 'NONE',  ( 0.0000000000000000000, 0.0000000000000000000, 0.1181100000000000066 ) ) ;
#153 = PRODUCT ( 'Micro_SBMM-060-448X', 'Micro_SBMM-060-448X', '', ( #243 ) ) ;
#154 = EDGE_CURVE ( 'NONE', #189, #259, #151, .T. ) ;
#155 = CARTESIAN_POINT ( 'NONE',  ( 0.1181100000000000344, 1.446430334472939084E-17, 3.937007999999999619 ) ) ;
#156 = DIRECTION ( 'NONE',  ( 1.000000000000000000, 0.0000000000000000000, 0.0000000000000000000 ) ) ;
#157 = DIRECTION ( 'NONE',  ( 0.0000000000000000000, 1.000000000000000000, 0.0000000000000000000 ) ) ;
#158 = AXIS2_PLACEMENT_3D ( 'NONE', #43, #145, #252 ) ;
#159 = LENGTH_MEASURE_WITH_UNIT ( LENGTH_MEASURE( 0.02539999999999999897 ), #296 );
#160 = CARTESIAN_POINT ( 'NONE',  ( -0.1181100000000000344, 1.446430334472939084E-17, 1.732283000000000017 ) ) ;
#161 = ORIENTED_EDGE ( 'NONE', *, *, #310, .T. ) ;
#162 = PRODUCT_DEFINITION_FORMATION_WITH_SPECIFIED_SOURCE ( 'ANY', '', #153, .NOT_KNOWN. ) ;
#163 = ADVANCED_FACE ( 'NONE', ( #77 ), #60, .T. ) ;
#164 = AXIS2_PLACEMENT_3D ( 'NONE', #107, #103, #24 ) ;
#165 = APPLICATION_CONTEXT ( 'automotive_design' ) ;
#166 = DIRECTION ( 'NONE',  ( 0.0000000000000000000, 0.0000000000000000000, 1.000000000000000000 ) ) ;
#167 = EDGE_CURVE ( 'NONE', #338, #17, #274, .T. ) ;
#168 = DIRECTION ( 'NONE',  ( -1.000000000000000000, 0.0000000000000000000, 0.0000000000000000000 ) ) ;
#169 = CIRCLE ( 'NONE', #183, 0.07873999999999996280 ) ;
#170 = ORIENTED_EDGE ( 'NONE', *, *, #110, .F. ) ;
#171 = ORIENTED_EDGE ( 'NONE', *, *, #269, .T. ) ;
#172 = ORIENTED_EDGE ( 'NONE', *, *, #258, .T. ) ;
#173 = EDGE_CURVE ( 'NONE', #259, #285, #262, .T. ) ;
#174 = AXIS2_PLACEMENT_3D ( 'NONE', #152, #126, #294 ) ;
#175 = CARTESIAN_POINT ( 'NONE',  ( -0.07873999999999985178, 1.205358612060781697E-17, 1.259842999999999824 ) ) ;
#176 = CARTESIAN_POINT ( 'NONE',  ( 0.0000000000000000000, 7.232151672364693882E-18, 1.707404996040164512E-17 ) ) ;
#177 = DIRECTION ( 'NONE',  ( -1.000000000000000000, 0.0000000000000000000, 0.0000000000000000000 ) ) ;
#178 = AXIS2_PLACEMENT_3D ( 'NONE', #22, #141, #67 ) ;
#179 = DIRECTION ( 'NONE',  ( 0.0000000000000000000, 0.0000000000000000000, 1.000000000000000000 ) ) ;
#180 = EDGE_CURVE ( 'NONE', #189, #15, #237, .T. ) ;
#181 =( LENGTH_UNIT ( ) NAMED_UNIT ( * ) SI_UNIT ( $, .METRE. ) );
#182 = DIRECTION ( 'NONE',  ( -1.000000000000000000, 0.0000000000000000000, 0.0000000000000000000 ) ) ;
#183 = AXIS2_PLACEMENT_3D ( 'NONE', #304, #64, #275 ) ;
#184 = EDGE_LOOP ( 'NONE', ( #246, #134, #332, #309, #195 ) ) ;
#185 = ORIENTED_EDGE ( 'NONE', *, *, #30, .F. ) ;
#186 = CARTESIAN_POINT ( 'NONE',  ( 0.0000000000000000000, 0.0000000000000000000, 3.937007999999999619 ) ) ;
#187 = CONICAL_SURFACE ( 'NONE', #158, 0.1031100000000005484, 0.7853981633974410625 ) ;
#188 = EDGE_LOOP ( 'NONE', ( #170, #45, #61, #146 ) ) ;
#189 = VERTEX_POINT ( 'NONE', #129 ) ;
#190 = EDGE_LOOP ( 'NONE', ( #336, #111, #172, #302 ) ) ;
#191 = PRESENTATION_LAYER_ASSIGNMENT (  '', '', ( #257 ) ) ;
#192 = VERTEX_POINT ( 'NONE', #28 ) ;
#193 = FACE_OUTER_BOUND ( 'NONE', #70, .T. ) ;
#194 = DIRECTION ( 'NONE',  ( 0.0000000000000000000, 0.0000000000000000000, 1.000000000000000000 ) ) ;
#195 = ORIENTED_EDGE ( 'NONE', *, *, #51, .F. ) ;
#196 = VECTOR ( 'NONE', #341, 39.37007874015748854 ) ;
#197 = ADVANCED_FACE ( 'NONE', ( #291 ), #206, .T. ) ;
#198 = SURFACE_STYLE_FILL_AREA ( #238 ) ;
#199 = CARTESIAN_POINT ( 'NONE',  ( 0.1031100000000005484, 1.262733314600842673E-17, 3.937007999999999619 ) ) ;
#200 = LINE ( 'NONE', #265, #88 ) ;
#201 = DIRECTION ( 'NONE',  ( 1.000000000000000000, 0.0000000000000000000, 0.0000000000000000000 ) ) ;
#202 = PRESENTATION_LAYER_ASSIGNMENT (  '', '', ( #248 ) ) ;
#203 = PRODUCT_DEFINITION_SHAPE ( 'NONE', 'NONE',  #95 ) ;
#204 = CIRCLE ( 'NONE', #73, 0.1181100000000000344 ) ;
#205 = EDGE_CURVE ( 'NONE', #338, #192, #288, .T. ) ;
#206 = SPHERICAL_SURFACE ( 'NONE', #249, 0.1181099999999999928 ) ;
#207 = DIRECTION ( 'NONE',  ( 1.000000000000000000, 0.0000000000000000000, 0.0000000000000000000 ) ) ;
#208 = FILL_AREA_STYLE_COLOUR ( '', #330 ) ;
#209 = DIRECTION ( 'NONE',  ( -0.0000000000000000000, -0.0000000000000000000, -1.000000000000000000 ) ) ;
#210 = ORIENTED_EDGE ( 'NONE', *, *, #154, .T. ) ;
#211 = EDGE_CURVE ( 'NONE', #255, #192, #114, .T. ) ;
#212 = AXIS2_PLACEMENT_3D ( 'NONE', #127, #102, #182 ) ;
#213 = ORIENTED_EDGE ( 'NONE', *, *, #51, .T. ) ;
#214 = ADVANCED_FACE ( 'NONE', ( #128 ), #297, .T. ) ;
#215 = ORIENTED_EDGE ( 'NONE', *, *, #1, .T. ) ;
#216 =( NAMED_UNIT ( * ) PLANE_ANGLE_UNIT ( ) SI_UNIT ( $, .RADIAN. ) );
#217 = VERTEX_POINT ( 'NONE', #176 ) ;
#218 = AXIS2_PLACEMENT_3D ( 'NONE', #41, #21, #312 ) ;
#219 = ORIENTED_EDGE ( 'NONE', *, *, #36, .T. ) ;
#220 = DIRECTION ( 'NONE',  ( 0.0000000000000000000, 0.0000000000000000000, 1.000000000000000000 ) ) ;
#221 = ORIENTED_EDGE ( 'NONE', *, *, #139, .T. ) ;
#222 = CARTESIAN_POINT ( 'NONE',  ( 9.642868896486255427E-18, -0.07873999999999996280, 0.2061439962741667686 ) ) ;
#223 = AXIS2_PLACEMENT_3D ( 'NONE', #117, #220, #337 ) ;
#224 = LINE ( 'NONE', #99, #196 ) ;
#225 = DIRECTION ( 'NONE',  ( -1.000000000000000000, 0.0000000000000000000, 0.0000000000000000000 ) ) ;
#226 = ADVANCED_FACE ( 'NONE', ( #124 ), #25, .T. ) ;
#227 = CARTESIAN_POINT ( 'NONE',  ( 0.0000000000000000000, 0.0000000000000000000, 0.1181100000000000066 ) ) ;
#228 = AXIS2_PLACEMENT_3D ( 'NONE', #295, #58, #157 ) ;
#229 =( CONVERSION_BASED_UNIT ( 'INCH', #260 ) LENGTH_UNIT ( ) NAMED_UNIT ( #303 ) );
#230 = DIRECTION ( 'NONE',  ( -1.000000000000000000, 0.0000000000000000000, 0.0000000000000000000 ) ) ;
#231 = DIRECTION ( 'NONE',  ( -0.0000000000000000000, -0.0000000000000000000, -1.000000000000000000 ) ) ;
#232 = CYLINDRICAL_SURFACE ( 'NONE', #132, 0.1181100000000000344 ) ;
#233 = DIRECTION ( 'NONE',  ( 0.0000000000000000000, 0.0000000000000000000, 1.000000000000000000 ) ) ;
#234 = DIRECTION ( 'NONE',  ( 0.0000000000000000000, 0.0000000000000000000, -1.000000000000000000 ) ) ;
#235 = AXIS2_PLACEMENT_3D ( 'NONE', #66, #166, #89 ) ;
#236 = MECHANICAL_DESIGN_GEOMETRIC_PRESENTATION_REPRESENTATION (  '', ( #257 ), #20 ) ;
#237 = CIRCLE ( 'NONE', #87, 0.1031100000000005484 ) ;
#238 = FILL_AREA_STYLE ('',( #101 ) ) ;
#239 =( CONVERSION_BASED_UNIT ( 'INCH', #159 ) LENGTH_UNIT ( ) NAMED_UNIT ( #11 ) );
#240 = UNCERTAINTY_MEASURE_WITH_UNIT (LENGTH_MEASURE( 1.000000000000000082E-05 ), #239, 'distance_accuracy_value', 'NONE');
#241 = ORIENTED_EDGE ( 'NONE', *, *, #167, .F. ) ;
#242 = DIRECTION ( 'NONE',  ( -0.0000000000000000000, -0.0000000000000000000, -1.000000000000000000 ) ) ;
#243 = PRODUCT_CONTEXT ( 'NONE', #165, 'mechanical' ) ;
#244 = UNCERTAINTY_MEASURE_WITH_UNIT (LENGTH_MEASURE( 1.000000000000000082E-05 ), #229, 'distance_accuracy_value', 'NONE');
#245 =( NAMED_UNIT ( * ) SI_UNIT ( $, .STERADIAN. ) SOLID_ANGLE_UNIT ( ) );
#246 = ORIENTED_EDGE ( 'NONE', *, *, #247, .F. ) ;
#247 = EDGE_CURVE ( 'NONE', #338, #286, #109, .T. ) ;
#248 = STYLED_ITEM ( 'NONE', ( #147 ), #264 ) ;
#249 = AXIS2_PLACEMENT_3D ( 'NONE', #125, #82, #50 ) ;
#250 = PLANE ( 'NONE',  #223 ) ;
#251 = MANIFOLD_SOLID_BREP ( 'Cut-Revolve3', #42 ) ;
#252 = DIRECTION ( 'NONE',  ( -1.000000000000000000, 0.0000000000000000000, 0.0000000000000000000 ) ) ;
#253 = FACE_OUTER_BOUND ( 'NONE', #313, .T. ) ;
#254 = ADVANCED_FACE ( 'NONE', ( #7 ), #31, .T. ) ;
#255 = VERTEX_POINT ( 'NONE', #160 ) ;
#256 = EDGE_LOOP ( 'NONE', ( #185, #241, #19, #44 ) ) ;
#257 = STYLED_ITEM ( 'NONE', ( #130 ), #251 ) ;
#258 = EDGE_CURVE ( 'NONE', #49, #284, #169, .T. ) ;
#259 = VERTEX_POINT ( 'NONE', #137 ) ;
#260 = LENGTH_MEASURE_WITH_UNIT ( LENGTH_MEASURE( 0.02539999999999999897 ), #181 );
#261 = LINE ( 'NONE', #199, #339 ) ;
#262 = CIRCLE ( 'NONE', #164, 0.1181100000000000344 ) ;
#263 = DIRECTION ( 'NONE',  ( 0.08304547985374033381, 0.0000000000000000000, 0.9965457582448795648 ) ) ;
#264 = ADVANCED_BREP_SHAPE_REPRESENTATION ( 'Micro_SBMM-060-448X', ( #251, #235 ), #83 ) ;
#265 = CARTESIAN_POINT ( 'NONE',  ( -0.07873999999999992117, 0.0000000000000000000, 0.0000000000000000000 ) ) ;
#266 = CARTESIAN_POINT ( 'NONE',  ( 0.0000000000000000000, 0.0000000000000000000, 1.259842999999999824 ) ) ;
#267 = CARTESIAN_POINT ( 'NONE',  ( 0.07873999999999992117, 9.642868896486249264E-18, 0.0000000000000000000 ) ) ;
#268 = AXIS2_PLACEMENT_3D ( 'NONE', #18, #68, #168 ) ;
#269 = EDGE_CURVE ( 'NONE', #284, #286, #26, .T. ) ;
#270 = LENGTH_MEASURE_WITH_UNIT ( LENGTH_MEASURE( 0.02539999999999999897 ), #63 );
#271 =( CONVERSION_BASED_UNIT ( 'INCH', #270 ) LENGTH_UNIT ( ) NAMED_UNIT ( #334 ) );
#272 = CARTESIAN_POINT ( 'NONE',  ( 0.0000000000000000000, 0.0000000000000000000, 3.937007999999999619 ) ) ;
#273 = FILL_AREA_STYLE ('',( #208 ) ) ;
#274 = CIRCLE ( 'NONE', #47, 0.07873999999999985178 ) ;
#275 = DIRECTION ( 'NONE',  ( -1.000000000000000000, 0.0000000000000000000, 0.0000000000000000000 ) ) ;
#276 = APPLICATION_PROTOCOL_DEFINITION ( 'draft international standard', 'automotive_design', 1998, #307 ) ;
#277 = EDGE_LOOP ( 'NONE', ( #71, #215, #93, #315 ) ) ;
#278 = MECHANICAL_DESIGN_GEOMETRIC_PRESENTATION_REPRESENTATION (  '', ( #248 ), #94 ) ;
#279 = AXIS2_PLACEMENT_3D ( 'NONE', #76, #5, #207 ) ;
#280 = CARTESIAN_POINT ( 'NONE',  ( 0.0000000000000000000, 0.07873999999999996280, 0.2061439962741667686 ) ) ;
#281 = FACE_OUTER_BOUND ( 'NONE', #115, .T. ) ;
#282 = ADVANCED_FACE ( 'NONE', ( #193 ), #40, .T. ) ;
#283 =( NAMED_UNIT ( * ) PLANE_ANGLE_UNIT ( ) SI_UNIT ( $, .RADIAN. ) );
#284 = VERTEX_POINT ( 'NONE', #280 ) ;
#285 = VERTEX_POINT ( 'NONE', #92 ) ;
#286 = VERTEX_POINT ( 'NONE', #317 ) ;
#287 = PRODUCT_RELATED_PRODUCT_CATEGORY ( 'part', '', ( #153 ) ) ;
#288 = LINE ( 'NONE', #52, #100 ) ;
#289 = CARTESIAN_POINT ( 'NONE',  ( -0.1031100000000005484, 0.0000000000000000000, 3.937007999999999619 ) ) ;
#290 = CYLINDRICAL_SURFACE ( 'NONE', #59, 0.07873999999999992117 ) ;
#291 = FACE_OUTER_BOUND ( 'NONE', #190, .T. ) ;
#292 = EDGE_CURVE ( 'NONE', #259, #255, #344, .T. ) ;
#293 = CIRCLE ( 'NONE', #54, 0.1181099999999999789 ) ;
#294 = DIRECTION ( 'NONE',  ( -1.224646799147353207E-16, 1.000000000000000000, 0.0000000000000000000 ) ) ;
#295 = CARTESIAN_POINT ( 'NONE',  ( 0.0000000000000000000, 0.0000000000000000000, 0.1181100000000000066 ) ) ;
#296 =( LENGTH_UNIT ( ) NAMED_UNIT ( * ) SI_UNIT ( $, .METRE. ) );
#297 = CONICAL_SURFACE ( 'NONE', #144, 0.1299209999999997589, 0.08314123188844159407 ) ;
#298 = DIRECTION ( 'NONE',  ( -1.000000000000000000, 0.0000000000000000000, 0.0000000000000000000 ) ) ;
#299 = ORIENTED_EDGE ( 'NONE', *, *, #30, .T. ) ;
#300 = ADVANCED_FACE ( 'NONE', ( #253 ), #108, .T. ) ;
#301 = SURFACE_STYLE_FILL_AREA ( #273 ) ;
#302 = ORIENTED_EDGE ( 'NONE', *, *, #80, .T. ) ;
#303 = DIMENSIONAL_EXPONENTS ( 1.000000000000000000, 0.0000000000000000000, 0.0000000000000000000, 0.0000000000000000000, 0.0000000000000000000, 0.0000000000000000000, 0.0000000000000000000 ) ;
#304 = CARTESIAN_POINT ( 'NONE',  ( 0.0000000000000000000, 0.0000000000000000000, 0.2061439962741667686 ) ) ;
#305 = CARTESIAN_POINT ( 'NONE',  ( 0.07873999999999985178, 0.0000000000000000000, 1.259842999999999824 ) ) ;
#306 = AXIS2_PLACEMENT_3D ( 'NONE', #57, #333, #324 ) ;
#307 = APPLICATION_CONTEXT ( 'automotive_design' ) ;
#308 = ORIENTED_EDGE ( 'NONE', *, *, #110, .T. ) ;
#309 = ORIENTED_EDGE ( 'NONE', *, *, #39, .F. ) ;
#310 = EDGE_CURVE ( 'NONE', #17, #338, #32, .T. ) ;
#311 = VECTOR ( 'NONE', #343, 39.37007874015748143 ) ;
#312 = DIRECTION ( 'NONE',  ( 1.000000000000000000, 0.0000000000000000000, 0.0000000000000000000 ) ) ;
#313 = EDGE_LOOP ( 'NONE', ( #118, #299, #119, #8 ) ) ;
#314 = ADVANCED_FACE ( 'NONE', ( #79 ), #232, .T. ) ;
#315 = ORIENTED_EDGE ( 'NONE', *, *, #211, .T. ) ;
#316 = CARTESIAN_POINT ( 'NONE',  ( 0.0000000000000000000, 0.0000000000000000000, 1.732283000000000017 ) ) ;
#317 = CARTESIAN_POINT ( 'NONE',  ( 0.07873999999999996280, 9.642868896486255427E-18, 0.2061439962741667686 ) ) ;
#318 = SURFACE_SIDE_STYLE ('',( #198 ) ) ;
#319 = DIRECTION ( 'NONE',  ( -1.000000000000000000, 0.0000000000000000000, 0.0000000000000000000 ) ) ;
#320 = DIRECTION ( 'NONE',  ( -0.7071067811865422437, 0.0000000000000000000, -0.7071067811865526798 ) ) ;
#321 = ADVANCED_FACE ( 'NONE', ( #55 ), #290, .T. ) ;
#322 = DIRECTION ( 'NONE',  ( 0.0000000000000000000, 0.0000000000000000000, 1.000000000000000000 ) ) ;
#323 = VECTOR ( 'NONE', #105, 39.37007874015748143 ) ;
#324 = DIRECTION ( 'NONE',  ( 1.000000000000000000, 0.0000000000000000000, 0.0000000000000000000 ) ) ;
#325 = CARTESIAN_POINT ( 'NONE',  ( 0.0000000000000000000, 0.0000000000000000000, 1.874014999999996212 ) ) ;
#326 = EDGE_CURVE ( 'NONE', #17, #49, #200, .T. ) ;
#327 = LINE ( 'NONE', #155, #323 ) ;
#328 = SURFACE_STYLE_USAGE ( .BOTH. , #318 ) ;
#329 = EDGE_LOOP ( 'NONE', ( #98, #308 ) ) ;
#330 = COLOUR_RGB ( '',0.7921568627450980005, 0.8196078431372548767, 0.9333333333333333481 ) ;
#331 = COLOUR_RGB ( '',0.7921568627450980005, 0.8196078431372548767, 0.9333333333333333481 ) ;
#332 = ORIENTED_EDGE ( 'NONE', *, *, #326, .T. ) ;
#333 = DIRECTION ( 'NONE',  ( 0.0000000000000000000, 0.0000000000000000000, 1.000000000000000000 ) ) ;
#334 = DIMENSIONAL_EXPONENTS ( 1.000000000000000000, 0.0000000000000000000, 0.0000000000000000000, 0.0000000000000000000, 0.0000000000000000000, 0.0000000000000000000, 0.0000000000000000000 ) ;
#335 = VECTOR ( 'NONE', #38, 39.37007874015748143 ) ;
#336 = ORIENTED_EDGE ( 'NONE', *, *, #122, .F. ) ;
#337 = DIRECTION ( 'NONE',  ( 1.000000000000000000, 0.0000000000000000000, -0.0000000000000000000 ) ) ;
#338 = VERTEX_POINT ( 'NONE', #305 ) ;
#339 = VECTOR ( 'NONE', #3, 39.37007874015748854 ) ;
#340 = ORIENTED_EDGE ( 'NONE', *, *, #173, .T. ) ;
#341 = DIRECTION ( 'NONE',  ( -0.08304547985374033381, 1.017013810865391032E-17, 0.9965457582448795648 ) ) ;
#342 = FACE_OUTER_BOUND ( 'NONE', #329, .T. ) ;
#343 = DIRECTION ( 'NONE',  ( -0.0000000000000000000, -0.0000000000000000000, -1.000000000000000000 ) ) ;
#344 = LINE ( 'NONE', #74, #335 ) ;
#345 = CARTESIAN_POINT ( 'NONE',  ( 0.0000000000000000000, 0.0000000000000000000, 3.937007999999999619 ) ) ;
ENDSEC;
END-ISO-10303-21;
