ISO-10303-21;
HEADER;
FILE_DESCRIPTION (( 'STEP AP214' ),
    '1' );
FILE_NAME ('Micro_GELM-080-3.STEP',
    '2021-09-01T18:28:47',
    ( '' ),
    ( '' ),
    'SwSTEP 2.0',
    'SolidWorks 2020',
    '' );
FILE_SCHEMA (( 'AUTOMOTIVE_DESIGN' ));
ENDSEC;

DATA;
#1 = ORIENTED_EDGE ( 'NONE', *, *, #164, .T. ) ;
#2 = VERTEX_POINT ( 'NONE', #181 ) ;
#3 = AXIS2_PLACEMENT_3D ( 'NONE', #167, #174, #298 ) ;
#4 = PRESENTATION_STYLE_ASSIGNMENT (( #255 ) ) ;
#5 = EDGE_LOOP ( 'NONE', ( #1, #179, #70, #24 ) ) ;
#6 = VERTEX_POINT ( 'NONE', #279 ) ;
#7 = CARTESIAN_POINT ( 'NONE',  ( 0.0000000000000000000, 0.0000000000000000000, 0.0000000000000000000 ) ) ;
#8 = VERTEX_POINT ( 'NONE', #235 ) ;
#9 = PRODUCT_DEFINITION_SHAPE ( 'NONE', 'NONE',  #96 ) ;
#10 = DIRECTION ( 'NONE',  ( -0.0000000000000000000, -0.0000000000000000000, -1.000000000000000000 ) ) ;
#11 = LINE ( 'NONE', #148, #225 ) ;
#12 = SURFACE_STYLE_FILL_AREA ( #150 ) ;
#13 = EDGE_CURVE ( 'NONE', #8, #6, #288, .T. ) ;
#14 = EDGE_CURVE ( 'NONE', #116, #236, #74, .T. ) ;
#15 = DIRECTION ( 'NONE',  ( -1.224646799147353207E-16, -0.0000000000000000000, -1.000000000000000000 ) ) ;
#16 = LINE ( 'NONE', #247, #120 ) ;
#17 = DIRECTION ( 'NONE',  ( 0.0000000000000000000, 0.0000000000000000000, 1.000000000000000000 ) ) ;
#18 = CIRCLE ( 'NONE', #29, 0.1573230195000000220 ) ;
#19 = AXIS2_PLACEMENT_3D ( 'NONE', #266, #60, #119 ) ;
#20 = DIRECTION ( 'NONE',  ( 1.000000000000000000, 0.0000000000000000000, -0.0000000000000000000 ) ) ;
#21 = CARTESIAN_POINT ( 'NONE',  ( 0.0000000000000000000, 0.0000000000000000000, 0.0000000000000000000 ) ) ;
#22 = CARTESIAN_POINT ( 'NONE',  ( -0.1574804999999999955, 0.0000000000000000000, 2.952755999999999936 ) ) ;
#23 = ORIENTED_EDGE ( 'NONE', *, *, #147, .T. ) ;
#24 = ORIENTED_EDGE ( 'NONE', *, *, #147, .F. ) ;
#25 = FILL_AREA_STYLE ('',( #138 ) ) ;
#26 = CARTESIAN_POINT ( 'NONE',  ( 1.447526535780427448E-16, 0.0000000000000000000, 1.181995116296594039 ) ) ;
#27 = EDGE_LOOP ( 'NONE', ( #256, #139 ) ) ;
#28 = FACE_OUTER_BOUND ( 'NONE', #53, .T. ) ;
#29 = AXIS2_PLACEMENT_3D ( 'NONE', #154, #221, #133 ) ;
#30 = CONICAL_SURFACE ( 'NONE', #193, 0.1573230195000000220, 0.1745329251994338637 ) ;
#31 = CARTESIAN_POINT ( 'NONE',  ( 1.446432783766537245E-16, 0.0000000000000000000, 1.181102000000000096 ) ) ;
#32 = AXIS2_PLACEMENT_3D ( 'NONE', #59, #189, #263 ) ;
#33 = ADVANCED_FACE ( 'NONE', ( #291 ), #30, .T. ) ;
#34 = DIRECTION ( 'NONE',  ( -1.000000000000000000, 0.0000000000000000000, 1.224646799147353454E-16 ) ) ;
#35 = DIRECTION ( 'NONE',  ( -1.224646799147353207E-16, -0.0000000000000000000, -1.000000000000000000 ) ) ;
#36 = VECTOR ( 'NONE', #67, 39.37007874015748143 ) ;
#37 = DIRECTION ( 'NONE',  ( -1.224646799147353207E-16, -0.0000000000000000000, -1.000000000000000000 ) ) ;
#38 = ADVANCED_FACE ( 'NONE', ( #28 ), #240, .T. ) ;
#39 =( NAMED_UNIT ( * ) SI_UNIT ( $, .STERADIAN. ) SOLID_ANGLE_UNIT ( ) );
#40 = CYLINDRICAL_SURFACE ( 'NONE', #250, 0.1573230195000000220 ) ;
#41 = ADVANCED_FACE ( 'NONE', ( #127 ), #145, .T. ) ;
#42 = DIRECTION ( 'NONE',  ( 0.0000000000000000000, 0.0000000000000000000, -1.000000000000000000 ) ) ;
#43 = DIRECTION ( 'NONE',  ( 0.7071067811865563435, 8.659560562355041327E-17, -0.7071067811865386910 ) ) ;
#44 = EDGE_CURVE ( 'NONE', #72, #158, #153, .T. ) ;
#45 = ADVANCED_FACE ( 'NONE', ( #81 ), #215, .T. ) ;
#46 = UNCERTAINTY_MEASURE_WITH_UNIT (LENGTH_MEASURE( 1.000000000000000082E-05 ), #284, 'distance_accuracy_value', 'NONE');
#47 = ORIENTED_EDGE ( 'NONE', *, *, #197, .F. ) ;
#48 = APPLICATION_CONTEXT ( 'automotive_design' ) ;
#49 = ORIENTED_EDGE ( 'NONE', *, *, #202, .F. ) ;
#50 = ORIENTED_EDGE ( 'NONE', *, *, #44, .F. ) ;
#51 = AXIS2_PLACEMENT_3D ( 'NONE', #31, #188, #239 ) ;
#52 =( CONVERSION_BASED_UNIT ( 'INCH', #232 ) LENGTH_UNIT ( ) NAMED_UNIT ( #210 ) );
#53 = EDGE_LOOP ( 'NONE', ( #114, #111, #141, #47 ) ) ;
#54 = PRESENTATION_LAYER_ASSIGNMENT (  '', '', ( #128 ) ) ;
#55 = VERTEX_POINT ( 'NONE', #103 ) ;
#56 = DIRECTION ( 'NONE',  ( -1.000000000000000000, 0.0000000000000000000, 1.224646799147353454E-16 ) ) ;
#57 = PRODUCT_DEFINITION_FORMATION_WITH_SPECIFIED_SOURCE ( 'ANY', '', #209, .NOT_KNOWN. ) ;
#58 = DIRECTION ( 'NONE',  ( -0.0000000000000000000, -0.0000000000000000000, -1.000000000000000000 ) ) ;
#59 = CARTESIAN_POINT ( 'NONE',  ( 0.0000000000000000000, 0.0000000000000000000, 2.952755999999999936 ) ) ;
#60 = DIRECTION ( 'NONE',  ( 0.0000000000000000000, 0.0000000000000000000, -1.000000000000000000 ) ) ;
#61 =( GEOMETRIC_REPRESENTATION_CONTEXT ( 3 ) GLOBAL_UNCERTAINTY_ASSIGNED_CONTEXT ( ( #46 ) ) GLOBAL_UNIT_ASSIGNED_CONTEXT ( ( #284, #87, #39 ) ) REPRESENTATION_CONTEXT ( 'NONE', 'WORKASPACE' ) );
#62 = FILL_AREA_STYLE_COLOUR ( '', #140 ) ;
#63 = CARTESIAN_POINT ( 'NONE',  ( 1.446432783766537245E-16, 0.0000000000000000000, 1.181102000000000096 ) ) ;
#64 = LINE ( 'NONE', #132, #144 ) ;
#65 = CARTESIAN_POINT ( 'NONE',  ( 0.0000000000000000000, 0.0000000000000000000, 0.0000000000000000000 ) ) ;
#66 = EDGE_CURVE ( 'NONE', #236, #55, #86, .T. ) ;
#67 = DIRECTION ( 'NONE',  ( 0.1736481776669313581, 0.0000000000000000000, 0.9848077530122077983 ) ) ;
#68 = DIRECTION ( 'NONE',  ( -1.224646799147353207E-16, -0.0000000000000000000, -1.000000000000000000 ) ) ;
#69 =( CONVERSION_BASED_UNIT ( 'INCH', #115 ) LENGTH_UNIT ( ) NAMED_UNIT ( #217 ) );
#70 = ORIENTED_EDGE ( 'NONE', *, *, #13, .F. ) ;
#71 = ORIENTED_EDGE ( 'NONE', *, *, #142, .F. ) ;
#72 = VERTEX_POINT ( 'NONE', #122 ) ;
#73 = EDGE_CURVE ( 'NONE', #72, #2, #11, .T. ) ;
#74 = LINE ( 'NONE', #143, #251 ) ;
#75 = EDGE_LOOP ( 'NONE', ( #258, #257, #276, #281 ) ) ;
#76 = ADVANCED_FACE ( 'NONE', ( #79 ), #269, .T. ) ;
#77 = DIRECTION ( 'NONE',  ( 1.224646799147353207E-16, 0.0000000000000000000, 1.000000000000000000 ) ) ;
#78 = CIRCLE ( 'NONE', #277, 0.1573230195000000220 ) ;
#79 = FACE_OUTER_BOUND ( 'NONE', #5, .T. ) ;
#80 = CIRCLE ( 'NONE', #253, 0.1573230194999999942 ) ;
#81 = FACE_OUTER_BOUND ( 'NONE', #137, .T. ) ;
#82 = EDGE_CURVE ( 'NONE', #55, #236, #80, .T. ) ;
#83 = DIRECTION ( 'NONE',  ( 1.000000000000000000, 0.0000000000000000000, -0.0000000000000000000 ) ) ;
#84 = EDGE_CURVE ( 'NONE', #158, #72, #117, .T. ) ;
#85 = LINE ( 'NONE', #274, #249 ) ;
#86 = CIRCLE ( 'NONE', #157, 0.1573230194999999942 ) ;
#87 =( NAMED_UNIT ( * ) PLANE_ANGLE_UNIT ( ) SI_UNIT ( $, .RADIAN. ) );
#88 = AXIS2_PLACEMENT_3D ( 'NONE', #219, #191, #146 ) ;
#89 = ADVANCED_FACE ( 'NONE', ( #213 ), #125, .T. ) ;
#90 = ORIENTED_EDGE ( 'NONE', *, *, #82, .F. ) ;
#91 = SHAPE_DEFINITION_REPRESENTATION ( #9, #234 ) ;
#92 = ORIENTED_EDGE ( 'NONE', *, *, #14, .T. ) ;
#93 = ORIENTED_EDGE ( 'NONE', *, *, #84, .F. ) ;
#94 =( NAMED_UNIT ( * ) SI_UNIT ( $, .STERADIAN. ) SOLID_ANGLE_UNIT ( ) );
#95 = DIRECTION ( 'NONE',  ( 1.000000000000000000, 0.0000000000000000000, 0.0000000000000000000 ) ) ;
#96 = PRODUCT_DEFINITION ( 'UNKNOWN', '', #57, #194 ) ;
#97 = DIRECTION ( 'NONE',  ( 0.0000000000000000000, 0.0000000000000000000, 1.000000000000000000 ) ) ;
#98 = VERTEX_POINT ( 'NONE', #218 ) ;
#99 = AXIS2_PLACEMENT_3D ( 'NONE', #26, #208, #95 ) ;
#100 = CARTESIAN_POINT ( 'NONE',  ( 2.359467375330272285E-33, 0.0000000000000000000, 1.926651322628716627E-17 ) ) ;
#101 = SURFACE_STYLE_USAGE ( .BOTH. , #268 ) ;
#102 =( LENGTH_UNIT ( ) NAMED_UNIT ( * ) SI_UNIT ( $, .METRE. ) );
#103 = CARTESIAN_POINT ( 'NONE',  ( -0.1573230194999999942, 0.0000000000000000000, 3.853302645257433254E-17 ) ) ;
#104 = CARTESIAN_POINT ( 'NONE',  ( 0.0000000000000000000, 0.0000000000000000000, 2.937756000000000256 ) ) ;
#105 = PRESENTATION_LAYER_ASSIGNMENT (  '', '', ( #286 ) ) ;
#106 = DIRECTION ( 'NONE',  ( -1.224646799147353207E-16, -0.0000000000000000000, -1.000000000000000000 ) ) ;
#107 = DIRECTION ( 'NONE',  ( -0.0000000000000000000, -0.0000000000000000000, -1.000000000000000000 ) ) ;
#108 = DIRECTION ( 'NONE',  ( -0.1736481776669311639, 2.126576849575783008E-17, 0.9848077530122080203 ) ) ;
#109 = VECTOR ( 'NONE', #227, 39.37007874015748143 ) ;
#110 = CARTESIAN_POINT ( 'NONE',  ( 0.1573230194999999942, 1.926651322628716627E-17, 3.791200677927629740E-33 ) ) ;
#111 = ORIENTED_EDGE ( 'NONE', *, *, #198, .T. ) ;
#112 = ORIENTED_EDGE ( 'NONE', *, *, #73, .T. ) ;
#113 = AXIS2_PLACEMENT_3D ( 'NONE', #294, #151, #20 ) ;
#114 = ORIENTED_EDGE ( 'NONE', *, *, #222, .F. ) ;
#115 = LENGTH_MEASURE_WITH_UNIT ( LENGTH_MEASURE( 0.02539999999999999897 ), #226 );
#116 = VERTEX_POINT ( 'NONE', #216 ) ;
#117 = CIRCLE ( 'NONE', #88, 0.1424804999999998989 ) ;
#118 = ORIENTED_EDGE ( 'NONE', *, *, #44, .T. ) ;
#119 = DIRECTION ( 'NONE',  ( -1.000000000000000000, 0.0000000000000000000, 0.0000000000000000000 ) ) ;
#120 = VECTOR ( 'NONE', #107, 39.37007874015748143 ) ;
#121 = AXIS2_PLACEMENT_3D ( 'NONE', #149, #15, #56 ) ;
#122 = CARTESIAN_POINT ( 'NONE',  ( -0.1424804999999998989, 0.0000000000000000000, 2.952755999999999936 ) ) ;
#123 = CARTESIAN_POINT ( 'NONE',  ( 0.0000000000000000000, 0.0000000000000000000, 2.952755999999999936 ) ) ;
#124 = MANIFOLD_SOLID_BREP ( 'Cut-Revolve1', #241 ) ;
#125 = CYLINDRICAL_SURFACE ( 'NONE', #261, 0.1574804999999999955 ) ;
#126 = UNCERTAINTY_MEASURE_WITH_UNIT (LENGTH_MEASURE( 1.000000000000000082E-05 ), #52, 'distance_accuracy_value', 'NONE');
#127 = FACE_OUTER_BOUND ( 'NONE', #134, .T. ) ;
#128 = STYLED_ITEM ( 'NONE', ( #293 ), #124 ) ;
#129 = DIRECTION ( 'NONE',  ( -1.000000000000000000, 0.0000000000000000000, 1.224646799147353454E-16 ) ) ;
#130 = LINE ( 'NONE', #22, #109 ) ;
#131 = MECHANICAL_DESIGN_GEOMETRIC_PRESENTATION_REPRESENTATION (  '', ( #286 ), #178 ) ;
#132 = CARTESIAN_POINT ( 'NONE',  ( 0.1424804999999998989, 1.744882882659143297E-17, 2.952755999999999936 ) ) ;
#133 = DIRECTION ( 'NONE',  ( -1.000000000000000000, 0.0000000000000000000, 0.0000000000000000000 ) ) ;
#134 = EDGE_LOOP ( 'NONE', ( #93, #203, #159, #186 ) ) ;
#135 = ORIENTED_EDGE ( 'NONE', *, *, #290, .T. ) ;
#136 =( NAMED_UNIT ( * ) SI_UNIT ( $, .STERADIAN. ) SOLID_ANGLE_UNIT ( ) );
#137 = EDGE_LOOP ( 'NONE', ( #230, #92, #90, #211 ) ) ;
#138 = FILL_AREA_STYLE_COLOUR ( '', #169 ) ;
#139 = ORIENTED_EDGE ( 'NONE', *, *, #66, .T. ) ;
#140 = COLOUR_RGB ( '',0.7921568627450980005, 0.8196078431372548767, 0.9333333333333333481 ) ;
#141 = ORIENTED_EDGE ( 'NONE', *, *, #13, .T. ) ;
#142 = EDGE_CURVE ( 'NONE', #6, #8, #228, .T. ) ;
#143 = CARTESIAN_POINT ( 'NONE',  ( 0.1573230195000000220, 1.926651322628716935E-17, -1.926651322628716935E-17 ) ) ;
#144 = VECTOR ( 'NONE', #43, 39.37007874015748143 ) ;
#145 = CONICAL_SURFACE ( 'NONE', #19, 0.1424804999999998989, 0.7853981633974608245 ) ;
#146 = DIRECTION ( 'NONE',  ( 1.000000000000000000, 0.0000000000000000000, 0.0000000000000000000 ) ) ;
#147 = EDGE_CURVE ( 'NONE', #2, #8, #130, .T. ) ;
#148 = CARTESIAN_POINT ( 'NONE',  ( -0.1424804999999998989, 0.0000000000000000000, 2.952755999999999936 ) ) ;
#149 = CARTESIAN_POINT ( 'NONE',  ( 0.0000000000000000000, 0.0000000000000000000, 0.0000000000000000000 ) ) ;
#150 = FILL_AREA_STYLE ('',( #62 ) ) ;
#151 = DIRECTION ( 'NONE',  ( 0.0000000000000000000, 0.0000000000000000000, 1.000000000000000000 ) ) ;
#152 = AXIS2_PLACEMENT_3D ( 'NONE', #196, #42, #297 ) ;
#153 = CIRCLE ( 'NONE', #32, 0.1424804999999998989 ) ;
#154 = CARTESIAN_POINT ( 'NONE',  ( 1.446432783766537245E-16, 0.0000000000000000000, 1.181102000000000096 ) ) ;
#155 = FACE_OUTER_BOUND ( 'NONE', #278, .T. ) ;
#156 = APPLICATION_PROTOCOL_DEFINITION ( 'draft international standard', 'automotive_design', 1998, #283 ) ;
#157 = AXIS2_PLACEMENT_3D ( 'NONE', #100, #287, #34 ) ;
#158 = VERTEX_POINT ( 'NONE', #224 ) ;
#159 = ORIENTED_EDGE ( 'NONE', *, *, #164, .F. ) ;
#160 = ORIENTED_EDGE ( 'NONE', *, *, #290, .F. ) ;
#161 = ORIENTED_EDGE ( 'NONE', *, *, #66, .F. ) ;
#162 = DIRECTION ( 'NONE',  ( -1.224646799147353207E-16, -0.0000000000000000000, -1.000000000000000000 ) ) ;
#163 = CARTESIAN_POINT ( 'NONE',  ( 1.446432783766537245E-16, 0.0000000000000000000, 1.181102000000000096 ) ) ;
#164 = EDGE_CURVE ( 'NONE', #2, #98, #185, .T. ) ;
#165 = DIRECTION ( 'NONE',  ( -1.000000000000000000, 0.0000000000000000000, 1.224646799147353454E-16 ) ) ;
#166 = AXIS2_PLACEMENT_3D ( 'NONE', #242, #58, #244 ) ;
#167 = CARTESIAN_POINT ( 'NONE',  ( 1.447526535780427448E-16, 0.0000000000000000000, 1.181995116296594039 ) ) ;
#168 = DIRECTION ( 'NONE',  ( -0.7071067811865563435, 0.0000000000000000000, -0.7071067811865386910 ) ) ;
#169 = COLOUR_RGB ( '',0.7921568627450980005, 0.8196078431372548767, 0.9333333333333333481 ) ;
#170 = LINE ( 'NONE', #172, #36 ) ;
#171 = DIRECTION ( 'NONE',  ( 0.0000000000000000000, 0.0000000000000000000, -1.000000000000000000 ) ) ;
#172 = CARTESIAN_POINT ( 'NONE',  ( 0.1573230195000001608, 0.0000000000000000000, 1.181102000000000096 ) ) ;
#173 = FACE_OUTER_BOUND ( 'NONE', #206, .T. ) ;
#174 = DIRECTION ( 'NONE',  ( -1.224646799147353207E-16, -0.0000000000000000000, -1.000000000000000000 ) ) ;
#175 = APPLICATION_PROTOCOL_DEFINITION ( 'draft international standard', 'automotive_design', 1998, #48 ) ;
#176 = EDGE_CURVE ( 'NONE', #177, #55, #85, .T. ) ;
#177 = VERTEX_POINT ( 'NONE', #246 ) ;
#178 =( GEOMETRIC_REPRESENTATION_CONTEXT ( 3 ) GLOBAL_UNCERTAINTY_ASSIGNED_CONTEXT ( ( #126 ) ) GLOBAL_UNIT_ASSIGNED_CONTEXT ( ( #52, #275, #94 ) ) REPRESENTATION_CONTEXT ( 'NONE', 'WORKASPACE' ) );
#179 = ORIENTED_EDGE ( 'NONE', *, *, #202, .T. ) ;
#180 =( NAMED_UNIT ( * ) PLANE_ANGLE_UNIT ( ) SI_UNIT ( $, .RADIAN. ) );
#181 = CARTESIAN_POINT ( 'NONE',  ( -0.1574804999999999955, 0.0000000000000000000, 2.937756000000000256 ) ) ;
#182 = PRODUCT_CONTEXT ( 'NONE', #48, 'mechanical' ) ;
#183 = ORIENTED_EDGE ( 'NONE', *, *, #14, .F. ) ;
#184 = DIRECTION ( 'NONE',  ( 1.000000000000000000, 0.0000000000000000000, 0.0000000000000000000 ) ) ;
#185 = CIRCLE ( 'NONE', #270, 0.1574804999999999955 ) ;
#186 = ORIENTED_EDGE ( 'NONE', *, *, #73, .F. ) ;
#187 = LENGTH_MEASURE_WITH_UNIT ( LENGTH_MEASURE( 0.02539999999999999897 ), #102 );
#188 = DIRECTION ( 'NONE',  ( 1.224646799147353207E-16, 0.0000000000000000000, 1.000000000000000000 ) ) ;
#189 = DIRECTION ( 'NONE',  ( 0.0000000000000000000, 0.0000000000000000000, 1.000000000000000000 ) ) ;
#190 = AXIS2_PLACEMENT_3D ( 'NONE', #7, #97, #184 ) ;
#191 = DIRECTION ( 'NONE',  ( 0.0000000000000000000, 0.0000000000000000000, 1.000000000000000000 ) ) ;
#192 = ADVANCED_FACE ( 'NONE', ( #173 ), #272, .T. ) ;
#193 = AXIS2_PLACEMENT_3D ( 'NONE', #163, #77, #243 ) ;
#194 = PRODUCT_DEFINITION_CONTEXT ( 'detailed design', #283, 'design' ) ;
#195 = DIRECTION ( 'NONE',  ( 1.000000000000000000, 0.0000000000000000000, 0.0000000000000000000 ) ) ;
#196 = CARTESIAN_POINT ( 'NONE',  ( 0.0000000000000000000, 0.0000000000000000000, 2.952755999999999936 ) ) ;
#197 = EDGE_CURVE ( 'NONE', #116, #6, #170, .T. ) ;
#198 = EDGE_CURVE ( 'NONE', #177, #8, #273, .T. ) ;
#199 = CONICAL_SURFACE ( 'NONE', #152, 0.1424804999999998989, 0.7853981633974608245 ) ;
#200 = DIRECTION ( 'NONE',  ( -1.000000000000000000, 0.0000000000000000000, 0.0000000000000000000 ) ) ;
#201 = ORIENTED_EDGE ( 'NONE', *, *, #84, .T. ) ;
#202 = EDGE_CURVE ( 'NONE', #98, #6, #16, .T. ) ;
#203 = ORIENTED_EDGE ( 'NONE', *, *, #214, .T. ) ;
#204 = CIRCLE ( 'NONE', #238, 0.1574804999999999955 ) ;
#205 =( LENGTH_UNIT ( ) NAMED_UNIT ( * ) SI_UNIT ( $, .METRE. ) );
#206 = EDGE_LOOP ( 'NONE', ( #118, #201 ) ) ;
#207 = SURFACE_STYLE_FILL_AREA ( #25 ) ;
#208 = DIRECTION ( 'NONE',  ( -1.224646799147353207E-16, -0.0000000000000000000, -1.000000000000000000 ) ) ;
#209 = PRODUCT ( 'Micro_GELM-080-3', 'Micro_GELM-080-3', '', ( #182 ) ) ;
#210 = DIMENSIONAL_EXPONENTS ( 1.000000000000000000, 0.0000000000000000000, 0.0000000000000000000, 0.0000000000000000000, 0.0000000000000000000, 0.0000000000000000000, 0.0000000000000000000 ) ;
#211 = ORIENTED_EDGE ( 'NONE', *, *, #176, .F. ) ;
#212 = ADVANCED_FACE ( 'NONE', ( #155 ), #40, .T. ) ;
#213 = FACE_OUTER_BOUND ( 'NONE', #229, .T. ) ;
#214 = EDGE_CURVE ( 'NONE', #158, #98, #64, .T. ) ;
#215 = CYLINDRICAL_SURFACE ( 'NONE', #121, 0.1573230195000000220 ) ;
#216 = CARTESIAN_POINT ( 'NONE',  ( 0.1573230195000001608, 0.0000000000000000000, 1.181102000000000096 ) ) ;
#217 = DIMENSIONAL_EXPONENTS ( 1.000000000000000000, 0.0000000000000000000, 0.0000000000000000000, 0.0000000000000000000, 0.0000000000000000000, 0.0000000000000000000, 0.0000000000000000000 ) ;
#218 = CARTESIAN_POINT ( 'NONE',  ( 0.1574804999999999955, 1.928579902531247412E-17, 2.937756000000000256 ) ) ;
#219 = CARTESIAN_POINT ( 'NONE',  ( 0.0000000000000000000, 0.0000000000000000000, 2.952755999999999936 ) ) ;
#220 = CARTESIAN_POINT ( 'NONE',  ( -0.1573230194999999110, 1.926651322628716935E-17, 1.181102000000000096 ) ) ;
#221 = DIRECTION ( 'NONE',  ( -1.224646799147353207E-16, -0.0000000000000000000, -1.000000000000000000 ) ) ;
#222 = EDGE_CURVE ( 'NONE', #177, #116, #18, .T. ) ;
#223 = UNCERTAINTY_MEASURE_WITH_UNIT (LENGTH_MEASURE( 1.000000000000000082E-05 ), #69, 'distance_accuracy_value', 'NONE');
#224 = CARTESIAN_POINT ( 'NONE',  ( 0.1424804999999998989, 1.836731392595195200E-17, 2.952755999999999936 ) ) ;
#225 = VECTOR ( 'NONE', #168, 39.37007874015748143 ) ;
#226 =( LENGTH_UNIT ( ) NAMED_UNIT ( * ) SI_UNIT ( $, .METRE. ) );
#227 = DIRECTION ( 'NONE',  ( -0.0000000000000000000, -0.0000000000000000000, -1.000000000000000000 ) ) ;
#228 = CIRCLE ( 'NONE', #3, 0.1574804999999999955 ) ;
#229 = EDGE_LOOP ( 'NONE', ( #49, #135, #23, #71 ) ) ;
#230 = ORIENTED_EDGE ( 'NONE', *, *, #222, .T. ) ;
#231 = AXIS2_PLACEMENT_3D ( 'NONE', #21, #17, #83 ) ;
#232 = LENGTH_MEASURE_WITH_UNIT ( LENGTH_MEASURE( 0.02539999999999999897 ), #205 );
#233 = ADVANCED_FACE ( 'NONE', ( #252 ), #254, .F. ) ;
#234 = ADVANCED_BREP_SHAPE_REPRESENTATION ( 'Micro_GELM-080-3', ( #124, #190 ), #245 ) ;
#235 = CARTESIAN_POINT ( 'NONE',  ( -0.1574804999999998567, 0.0000000000000000000, 1.181995116296594039 ) ) ;
#236 = VERTEX_POINT ( 'NONE', #110 ) ;
#237 = EDGE_LOOP ( 'NONE', ( #282, #50, #112, #160 ) ) ;
#238 = AXIS2_PLACEMENT_3D ( 'NONE', #104, #271, #195 ) ;
#239 = DIRECTION ( 'NONE',  ( 1.000000000000000000, 0.0000000000000000000, 0.0000000000000000000 ) ) ;
#240 = CONICAL_SURFACE ( 'NONE', #51, 0.1573230195000000220, 0.1745329251994338637 ) ;
#241 = CLOSED_SHELL ( 'NONE', ( #45, #38, #41, #76, #89, #192, #264, #33, #212, #233 ) ) ;
#242 = CARTESIAN_POINT ( 'NONE',  ( 0.0000000000000000000, 0.0000000000000000000, 2.952755999999999936 ) ) ;
#243 = DIRECTION ( 'NONE',  ( 1.000000000000000000, 0.0000000000000000000, 0.0000000000000000000 ) ) ;
#244 = DIRECTION ( 'NONE',  ( -1.000000000000000000, 0.0000000000000000000, 0.0000000000000000000 ) ) ;
#245 =( GEOMETRIC_REPRESENTATION_CONTEXT ( 3 ) GLOBAL_UNCERTAINTY_ASSIGNED_CONTEXT ( ( #223 ) ) GLOBAL_UNIT_ASSIGNED_CONTEXT ( ( #69, #180, #136 ) ) REPRESENTATION_CONTEXT ( 'NONE', 'WORKASPACE' ) );
#246 = CARTESIAN_POINT ( 'NONE',  ( -0.1573230194999999110, 1.927615612579982019E-17, 1.181102000000000096 ) ) ;
#247 = CARTESIAN_POINT ( 'NONE',  ( 0.1574804999999999955, 1.928579902531247412E-17, 2.952755999999999936 ) ) ;
#248 = CARTESIAN_POINT ( 'NONE',  ( 0.0000000000000000000, 0.0000000000000000000, 2.937756000000000256 ) ) ;
#249 = VECTOR ( 'NONE', #68, 39.37007874015748143 ) ;
#250 = AXIS2_PLACEMENT_3D ( 'NONE', #65, #37, #129 ) ;
#251 = VECTOR ( 'NONE', #162, 39.37007874015748143 ) ;
#252 = FACE_OUTER_BOUND ( 'NONE', #27, .T. ) ;
#253 = AXIS2_PLACEMENT_3D ( 'NONE', #267, #35, #165 ) ;
#254 = PLANE ( 'NONE',  #231 ) ;
#255 = SURFACE_STYLE_USAGE ( .BOTH. , #280 ) ;
#256 = ORIENTED_EDGE ( 'NONE', *, *, #82, .T. ) ;
#257 = ORIENTED_EDGE ( 'NONE', *, *, #259, .F. ) ;
#258 = ORIENTED_EDGE ( 'NONE', *, *, #198, .F. ) ;
#259 = EDGE_CURVE ( 'NONE', #116, #177, #78, .T. ) ;
#260 = ORIENTED_EDGE ( 'NONE', *, *, #259, .T. ) ;
#261 = AXIS2_PLACEMENT_3D ( 'NONE', #123, #10, #285 ) ;
#262 = ORIENTED_EDGE ( 'NONE', *, *, #176, .T. ) ;
#263 = DIRECTION ( 'NONE',  ( 1.000000000000000000, 0.0000000000000000000, 0.0000000000000000000 ) ) ;
#264 = ADVANCED_FACE ( 'NONE', ( #299 ), #199, .T. ) ;
#265 = VECTOR ( 'NONE', #108, 39.37007874015747433 ) ;
#266 = CARTESIAN_POINT ( 'NONE',  ( 0.0000000000000000000, 0.0000000000000000000, 2.952755999999999936 ) ) ;
#267 = CARTESIAN_POINT ( 'NONE',  ( 2.359467375330272285E-33, 0.0000000000000000000, 1.926651322628716627E-17 ) ) ;
#268 = SURFACE_SIDE_STYLE ('',( #12 ) ) ;
#269 = CYLINDRICAL_SURFACE ( 'NONE', #166, 0.1574804999999999955 ) ;
#270 = AXIS2_PLACEMENT_3D ( 'NONE', #248, #171, #295 ) ;
#271 = DIRECTION ( 'NONE',  ( 0.0000000000000000000, 0.0000000000000000000, -1.000000000000000000 ) ) ;
#272 = PLANE ( 'NONE',  #113 ) ;
#273 = LINE ( 'NONE', #220, #265 ) ;
#274 = CARTESIAN_POINT ( 'NONE',  ( -0.1573230195000000220, 0.0000000000000000000, 1.926651322628716935E-17 ) ) ;
#275 =( NAMED_UNIT ( * ) PLANE_ANGLE_UNIT ( ) SI_UNIT ( $, .RADIAN. ) );
#276 = ORIENTED_EDGE ( 'NONE', *, *, #197, .T. ) ;
#277 = AXIS2_PLACEMENT_3D ( 'NONE', #63, #106, #200 ) ;
#278 = EDGE_LOOP ( 'NONE', ( #183, #260, #262, #161 ) ) ;
#279 = CARTESIAN_POINT ( 'NONE',  ( 0.1574805000000001343, 1.928579902531249261E-17, 1.181995116296594039 ) ) ;
#280 = SURFACE_SIDE_STYLE ('',( #207 ) ) ;
#281 = ORIENTED_EDGE ( 'NONE', *, *, #142, .T. ) ;
#282 = ORIENTED_EDGE ( 'NONE', *, *, #214, .F. ) ;
#283 = APPLICATION_CONTEXT ( 'automotive_design' ) ;
#284 =( CONVERSION_BASED_UNIT ( 'INCH', #187 ) LENGTH_UNIT ( ) NAMED_UNIT ( #289 ) );
#285 = DIRECTION ( 'NONE',  ( -1.000000000000000000, 0.0000000000000000000, 0.0000000000000000000 ) ) ;
#286 = STYLED_ITEM ( 'NONE', ( #4 ), #234 ) ;
#287 = DIRECTION ( 'NONE',  ( -1.224646799147353207E-16, -0.0000000000000000000, -1.000000000000000000 ) ) ;
#288 = CIRCLE ( 'NONE', #99, 0.1574804999999999955 ) ;
#289 = DIMENSIONAL_EXPONENTS ( 1.000000000000000000, 0.0000000000000000000, 0.0000000000000000000, 0.0000000000000000000, 0.0000000000000000000, 0.0000000000000000000, 0.0000000000000000000 ) ;
#290 = EDGE_CURVE ( 'NONE', #98, #2, #204, .T. ) ;
#291 = FACE_OUTER_BOUND ( 'NONE', #75, .T. ) ;
#292 = PRODUCT_RELATED_PRODUCT_CATEGORY ( 'part', '', ( #209 ) ) ;
#293 = PRESENTATION_STYLE_ASSIGNMENT (( #101 ) ) ;
#294 = CARTESIAN_POINT ( 'NONE',  ( 0.0000000000000000000, 0.0000000000000000000, 2.952755999999999936 ) ) ;
#295 = DIRECTION ( 'NONE',  ( 1.000000000000000000, 0.0000000000000000000, 0.0000000000000000000 ) ) ;
#296 = MECHANICAL_DESIGN_GEOMETRIC_PRESENTATION_REPRESENTATION (  '', ( #128 ), #61 ) ;
#297 = DIRECTION ( 'NONE',  ( -1.000000000000000000, 0.0000000000000000000, 0.0000000000000000000 ) ) ;
#298 = DIRECTION ( 'NONE',  ( 1.000000000000000000, 0.0000000000000000000, 0.0000000000000000000 ) ) ;
#299 = FACE_OUTER_BOUND ( 'NONE', #237, .T. ) ;
ENDSEC;
END-ISO-10303-21;
