ISO-10303-21;
HEADER;
FILE_DESCRIPTION (( 'STEP AP214' ),
    '1' );
FILE_NAME ('Micro_SBMM-060-318.STEP',
    '2021-09-02T17:13:18',
    ( '' ),
    ( '' ),
    'SwSTEP 2.0',
    'SolidWorks 2020',
    '' );
FILE_SCHEMA (( 'AUTOMOTIVE_DESIGN' ));
ENDSEC;

DATA;
#1 = CARTESIAN_POINT ( 'NONE',  ( 0.0000000000000000000, 0.0000000000000000000, 0.2061439962741667686 ) ) ;
#2 = AXIS2_PLACEMENT_3D ( 'NONE', #111, #343, #81 ) ;
#3 = SPHERICAL_SURFACE ( 'NONE', #306, 0.1181099999999999928 ) ;
#4 = CIRCLE ( 'NONE', #256, 0.1031099999999991745 ) ;
#5 = DIRECTION ( 'NONE',  ( 1.000000000000000000, 0.0000000000000000000, 0.0000000000000000000 ) ) ;
#6 = APPLICATION_PROTOCOL_DEFINITION ( 'draft international standard', 'automotive_design', 1998, #7 ) ;
#7 = APPLICATION_CONTEXT ( 'automotive_design' ) ;
#8 = DIMENSIONAL_EXPONENTS ( 1.000000000000000000, 0.0000000000000000000, 0.0000000000000000000, 0.0000000000000000000, 0.0000000000000000000, 0.0000000000000000000, 0.0000000000000000000 ) ;
#9 = ADVANCED_FACE ( 'NONE', ( #188 ), #109, .T. ) ;
#10 = DIRECTION ( 'NONE',  ( 1.000000000000000000, 1.224646799147353207E-16, -0.0000000000000000000 ) ) ;
#11 = AXIS2_PLACEMENT_3D ( 'NONE', #192, #288, #264 ) ;
#12 = CIRCLE ( 'NONE', #261, 0.1181099999999999789 ) ;
#13 = ORIENTED_EDGE ( 'NONE', *, *, #260, .T. ) ;
#14 = VERTEX_POINT ( 'NONE', #293 ) ;
#15 = ORIENTED_EDGE ( 'NONE', *, *, #173, .F. ) ;
#16 = VECTOR ( 'NONE', #162, 39.37007874015748143 ) ;
#17 = PRODUCT_DEFINITION_FORMATION_WITH_SPECIFIED_SOURCE ( 'ANY', '', #277, .NOT_KNOWN. ) ;
#18 = ORIENTED_EDGE ( 'NONE', *, *, #290, .T. ) ;
#19 = DIRECTION ( 'NONE',  ( -0.7071067811865486830, 0.0000000000000000000, -0.7071067811865462405 ) ) ;
#20 =( CONVERSION_BASED_UNIT ( 'INCH', #210 ) LENGTH_UNIT ( ) NAMED_UNIT ( #143 ) );
#21 = DIRECTION ( 'NONE',  ( -0.0000000000000000000, -0.0000000000000000000, -1.000000000000000000 ) ) ;
#22 = PRESENTATION_LAYER_ASSIGNMENT (  '', '', ( #95 ) ) ;
#23 = ORIENTED_EDGE ( 'NONE', *, *, #90, .T. ) ;
#24 = APPLICATION_CONTEXT ( 'automotive_design' ) ;
#25 = LINE ( 'NONE', #157, #26 ) ;
#26 = VECTOR ( 'NONE', #49, 39.37007874015748143 ) ;
#27 = MECHANICAL_DESIGN_GEOMETRIC_PRESENTATION_REPRESENTATION (  '', ( #189 ), #327 ) ;
#28 = DIRECTION ( 'NONE',  ( 0.0000000000000000000, 0.0000000000000000000, -1.000000000000000000 ) ) ;
#29 = ADVANCED_FACE ( 'NONE', ( #289 ), #262, .T. ) ;
#30 = FACE_OUTER_BOUND ( 'NONE', #154, .T. ) ;
#31 = SURFACE_SIDE_STYLE ('',( #270 ) ) ;
#32 = CONICAL_SURFACE ( 'NONE', #79, 0.1299209999999997311, 0.09065967900408448965 ) ;
#33 = CARTESIAN_POINT ( 'NONE',  ( 0.1031099999999991745, 1.354581824536882559E-17, 2.952755999999999936 ) ) ;
#34 = COLOUR_RGB ( '',0.7921568627450980005, 0.8196078431372548767, 0.9333333333333333481 ) ;
#35 = EDGE_CURVE ( 'NONE', #227, #14, #316, .T. ) ;
#36 = DIRECTION ( 'NONE',  ( 0.0000000000000000000, 0.0000000000000000000, 1.000000000000000000 ) ) ;
#37 = EDGE_CURVE ( 'NONE', #238, #104, #174, .T. ) ;
#38 = ORIENTED_EDGE ( 'NONE', *, *, #163, .F. ) ;
#39 = LINE ( 'NONE', #250, #100 ) ;
#40 = CIRCLE ( 'NONE', #216, 0.1181100000000000344 ) ;
#41 = ORIENTED_EDGE ( 'NONE', *, *, #337, .F. ) ;
#42 = DIRECTION ( 'NONE',  ( -0.0000000000000000000, -0.0000000000000000000, -1.000000000000000000 ) ) ;
#43 = ORIENTED_EDGE ( 'NONE', *, *, #271, .F. ) ;
#44 = CARTESIAN_POINT ( 'NONE',  ( 9.642868896486255427E-18, -0.07873999999999996280, 0.2061439962741667686 ) ) ;
#45 = ORIENTED_EDGE ( 'NONE', *, *, #266, .F. ) ;
#46 = ORIENTED_EDGE ( 'NONE', *, *, #271, .T. ) ;
#47 = VECTOR ( 'NONE', #332, 39.37007874015748143 ) ;
#48 =( NAMED_UNIT ( * ) SI_UNIT ( $, .STERADIAN. ) SOLID_ANGLE_UNIT ( ) );
#49 = DIRECTION ( 'NONE',  ( -0.0000000000000000000, -0.0000000000000000000, -1.000000000000000000 ) ) ;
#50 = DIRECTION ( 'NONE',  ( -1.000000000000000000, 0.0000000000000000000, 0.0000000000000000000 ) ) ;
#51 = DIRECTION ( 'NONE',  ( -0.0000000000000000000, -0.0000000000000000000, -1.000000000000000000 ) ) ;
#52 = CIRCLE ( 'NONE', #267, 0.07873999999999996280 ) ;
#53 = EDGE_CURVE ( 'NONE', #104, #280, #25, .T. ) ;
#54 = EDGE_LOOP ( 'NONE', ( #56, #304, #180, #69, #45 ) ) ;
#55 = ADVANCED_FACE ( 'NONE', ( #339 ), #137, .T. ) ;
#56 = ORIENTED_EDGE ( 'NONE', *, *, #53, .F. ) ;
#57 = CARTESIAN_POINT ( 'NONE',  ( 0.1299209999999997311, 0.0000000000000000000, 1.271653299999996323 ) ) ;
#58 = COLOUR_RGB ( '',0.7921568627450980005, 0.8196078431372548767, 0.9333333333333333481 ) ;
#59 = CARTESIAN_POINT ( 'NONE',  ( 0.0000000000000000000, 0.0000000000000000000, 0.2061439962741667686 ) ) ;
#60 = ADVANCED_BREP_SHAPE_REPRESENTATION ( 'Micro_SBMM-060-318', ( #269, #129 ), #190 ) ;
#61 = LINE ( 'NONE', #298, #160 ) ;
#62 = DIRECTION ( 'NONE',  ( 1.000000000000000000, 0.0000000000000000000, 0.0000000000000000000 ) ) ;
#63 = CIRCLE ( 'NONE', #11, 0.1181100000000000344 ) ;
#64 = CIRCLE ( 'NONE', #138, 0.1181099999999999928 ) ;
#65 = EDGE_CURVE ( 'NONE', #281, #146, #291, .T. ) ;
#66 = DIRECTION ( 'NONE',  ( 1.000000000000000000, 0.0000000000000000000, 0.0000000000000000000 ) ) ;
#67 = PRODUCT_RELATED_PRODUCT_CATEGORY ( 'part', '', ( #277 ) ) ;
#68 = DIRECTION ( 'NONE',  ( -1.000000000000000000, 0.0000000000000000000, 0.0000000000000000000 ) ) ;
#69 = ORIENTED_EDGE ( 'NONE', *, *, #222, .F. ) ;
#70 = DIRECTION ( 'NONE',  ( -0.0000000000000000000, -0.0000000000000000000, -1.000000000000000000 ) ) ;
#71 = EDGE_LOOP ( 'NONE', ( #207, #302 ) ) ;
#72 = LENGTH_MEASURE_WITH_UNIT ( LENGTH_MEASURE( 0.02539999999999999897 ), #230 );
#73 = AXIS2_PLACEMENT_3D ( 'NONE', #1, #42, #68 ) ;
#74 = ORIENTED_EDGE ( 'NONE', *, *, #139, .F. ) ;
#75 = CARTESIAN_POINT ( 'NONE',  ( 0.1181100000000000344, 0.0000000000000000000, 1.141731999999999747 ) ) ;
#76 = EDGE_LOOP ( 'NONE', ( #41, #15, #307, #276 ) ) ;
#77 = ADVANCED_FACE ( 'NONE', ( #183 ), #215, .T. ) ;
#78 = CARTESIAN_POINT ( 'NONE',  ( -0.1031099999999991745, 0.0000000000000000000, 2.952755999999999936 ) ) ;
#79 = AXIS2_PLACEMENT_3D ( 'NONE', #299, #319, #66 ) ;
#80 =( NAMED_UNIT ( * ) PLANE_ANGLE_UNIT ( ) SI_UNIT ( $, .RADIAN. ) );
#81 = DIRECTION ( 'NONE',  ( -1.000000000000000000, 0.0000000000000000000, 0.0000000000000000000 ) ) ;
#82 =( LENGTH_UNIT ( ) NAMED_UNIT ( * ) SI_UNIT ( $, .METRE. ) );
#83 = CARTESIAN_POINT ( 'NONE',  ( 0.07873999999999992117, 0.0000000000000000000, 0.7086609999999999854 ) ) ;
#84 = CARTESIAN_POINT ( 'NONE',  ( 0.0000000000000000000, 0.0000000000000000000, 1.141731999999999747 ) ) ;
#85 = DIRECTION ( 'NONE',  ( 0.0000000000000000000, 1.000000000000000000, 0.0000000000000000000 ) ) ;
#86 = EDGE_CURVE ( 'NONE', #238, #214, #259, .T. ) ;
#87 = CARTESIAN_POINT ( 'NONE',  ( -0.07873999999999992117, 1.205358612060782005E-17, 0.7086609999999999854 ) ) ;
#88 = DIRECTION ( 'NONE',  ( 0.0000000000000000000, 0.0000000000000000000, 1.000000000000000000 ) ) ;
#89 = CARTESIAN_POINT ( 'NONE',  ( 0.0000000000000000000, 0.0000000000000000000, 0.2061439962741667686 ) ) ;
#90 = EDGE_CURVE ( 'NONE', #201, #14, #63, .T. ) ;
#91 = CARTESIAN_POINT ( 'NONE',  ( 0.0000000000000000000, 0.0000000000000000000, 1.141731999999999747 ) ) ;
#92 = EDGE_CURVE ( 'NONE', #104, #238, #255, .T. ) ;
#93 = CARTESIAN_POINT ( 'NONE',  ( -0.1181100000000000344, 1.446430334472939084E-17, 1.141731999999999747 ) ) ;
#94 = AXIS2_PLACEMENT_3D ( 'NONE', #209, #21, #292 ) ;
#95 = STYLED_ITEM ( 'NONE', ( #275 ), #269 ) ;
#96 = ORIENTED_EDGE ( 'NONE', *, *, #260, .F. ) ;
#97 = UNCERTAINTY_MEASURE_WITH_UNIT (LENGTH_MEASURE( 1.000000000000000082E-05 ), #202, 'distance_accuracy_value', 'NONE');
#98 = EDGE_LOOP ( 'NONE', ( #257, #18, #135, #96 ) ) ;
#99 = CARTESIAN_POINT ( 'NONE',  ( 0.0000000000000000000, 0.0000000000000000000, 0.1181100000000000066 ) ) ;
#100 = VECTOR ( 'NONE', #253, 39.37007874015748854 ) ;
#101 = ORIENTED_EDGE ( 'NONE', *, *, #105, .T. ) ;
#102 = UNCERTAINTY_MEASURE_WITH_UNIT (LENGTH_MEASURE( 1.000000000000000082E-05 ), #20, 'distance_accuracy_value', 'NONE');
#103 = ADVANCED_FACE ( 'NONE', ( #158 ), #134, .T. ) ;
#104 = VERTEX_POINT ( 'NONE', #83 ) ;
#105 = EDGE_CURVE ( 'NONE', #14, #201, #182, .T. ) ;
#106 = SURFACE_STYLE_USAGE ( .BOTH. , #285 ) ;
#107 = CARTESIAN_POINT ( 'NONE',  ( -0.07873999999999994892, 0.0000000000000000000, 0.0000000000000000000 ) ) ;
#108 = ORIENTED_EDGE ( 'NONE', *, *, #335, .F. ) ;
#109 = CONICAL_SURFACE ( 'NONE', #2, 0.1031099999999991745, 0.7853981633974500554 ) ;
#110 = CONICAL_SURFACE ( 'NONE', #195, 0.1031099999999991745, 0.7853981633974500554 ) ;
#111 = CARTESIAN_POINT ( 'NONE',  ( 0.0000000000000000000, 0.0000000000000000000, 2.952755999999999936 ) ) ;
#112 = EDGE_LOOP ( 'NONE', ( #38, #23, #235, #248 ) ) ;
#113 = DIRECTION ( 'NONE',  ( -0.0000000000000000000, -0.0000000000000000000, -1.000000000000000000 ) ) ;
#114 = AXIS2_PLACEMENT_3D ( 'NONE', #336, #286, #50 ) ;
#115 = CYLINDRICAL_SURFACE ( 'NONE', #344, 0.07873999999999994892 ) ;
#116 = DIRECTION ( 'NONE',  ( -0.0000000000000000000, -0.0000000000000000000, -1.000000000000000000 ) ) ;
#117 = FILL_AREA_STYLE_COLOUR ( '', #58 ) ;
#118 = AXIS2_PLACEMENT_3D ( 'NONE', #164, #244, #221 ) ;
#119 = FACE_OUTER_BOUND ( 'NONE', #76, .T. ) ;
#120 = CARTESIAN_POINT ( 'NONE',  ( -0.07873999999999996280, 0.0000000000000000000, 0.2061439962741667686 ) ) ;
#121 = AXIS2_PLACEMENT_3D ( 'NONE', #322, #88, #246 ) ;
#122 = ORIENTED_EDGE ( 'NONE', *, *, #290, .F. ) ;
#123 = ADVANCED_FACE ( 'NONE', ( #119 ), #110, .T. ) ;
#124 = DIRECTION ( 'NONE',  ( -1.000000000000000000, 0.0000000000000000000, 0.0000000000000000000 ) ) ;
#125 = ORIENTED_EDGE ( 'NONE', *, *, #318, .T. ) ;
#126 = ORIENTED_EDGE ( 'NONE', *, *, #163, .T. ) ;
#127 = AXIS2_PLACEMENT_3D ( 'NONE', #212, #51, #237 ) ;
#128 = LENGTH_MEASURE_WITH_UNIT ( LENGTH_MEASURE( 0.02539999999999999897 ), #171 );
#129 = AXIS2_PLACEMENT_3D ( 'NONE', #131, #186, #181 ) ;
#130 = VERTEX_POINT ( 'NONE', #197 ) ;
#131 = CARTESIAN_POINT ( 'NONE',  ( 0.0000000000000000000, 0.0000000000000000000, 0.0000000000000000000 ) ) ;
#132 = ORIENTED_EDGE ( 'NONE', *, *, #314, .T. ) ;
#133 = ORIENTED_EDGE ( 'NONE', *, *, #337, .T. ) ;
#134 = PLANE ( 'NONE',  #296 ) ;
#135 = ORIENTED_EDGE ( 'NONE', *, *, #65, .F. ) ;
#136 = ORIENTED_EDGE ( 'NONE', *, *, #65, .T. ) ;
#137 = CYLINDRICAL_SURFACE ( 'NONE', #127, 0.1181100000000000344 ) ;
#138 = AXIS2_PLACEMENT_3D ( 'NONE', #301, #10, #305 ) ;
#139 = EDGE_CURVE ( 'NONE', #146, #281, #40, .T. ) ;
#140 = DIRECTION ( 'NONE',  ( 1.000000000000000000, 0.0000000000000000000, 0.0000000000000000000 ) ) ;
#141 = DIRECTION ( 'NONE',  ( -1.000000000000000000, 0.0000000000000000000, 0.0000000000000000000 ) ) ;
#142 = SURFACE_STYLE_USAGE ( .BOTH. , #31 ) ;
#143 = DIMENSIONAL_EXPONENTS ( 1.000000000000000000, 0.0000000000000000000, 0.0000000000000000000, 0.0000000000000000000, 0.0000000000000000000, 0.0000000000000000000, 0.0000000000000000000 ) ;
#144 = DIRECTION ( 'NONE',  ( 0.0000000000000000000, 0.0000000000000000000, 1.000000000000000000 ) ) ;
#145 = CARTESIAN_POINT ( 'NONE',  ( -0.1299209999999997311, 1.591073367920229727E-17, 1.271653299999996323 ) ) ;
#146 = VERTEX_POINT ( 'NONE', #93 ) ;
#147 = CONICAL_SURFACE ( 'NONE', #118, 0.1299209999999997311, 0.09065967900408448965 ) ;
#148 = DIMENSIONAL_EXPONENTS ( 1.000000000000000000, 0.0000000000000000000, 0.0000000000000000000, 0.0000000000000000000, 0.0000000000000000000, 0.0000000000000000000, 0.0000000000000000000 ) ;
#149 = ORIENTED_EDGE ( 'NONE', *, *, #334, .T. ) ;
#150 = ADVANCED_FACE ( 'NONE', ( #320 ), #147, .T. ) ;
#151 = DIRECTION ( 'NONE',  ( 0.0000000000000000000, 0.0000000000000000000, 1.000000000000000000 ) ) ;
#152 = LINE ( 'NONE', #206, #245 ) ;
#153 = ADVANCED_FACE ( 'NONE', ( #198 ), #3, .T. ) ;
#154 = EDGE_LOOP ( 'NONE', ( #122, #254, #13, #74 ) ) ;
#155 = ORIENTED_EDGE ( 'NONE', *, *, #314, .F. ) ;
#156 = PRODUCT_CONTEXT ( 'NONE', #7, 'mechanical' ) ;
#157 = CARTESIAN_POINT ( 'NONE',  ( 0.07873999999999994892, 9.642868896486252346E-18, 0.0000000000000000000 ) ) ;
#158 = FACE_OUTER_BOUND ( 'NONE', #71, .T. ) ;
#159 = DIRECTION ( 'NONE',  ( 0.0000000000000000000, 0.0000000000000000000, -1.000000000000000000 ) ) ;
#160 = VECTOR ( 'NONE', #116, 39.37007874015748143 ) ;
#161 = ORIENTED_EDGE ( 'NONE', *, *, #334, .F. ) ;
#162 = DIRECTION ( 'NONE',  ( -0.0000000000000000000, -0.0000000000000000000, -1.000000000000000000 ) ) ;
#163 = EDGE_CURVE ( 'NONE', #201, #281, #61, .T. ) ;
#164 = CARTESIAN_POINT ( 'NONE',  ( 0.0000000000000000000, 0.0000000000000000000, 1.271653299999996323 ) ) ;
#165 = AXIS2_PLACEMENT_3D ( 'NONE', #317, #213, #85 ) ;
#166 = CIRCLE ( 'NONE', #121, 0.1031099999999991745 ) ;
#167 = DIRECTION ( 'NONE',  ( -0.0000000000000000000, -0.0000000000000000000, -1.000000000000000000 ) ) ;
#168 = FILL_AREA_STYLE ('',( #117 ) ) ;
#169 = FACE_OUTER_BOUND ( 'NONE', #54, .T. ) ;
#170 = DIRECTION ( 'NONE',  ( -0.0000000000000000000, -0.0000000000000000000, -1.000000000000000000 ) ) ;
#171 =( LENGTH_UNIT ( ) NAMED_UNIT ( * ) SI_UNIT ( $, .METRE. ) );
#172 = ORIENTED_EDGE ( 'NONE', *, *, #266, .T. ) ;
#173 = EDGE_CURVE ( 'NONE', #227, #204, #4, .T. ) ;
#174 = CIRCLE ( 'NONE', #326, 0.07873999999999992117 ) ;
#175 = CIRCLE ( 'NONE', #211, 0.07873999999999996280 ) ;
#176 = VERTEX_POINT ( 'NONE', #219 ) ;
#177 = LINE ( 'NONE', #145, #47 ) ;
#178 = EDGE_LOOP ( 'NONE', ( #229, #283, #43, #155, #278 ) ) ;
#179 = CARTESIAN_POINT ( 'NONE',  ( 0.07873999999999996280, 9.642868896486255427E-18, 0.2061439962741667686 ) ) ;
#180 = ORIENTED_EDGE ( 'NONE', *, *, #86, .T. ) ;
#181 = DIRECTION ( 'NONE',  ( 1.000000000000000000, 0.0000000000000000000, 0.0000000000000000000 ) ) ;
#182 = CIRCLE ( 'NONE', #300, 0.1181100000000000344 ) ;
#183 = FACE_OUTER_BOUND ( 'NONE', #309, .T. ) ;
#184 = APPLICATION_PROTOCOL_DEFINITION ( 'draft international standard', 'automotive_design', 1998, #24 ) ;
#185 = DIRECTION ( 'NONE',  ( -1.000000000000000000, 0.0000000000000000000, 0.0000000000000000000 ) ) ;
#186 = DIRECTION ( 'NONE',  ( 0.0000000000000000000, 0.0000000000000000000, 1.000000000000000000 ) ) ;
#187 = CARTESIAN_POINT ( 'NONE',  ( 0.0000000000000000000, 0.0000000000000000000, 2.937755999999999368 ) ) ;
#188 = FACE_OUTER_BOUND ( 'NONE', #333, .T. ) ;
#189 = STYLED_ITEM ( 'NONE', ( #338 ), #60 ) ;
#190 =( GEOMETRIC_REPRESENTATION_CONTEXT ( 3 ) GLOBAL_UNCERTAINTY_ASSIGNED_CONTEXT ( ( #97 ) ) GLOBAL_UNIT_ASSIGNED_CONTEXT ( ( #202, #328, #282 ) ) REPRESENTATION_CONTEXT ( 'NONE', 'WORKASPACE' ) );
#191 = ADVANCED_FACE ( 'NONE', ( #169 ), #115, .T. ) ;
#192 = CARTESIAN_POINT ( 'NONE',  ( 0.0000000000000000000, 0.0000000000000000000, 2.937755999999999368 ) ) ;
#193 = CARTESIAN_POINT ( 'NONE',  ( 0.1181100000000000344, 1.446430334472939084E-17, 2.937755999999999368 ) ) ;
#194 = CARTESIAN_POINT ( 'NONE',  ( -0.1031099999999991745, 0.0000000000000000000, 2.952755999999999936 ) ) ;
#195 = AXIS2_PLACEMENT_3D ( 'NONE', #218, #28, #323 ) ;
#196 = DIRECTION ( 'NONE',  ( -0.0000000000000000000, -0.0000000000000000000, -1.000000000000000000 ) ) ;
#197 = CARTESIAN_POINT ( 'NONE',  ( 0.0000000000000000000, 0.07873999999999996280, 0.2061439962741667686 ) ) ;
#198 = FACE_OUTER_BOUND ( 'NONE', #233, .T. ) ;
#199 =( GEOMETRIC_REPRESENTATION_CONTEXT ( 3 ) GLOBAL_UNCERTAINTY_ASSIGNED_CONTEXT ( ( #249 ) ) GLOBAL_UNIT_ASSIGNED_CONTEXT ( ( #330, #279, #200 ) ) REPRESENTATION_CONTEXT ( 'NONE', 'WORKASPACE' ) );
#200 =( NAMED_UNIT ( * ) SI_UNIT ( $, .STERADIAN. ) SOLID_ANGLE_UNIT ( ) );
#201 = VERTEX_POINT ( 'NONE', #193 ) ;
#202 =( CONVERSION_BASED_UNIT ( 'INCH', #128 ) LENGTH_UNIT ( ) NAMED_UNIT ( #8 ) );
#203 = ORIENTED_EDGE ( 'NONE', *, *, #35, .F. ) ;
#204 = VERTEX_POINT ( 'NONE', #33 ) ;
#205 = AXIS2_PLACEMENT_3D ( 'NONE', #297, #170, #345 ) ;
#206 = CARTESIAN_POINT ( 'NONE',  ( -0.1181100000000000344, 0.0000000000000000000, 2.952755999999999936 ) ) ;
#207 = ORIENTED_EDGE ( 'NONE', *, *, #173, .T. ) ;
#208 = EDGE_CURVE ( 'NONE', #204, #227, #166, .T. ) ;
#209 = CARTESIAN_POINT ( 'NONE',  ( 0.0000000000000000000, 0.0000000000000000000, 2.952755999999999936 ) ) ;
#210 = LENGTH_MEASURE_WITH_UNIT ( LENGTH_MEASURE( 0.02539999999999999897 ), #82 );
#211 = AXIS2_PLACEMENT_3D ( 'NONE', #89, #196, #223 ) ;
#212 = CARTESIAN_POINT ( 'NONE',  ( 0.0000000000000000000, 0.0000000000000000000, 2.952755999999999936 ) ) ;
#213 = DIRECTION ( 'NONE',  ( 1.000000000000000000, 0.0000000000000000000, 0.0000000000000000000 ) ) ;
#214 = VERTEX_POINT ( 'NONE', #120 ) ;
#215 = SPHERICAL_SURFACE ( 'NONE', #165, 0.1181099999999999928 ) ;
#216 = AXIS2_PLACEMENT_3D ( 'NONE', #91, #144, #324 ) ;
#217 = DIRECTION ( 'NONE',  ( -1.000000000000000000, 0.0000000000000000000, 0.0000000000000000000 ) ) ;
#218 = CARTESIAN_POINT ( 'NONE',  ( 0.0000000000000000000, 0.0000000000000000000, 2.952755999999999936 ) ) ;
#219 = CARTESIAN_POINT ( 'NONE',  ( 0.0000000000000000000, 7.232151672364693882E-18, 1.707404996040164512E-17 ) ) ;
#220 = CIRCLE ( 'NONE', #73, 0.07873999999999996280 ) ;
#221 = DIRECTION ( 'NONE',  ( 1.000000000000000000, 0.0000000000000000000, 0.0000000000000000000 ) ) ;
#222 = EDGE_CURVE ( 'NONE', #313, #214, #175, .T. ) ;
#223 = DIRECTION ( 'NONE',  ( -1.000000000000000000, 0.0000000000000000000, 0.0000000000000000000 ) ) ;
#224 = ADVANCED_FACE ( 'NONE', ( #30 ), #32, .T. ) ;
#225 = FILL_AREA_STYLE ('',( #303 ) ) ;
#226 = VECTOR ( 'NONE', #265, 39.37007874015748143 ) ;
#227 = VERTEX_POINT ( 'NONE', #194 ) ;
#228 = DIRECTION ( 'NONE',  ( -0.0000000000000000000, -0.0000000000000000000, -1.000000000000000000 ) ) ;
#229 = ORIENTED_EDGE ( 'NONE', *, *, #37, .T. ) ;
#230 =( LENGTH_UNIT ( ) NAMED_UNIT ( * ) SI_UNIT ( $, .METRE. ) );
#231 = EDGE_LOOP ( 'NONE', ( #101, #126, #136, #108 ) ) ;
#232 = PRESENTATION_LAYER_ASSIGNMENT (  '', '', ( #189 ) ) ;
#233 = EDGE_LOOP ( 'NONE', ( #161, #258, #132, #125 ) ) ;
#234 = ADVANCED_FACE ( 'NONE', ( #294 ), #274, .T. ) ;
#235 = ORIENTED_EDGE ( 'NONE', *, *, #335, .T. ) ;
#236 = CARTESIAN_POINT ( 'NONE',  ( 0.0000000000000000000, 0.0000000000000000000, 2.952755999999999936 ) ) ;
#237 = DIRECTION ( 'NONE',  ( -1.000000000000000000, 0.0000000000000000000, 0.0000000000000000000 ) ) ;
#238 = VERTEX_POINT ( 'NONE', #87 ) ;
#239 = CLOSED_SHELL ( 'NONE', ( #9, #55, #234, #150, #77, #153, #224, #191, #29, #103, #123 ) ) ;
#240 = CARTESIAN_POINT ( 'NONE',  ( 0.0000000000000000000, 0.0000000000000000000, 0.1181100000000000066 ) ) ;
#241 = AXIS2_PLACEMENT_3D ( 'NONE', #251, #228, #124 ) ;
#242 = DIRECTION ( 'NONE',  ( 0.0000000000000000000, 1.000000000000000000, 0.0000000000000000000 ) ) ;
#243 = CARTESIAN_POINT ( 'NONE',  ( 0.0000000000000000000, 0.0000000000000000000, 2.952755999999999936 ) ) ;
#244 = DIRECTION ( 'NONE',  ( 0.0000000000000000000, 0.0000000000000000000, 1.000000000000000000 ) ) ;
#245 = VECTOR ( 'NONE', #70, 39.37007874015748143 ) ;
#246 = DIRECTION ( 'NONE',  ( 1.000000000000000000, 0.0000000000000000000, 0.0000000000000000000 ) ) ;
#247 = DIRECTION ( 'NONE',  ( -1.000000000000000000, 0.0000000000000000000, 0.0000000000000000000 ) ) ;
#248 = ORIENTED_EDGE ( 'NONE', *, *, #139, .T. ) ;
#249 = UNCERTAINTY_MEASURE_WITH_UNIT (LENGTH_MEASURE( 1.000000000000000082E-05 ), #330, 'distance_accuracy_value', 'NONE');
#250 = CARTESIAN_POINT ( 'NONE',  ( 0.1031099999999991745, 1.262733314600825725E-17, 2.952755999999999936 ) ) ;
#251 = CARTESIAN_POINT ( 'NONE',  ( 0.0000000000000000000, 0.0000000000000000000, 0.2061439962741667686 ) ) ;
#252 = ORIENTED_EDGE ( 'NONE', *, *, #208, .F. ) ;
#253 = DIRECTION ( 'NONE',  ( 0.7071067811865486830, 8.659560562354947649E-17, -0.7071067811865462405 ) ) ;
#254 = ORIENTED_EDGE ( 'NONE', *, *, #92, .F. ) ;
#255 = CIRCLE ( 'NONE', #114, 0.07873999999999992117 ) ;
#256 = AXIS2_PLACEMENT_3D ( 'NONE', #243, #36, #5 ) ;
#257 = ORIENTED_EDGE ( 'NONE', *, *, #37, .F. ) ;
#258 = ORIENTED_EDGE ( 'NONE', *, *, #222, .T. ) ;
#259 = LINE ( 'NONE', #107, #16 ) ;
#260 = EDGE_CURVE ( 'NONE', #104, #281, #295, .T. ) ;
#261 = AXIS2_PLACEMENT_3D ( 'NONE', #99, #247, #151 ) ;
#262 = CYLINDRICAL_SURFACE ( 'NONE', #94, 0.1181100000000000344 ) ;
#263 = CARTESIAN_POINT ( 'NONE',  ( 0.0000000000000000000, 0.0000000000000000000, 0.7086609999999999854 ) ) ;
#264 = DIRECTION ( 'NONE',  ( 1.000000000000000000, 0.0000000000000000000, 0.0000000000000000000 ) ) ;
#265 = DIRECTION ( 'NONE',  ( 0.09053553870087664712, 0.0000000000000000000, 0.9958932253169222593 ) ) ;
#266 = EDGE_CURVE ( 'NONE', #280, #313, #52, .T. ) ;
#267 = AXIS2_PLACEMENT_3D ( 'NONE', #59, #167, #141 ) ;
#268 = CARTESIAN_POINT ( 'NONE',  ( 0.0000000000000000000, 0.0000000000000000000, 0.0000000000000000000 ) ) ;
#269 = MANIFOLD_SOLID_BREP ( 'Cut-Revolve3', #239 ) ;
#270 = SURFACE_STYLE_FILL_AREA ( #168 ) ;
#271 = EDGE_CURVE ( 'NONE', #130, #280, #220, .T. ) ;
#272 = DIRECTION ( 'NONE',  ( -0.0000000000000000000, -0.0000000000000000000, -1.000000000000000000 ) ) ;
#273 = PRODUCT_DEFINITION ( 'UNKNOWN', '', #17, #308 ) ;
#274 = CYLINDRICAL_SURFACE ( 'NONE', #205, 0.07873999999999994892 ) ;
#275 = PRESENTATION_STYLE_ASSIGNMENT (( #142 ) ) ;
#276 = ORIENTED_EDGE ( 'NONE', *, *, #90, .F. ) ;
#277 = PRODUCT ( 'Micro_SBMM-060-318', 'Micro_SBMM-060-318', '', ( #156 ) ) ;
#278 = ORIENTED_EDGE ( 'NONE', *, *, #86, .F. ) ;
#279 =( NAMED_UNIT ( * ) PLANE_ANGLE_UNIT ( ) SI_UNIT ( $, .RADIAN. ) );
#280 = VERTEX_POINT ( 'NONE', #179 ) ;
#281 = VERTEX_POINT ( 'NONE', #75 ) ;
#282 =( NAMED_UNIT ( * ) SI_UNIT ( $, .STERADIAN. ) SOLID_ANGLE_UNIT ( ) );
#283 = ORIENTED_EDGE ( 'NONE', *, *, #53, .T. ) ;
#284 = CIRCLE ( 'NONE', #241, 0.07873999999999996280 ) ;
#285 = SURFACE_SIDE_STYLE ('',( #325 ) ) ;
#286 = DIRECTION ( 'NONE',  ( -0.0000000000000000000, -0.0000000000000000000, -1.000000000000000000 ) ) ;
#287 = SHAPE_DEFINITION_REPRESENTATION ( #311, #60 ) ;
#288 = DIRECTION ( 'NONE',  ( 0.0000000000000000000, 0.0000000000000000000, -1.000000000000000000 ) ) ;
#289 = FACE_OUTER_BOUND ( 'NONE', #112, .T. ) ;
#290 = EDGE_CURVE ( 'NONE', #238, #146, #177, .T. ) ;
#291 = CIRCLE ( 'NONE', #312, 0.1181100000000000344 ) ;
#292 = DIRECTION ( 'NONE',  ( -1.000000000000000000, 0.0000000000000000000, 0.0000000000000000000 ) ) ;
#293 = CARTESIAN_POINT ( 'NONE',  ( -0.1181100000000000344, 0.0000000000000000000, 2.937755999999999368 ) ) ;
#294 = FACE_OUTER_BOUND ( 'NONE', #178, .T. ) ;
#295 = LINE ( 'NONE', #57, #226 ) ;
#296 = AXIS2_PLACEMENT_3D ( 'NONE', #236, #341, #315 ) ;
#297 = CARTESIAN_POINT ( 'NONE',  ( 0.0000000000000000000, 0.0000000000000000000, 0.0000000000000000000 ) ) ;
#298 = CARTESIAN_POINT ( 'NONE',  ( 0.1181100000000000344, 1.446430334472939084E-17, 2.952755999999999936 ) ) ;
#299 = CARTESIAN_POINT ( 'NONE',  ( 0.0000000000000000000, 0.0000000000000000000, 1.271653299999996323 ) ) ;
#300 = AXIS2_PLACEMENT_3D ( 'NONE', #187, #159, #62 ) ;
#301 = CARTESIAN_POINT ( 'NONE',  ( 0.0000000000000000000, 0.0000000000000000000, 0.1181100000000000066 ) ) ;
#302 = ORIENTED_EDGE ( 'NONE', *, *, #208, .T. ) ;
#303 = FILL_AREA_STYLE_COLOUR ( '', #34 ) ;
#304 = ORIENTED_EDGE ( 'NONE', *, *, #92, .T. ) ;
#305 = DIRECTION ( 'NONE',  ( -1.224646799147353207E-16, 1.000000000000000000, 0.0000000000000000000 ) ) ;
#306 = AXIS2_PLACEMENT_3D ( 'NONE', #240, #140, #242 ) ;
#307 = ORIENTED_EDGE ( 'NONE', *, *, #35, .T. ) ;
#308 = PRODUCT_DEFINITION_CONTEXT ( 'detailed design', #24, 'design' ) ;
#309 = EDGE_LOOP ( 'NONE', ( #46, #172, #149, #331 ) ) ;
#310 = DIRECTION ( 'NONE',  ( 1.000000000000000000, 0.0000000000000000000, 0.0000000000000000000 ) ) ;
#311 = PRODUCT_DEFINITION_SHAPE ( 'NONE', 'NONE',  #273 ) ;
#312 = AXIS2_PLACEMENT_3D ( 'NONE', #84, #342, #310 ) ;
#313 = VERTEX_POINT ( 'NONE', #44 ) ;
#314 = EDGE_CURVE ( 'NONE', #214, #130, #284, .T. ) ;
#315 = DIRECTION ( 'NONE',  ( 1.000000000000000000, 0.0000000000000000000, -0.0000000000000000000 ) ) ;
#316 = LINE ( 'NONE', #78, #321 ) ;
#317 = CARTESIAN_POINT ( 'NONE',  ( 0.0000000000000000000, 0.0000000000000000000, 0.1181100000000000066 ) ) ;
#318 = EDGE_CURVE ( 'NONE', #130, #176, #12, .T. ) ;
#319 = DIRECTION ( 'NONE',  ( 0.0000000000000000000, 0.0000000000000000000, 1.000000000000000000 ) ) ;
#320 = FACE_OUTER_BOUND ( 'NONE', #98, .T. ) ;
#321 = VECTOR ( 'NONE', #19, 39.37007874015748854 ) ;
#322 = CARTESIAN_POINT ( 'NONE',  ( 0.0000000000000000000, 0.0000000000000000000, 2.952755999999999936 ) ) ;
#323 = DIRECTION ( 'NONE',  ( -1.000000000000000000, 0.0000000000000000000, 0.0000000000000000000 ) ) ;
#324 = DIRECTION ( 'NONE',  ( 1.000000000000000000, 0.0000000000000000000, 0.0000000000000000000 ) ) ;
#325 = SURFACE_STYLE_FILL_AREA ( #225 ) ;
#326 = AXIS2_PLACEMENT_3D ( 'NONE', #263, #113, #185 ) ;
#327 =( GEOMETRIC_REPRESENTATION_CONTEXT ( 3 ) GLOBAL_UNCERTAINTY_ASSIGNED_CONTEXT ( ( #102 ) ) GLOBAL_UNIT_ASSIGNED_CONTEXT ( ( #20, #80, #48 ) ) REPRESENTATION_CONTEXT ( 'NONE', 'WORKASPACE' ) );
#328 =( NAMED_UNIT ( * ) PLANE_ANGLE_UNIT ( ) SI_UNIT ( $, .RADIAN. ) );
#329 = ORIENTED_EDGE ( 'NONE', *, *, #105, .F. ) ;
#330 =( CONVERSION_BASED_UNIT ( 'INCH', #72 ) LENGTH_UNIT ( ) NAMED_UNIT ( #148 ) );
#331 = ORIENTED_EDGE ( 'NONE', *, *, #318, .F. ) ;
#332 = DIRECTION ( 'NONE',  ( -0.09053553870087664712, 1.108740576791099125E-17, 0.9958932253169222593 ) ) ;
#333 = EDGE_LOOP ( 'NONE', ( #252, #133, #329, #203 ) ) ;
#334 = EDGE_CURVE ( 'NONE', #313, #176, #64, .T. ) ;
#335 = EDGE_CURVE ( 'NONE', #14, #146, #152, .T. ) ;
#336 = CARTESIAN_POINT ( 'NONE',  ( 0.0000000000000000000, 0.0000000000000000000, 0.7086609999999999854 ) ) ;
#337 = EDGE_CURVE ( 'NONE', #204, #201, #39, .T. ) ;
#338 = PRESENTATION_STYLE_ASSIGNMENT (( #106 ) ) ;
#339 = FACE_OUTER_BOUND ( 'NONE', #231, .T. ) ;
#340 = MECHANICAL_DESIGN_GEOMETRIC_PRESENTATION_REPRESENTATION (  '', ( #95 ), #199 ) ;
#341 = DIRECTION ( 'NONE',  ( 0.0000000000000000000, 0.0000000000000000000, 1.000000000000000000 ) ) ;
#342 = DIRECTION ( 'NONE',  ( 0.0000000000000000000, 0.0000000000000000000, 1.000000000000000000 ) ) ;
#343 = DIRECTION ( 'NONE',  ( 0.0000000000000000000, 0.0000000000000000000, -1.000000000000000000 ) ) ;
#344 = AXIS2_PLACEMENT_3D ( 'NONE', #268, #272, #217 ) ;
#345 = DIRECTION ( 'NONE',  ( -1.000000000000000000, 0.0000000000000000000, 0.0000000000000000000 ) ) ;
ENDSEC;
END-ISO-10303-21;
