ISO-10303-21;
HEADER;
FILE_DESCRIPTION (( 'STEP AP214' ),
    '1' );
FILE_NAME ('84758.STEP',
    '2023-06-30T23:46:35',
    ( '' ),
    ( '' ),
    'SwSTEP 2.0',
    'SolidWorks 2023',
    '' );
FILE_SCHEMA (( 'AUTOMOTIVE_DESIGN' ));
ENDSEC;

DATA;
#1 = ORIENTED_EDGE ( 'NONE', *, *, #139, .F. ) ;
#2 = ORIENTED_EDGE ( 'NONE', *, *, #14, .T. ) ;
#3 = PRODUCT_DEFINITION ( 'UNKNOWN', '', #75, #118 ) ;
#4 = PRESENTATION_STYLE_ASSIGNMENT (( #57 ) ) ;
#5 = DIRECTION ( 'NONE',  ( -0.000000000000000000, -1.000000000000000000, -0.000000000000000000 ) ) ;
#6 =( CONVERSION_BASED_UNIT ( 'INCH', #309 ) LENGTH_UNIT ( ) NAMED_UNIT ( #358 ) );
#7 = DIRECTION ( 'NONE',  ( 0.000000000000000000, 0.000000000000000000, -1.000000000000000000 ) ) ;
#8 = LINE ( 'NONE', #189, #246 ) ;
#9 = CARTESIAN_POINT ( 'NONE',  ( -0.1249999999999994310, 1.500000000000000222, 0.000000000000000000 ) ) ;
#10 = ORIENTED_EDGE ( 'NONE', *, *, #66, .T. ) ;
#11 =( GEOMETRIC_REPRESENTATION_CONTEXT ( 3 ) GLOBAL_UNCERTAINTY_ASSIGNED_CONTEXT ( ( #319 ) ) GLOBAL_UNIT_ASSIGNED_CONTEXT ( ( #325, #29, #250 ) ) REPRESENTATION_CONTEXT ( 'NONE', 'WORKASPACE' ) );
#12 = DIMENSIONAL_EXPONENTS ( 1.000000000000000000, 0.000000000000000000, 0.000000000000000000, 0.000000000000000000, 0.000000000000000000, 0.000000000000000000, 0.000000000000000000 ) ;
#13 =( NAMED_UNIT ( * ) SI_UNIT ( $, .STERADIAN. ) SOLID_ANGLE_UNIT ( ) );
#14 = EDGE_CURVE ( 'NONE', #273, #367, #346, .T. ) ;
#15 = ORIENTED_EDGE ( 'NONE', *, *, #275, .T. ) ;
#16 = DIRECTION ( 'NONE',  ( 0.000000000000000000, 0.000000000000000000, -1.000000000000000000 ) ) ;
#17 = ORIENTED_EDGE ( 'NONE', *, *, #259, .F. ) ;
#18 = PRESENTATION_LAYER_ASSIGNMENT (  '', '', ( #297 ) ) ;
#19 = AXIS2_PLACEMENT_3D ( 'NONE', #178, #288, #205 ) ;
#20 = LENGTH_MEASURE_WITH_UNIT ( LENGTH_MEASURE( 0.02539999999999999897 ), #77 );
#21 = DIRECTION ( 'NONE',  ( -1.000000000000000000, 0.000000000000000000, 0.000000000000000000 ) ) ;
#22 = SURFACE_STYLE_FILL_AREA ( #294 ) ;
#23 =( CONVERSION_BASED_UNIT ( 'INCH', #267 ) LENGTH_UNIT ( ) NAMED_UNIT ( #60 ) );
#24 =( GEOMETRIC_REPRESENTATION_CONTEXT ( 3 ) GLOBAL_UNCERTAINTY_ASSIGNED_CONTEXT ( ( #321 ) ) GLOBAL_UNIT_ASSIGNED_CONTEXT ( ( #23, #301, #13 ) ) REPRESENTATION_CONTEXT ( 'NONE', 'WORKASPACE' ) );
#25 = EDGE_CURVE ( 'NONE', #120, #311, #136, .T. ) ;
#26 = CIRCLE ( 'NONE', #262, 0.1250000000000000000 ) ;
#27 = ORIENTED_EDGE ( 'NONE', *, *, #76, .F. ) ;
#28 = DIRECTION ( 'NONE',  ( 0.000000000000000000, 0.000000000000000000, -1.000000000000000000 ) ) ;
#29 =( NAMED_UNIT ( * ) PLANE_ANGLE_UNIT ( ) SI_UNIT ( $, .RADIAN. ) );
#30 = ADVANCED_FACE ( 'NONE', ( #255 ), #234, .T. ) ;
#31 = ORIENTED_EDGE ( 'NONE', *, *, #350, .T. ) ;
#32 = EDGE_LOOP ( 'NONE', ( #2, #138, #1, #15 ) ) ;
#33 = CARTESIAN_POINT ( 'NONE',  ( 0.000000000000000000, 0.1250000000000000000, 0.000000000000000000 ) ) ;
#34 = DIRECTION ( 'NONE',  ( 0.000000000000000000, 0.000000000000000000, -1.000000000000000000 ) ) ;
#35 = CARTESIAN_POINT ( 'NONE',  ( 0.1249999999999996392, 3.000000000000000444, 1.530808498934188736E-17 ) ) ;
#36 = DIRECTION ( 'NONE',  ( -2.048916547649773922E-16, 1.000000000000000000, -0.000000000000000000 ) ) ;
#37 =( CONVERSION_BASED_UNIT ( 'INCH', #193 ) LENGTH_UNIT ( ) NAMED_UNIT ( #50 ) );
#38 = COLOUR_RGB ( '',0.7921568627450980005, 0.8196078431372548767, 0.9333333333333333481 ) ;
#39 = FILL_AREA_STYLE_COLOUR ( '', #318 ) ;
#40 =( CONVERSION_BASED_UNIT ( 'INCH', #20 ) LENGTH_UNIT ( ) NAMED_UNIT ( #163 ) );
#41 = EDGE_LOOP ( 'NONE', ( #340, #10, #153, #191 ) ) ;
#42 =( NAMED_UNIT ( * ) SI_UNIT ( $, .STERADIAN. ) SOLID_ANGLE_UNIT ( ) );
#43 = STYLED_ITEM ( 'NONE', ( #90 ), #64 ) ;
#44 = AXIS2_PLACEMENT_3D ( 'NONE', #254, #361, #287 ) ;
#45 = CARTESIAN_POINT ( 'NONE',  ( -1.224646799147353700E-16, 3.000000000000000444, 0.000000000000000000 ) ) ;
#46 =( NAMED_UNIT ( * ) PLANE_ANGLE_UNIT ( ) SI_UNIT ( $, .RADIAN. ) );
#47 = FILL_AREA_STYLE ('',( #320 ) ) ;
#48 = UNCERTAINTY_MEASURE_WITH_UNIT (LENGTH_MEASURE( 1.000000000000000082E-05 ), #37, 'distance_accuracy_value', 'NONE');
#49 = STYLED_ITEM ( 'NONE', ( #292 ), #197 ) ;
#50 = DIMENSIONAL_EXPONENTS ( 1.000000000000000000, 0.000000000000000000, 0.000000000000000000, 0.000000000000000000, 0.000000000000000000, 0.000000000000000000, 0.000000000000000000 ) ;
#51 =( LENGTH_UNIT ( ) NAMED_UNIT ( * ) SI_UNIT ( $, .METRE. ) );
#52 = VECTOR ( 'NONE', #290, 39.37007874015748143 ) ;
#53 = MECHANICAL_DESIGN_GEOMETRIC_PRESENTATION_REPRESENTATION (  '', ( #184 ), #24 ) ;
#54 = EDGE_LOOP ( 'NONE', ( #142, #354, #343, #291, #164 ) ) ;
#55 = PLANE ( 'NONE',  #198 ) ;
#56 = SURFACE_STYLE_FILL_AREA ( #329 ) ;
#57 = SURFACE_STYLE_USAGE ( .BOTH. , #274 ) ;
#58 =( NAMED_UNIT ( * ) PLANE_ANGLE_UNIT ( ) SI_UNIT ( $, .RADIAN. ) );
#59 = DIRECTION ( 'NONE',  ( 2.048916547649774169E-16, -1.000000000000000000, 0.000000000000000000 ) ) ;
#60 = DIMENSIONAL_EXPONENTS ( 1.000000000000000000, 0.000000000000000000, 0.000000000000000000, 0.000000000000000000, 0.000000000000000000, 0.000000000000000000, 0.000000000000000000 ) ;
#61 = CARTESIAN_POINT ( 'NONE',  ( -1.530808498934191509E-17, 0.1250000000000000000, 0.000000000000000000 ) ) ;
#62 = AXIS2_PLACEMENT_3D ( 'NONE', #126, #356, #95 ) ;
#63 =( LENGTH_UNIT ( ) NAMED_UNIT ( * ) SI_UNIT ( $, .METRE. ) );
#64 = MANIFOLD_SOLID_BREP ( 'Revolve - Cutting Edge', #124 ) ;
#65 = SPHERICAL_SURFACE ( 'NONE', #286, 0.1250000000000000000 ) ;
#66 = EDGE_CURVE ( 'NONE', #86, #121, #158, .T. ) ;
#67 = FACE_OUTER_BOUND ( 'NONE', #300, .T. ) ;
#68 = DIRECTION ( 'NONE',  ( -2.048916547649773922E-16, 1.000000000000000000, -0.000000000000000000 ) ) ;
#69 = DIMENSIONAL_EXPONENTS ( 1.000000000000000000, 0.000000000000000000, 0.000000000000000000, 0.000000000000000000, 0.000000000000000000, 0.000000000000000000, 0.000000000000000000 ) ;
#70 = DIRECTION ( 'NONE',  ( -2.048916547649774169E-16, 1.000000000000000000, 0.000000000000000000 ) ) ;
#71 = SURFACE_STYLE_FILL_AREA ( #256 ) ;
#72 =( NAMED_UNIT ( * ) SI_UNIT ( $, .STERADIAN. ) SOLID_ANGLE_UNIT ( ) );
#73 =( GEOMETRIC_REPRESENTATION_CONTEXT ( 3 ) GLOBAL_UNCERTAINTY_ASSIGNED_CONTEXT ( ( #48 ) ) GLOBAL_UNIT_ASSIGNED_CONTEXT ( ( #37, #365, #72 ) ) REPRESENTATION_CONTEXT ( 'NONE', 'WORKASPACE' ) );
#74 = AXIS2_PLACEMENT_3D ( 'NONE', #333, #338, #167 ) ;
#75 = PRODUCT_DEFINITION_FORMATION_WITH_SPECIFIED_SOURCE ( 'ANY', '', #83, .NOT_KNOWN. ) ;
#76 = EDGE_CURVE ( 'NONE', #121, #243, #296, .T. ) ;
#77 =( LENGTH_UNIT ( ) NAMED_UNIT ( * ) SI_UNIT ( $, .METRE. ) );
#78 = CARTESIAN_POINT ( 'NONE',  ( 1.848728022327307430E-16, 1.500000000000000222, 0.000000000000000000 ) ) ;
#79 = APPLICATION_CONTEXT ( 'automotive_design' ) ;
#80 = DIRECTION ( 'NONE',  ( -0.000000000000000000, -1.000000000000000000, -0.000000000000000000 ) ) ;
#81 = LENGTH_MEASURE_WITH_UNIT ( LENGTH_MEASURE( 0.02539999999999999897 ), #347 );
#82 = FILL_AREA_STYLE ('',( #316 ) ) ;
#83 = PRODUCT ( '84758', '84758', '', ( #218 ) ) ;
#84 = EDGE_CURVE ( 'NONE', #367, #311, #326, .T. ) ;
#85 = FACE_OUTER_BOUND ( 'NONE', #32, .T. ) ;
#86 = VERTEX_POINT ( 'NONE', #363 ) ;
#87 = COLOUR_RGB ( '',1.000000000000000000, 0.000000000000000000, 0.000000000000000000 ) ;
#88 = MECHANICAL_DESIGN_GEOMETRIC_PRESENTATION_REPRESENTATION (  '', ( #260 ), #73 ) ;
#89 = EDGE_CURVE ( 'NONE', #166, #86, #265, .T. ) ;
#90 = PRESENTATION_STYLE_ASSIGNMENT (( #217 ) ) ;
#91 = ORIENTED_EDGE ( 'NONE', *, *, #139, .T. ) ;
#92 = ORIENTED_EDGE ( 'NONE', *, *, #146, .F. ) ;
#93 = AXIS2_PLACEMENT_3D ( 'NONE', #130, #59, #97 ) ;
#94 = FILL_AREA_STYLE_COLOUR ( '', #87 ) ;
#95 = DIRECTION ( 'NONE',  ( 1.000000000000000000, 0.000000000000000000, -1.224646799147353207E-16 ) ) ;
#96 = SURFACE_STYLE_USAGE ( .BOTH. , #168 ) ;
#97 = DIRECTION ( 'NONE',  ( 1.000000000000000000, 2.048916547649774169E-16, 0.000000000000000000 ) ) ;
#98 = LENGTH_MEASURE_WITH_UNIT ( LENGTH_MEASURE( 0.02539999999999999897 ), #194 );
#99 = MECHANICAL_DESIGN_GEOMETRIC_PRESENTATION_REPRESENTATION (  '', ( #159 ), #152 ) ;
#100 = CARTESIAN_POINT ( 'NONE',  ( 0.000000000000000000, 0.000000000000000000, 0.000000000000000000 ) ) ;
#101 = DIRECTION ( 'NONE',  ( -0.000000000000000000, -1.000000000000000000, -0.000000000000000000 ) ) ;
#102 = CARTESIAN_POINT ( 'NONE',  ( 0.000000000000000000, 1.500000000000000222, 0.000000000000000000 ) ) ;
#103 = DIRECTION ( 'NONE',  ( -1.000000000000000000, 0.000000000000000000, 0.000000000000000000 ) ) ;
#104 = EDGE_CURVE ( 'NONE', #120, #328, #170, .T. ) ;
#105 = ORIENTED_EDGE ( 'NONE', *, *, #207, .F. ) ;
#106 = AXIS2_PLACEMENT_3D ( 'NONE', #133, #302, #28 ) ;
#107 = AXIS2_PLACEMENT_3D ( 'NONE', #102, #80, #370 ) ;
#108 =( GEOMETRIC_REPRESENTATION_CONTEXT ( 3 ) GLOBAL_UNCERTAINTY_ASSIGNED_CONTEXT ( ( #181 ) ) GLOBAL_UNIT_ASSIGNED_CONTEXT ( ( #6, #125, #334 ) ) REPRESENTATION_CONTEXT ( 'NONE', 'WORKASPACE' ) );
#109 =( CONVERSION_BASED_UNIT ( 'INCH', #81 ) LENGTH_UNIT ( ) NAMED_UNIT ( #12 ) );
#110 = SURFACE_SIDE_STYLE ('',( #236 ) ) ;
#111 = MECHANICAL_DESIGN_GEOMETRIC_PRESENTATION_REPRESENTATION (  '', ( #43 ), #11 ) ;
#112 = VECTOR ( 'NONE', #228, 39.37007874015748143 ) ;
#113 = CARTESIAN_POINT ( 'NONE',  ( 0.000000000000000000, 0.1250000000000000000, -0.1250000000000000000 ) ) ;
#114 = PLANE ( 'NONE',  #132 ) ;
#115 = DIRECTION ( 'NONE',  ( -0.000000000000000000, -1.000000000000000000, -0.000000000000000000 ) ) ;
#116 = PRESENTATION_LAYER_ASSIGNMENT (  '', '', ( #204 ) ) ;
#117 =( LENGTH_UNIT ( ) NAMED_UNIT ( * ) SI_UNIT ( $, .METRE. ) );
#118 = PRODUCT_DEFINITION_CONTEXT ( 'detailed design', #289, 'design' ) ;
#119 = ORIENTED_EDGE ( 'NONE', *, *, #176, .T. ) ;
#120 = VERTEX_POINT ( 'NONE', #313 ) ;
#121 = VERTEX_POINT ( 'NONE', #306 ) ;
#122 = CARTESIAN_POINT ( 'NONE',  ( 1.848728022327306690E-16, 1.500000000000000222, 0.000000000000000000 ) ) ;
#123 = CARTESIAN_POINT ( 'NONE',  ( 0.1250000000000000000, 0.1250000000000000000, 0.000000000000000000 ) ) ;
#124 = CLOSED_SHELL ( 'NONE', ( #242, #30, #210, #310, #160 ) ) ;
#125 =( NAMED_UNIT ( * ) PLANE_ANGLE_UNIT ( ) SI_UNIT ( $, .RADIAN. ) );
#126 = CARTESIAN_POINT ( 'NONE',  ( -1.530808498934191509E-17, 0.1250000000000000000, 0.000000000000000000 ) ) ;
#127 = SHAPE_DEFINITION_REPRESENTATION ( #362, #230 ) ;
#128 = DIRECTION ( 'NONE',  ( -1.000000000000000000, 0.000000000000000000, 0.000000000000000000 ) ) ;
#129 = DIRECTION ( 'NONE',  ( -2.048916547649773922E-16, 1.000000000000000000, -0.000000000000000000 ) ) ;
#130 = CARTESIAN_POINT ( 'NONE',  ( 0.1249999999999997918, 3.000000000000000444, 0.000000000000000000 ) ) ;
#131 = FACE_OUTER_BOUND ( 'NONE', #314, .T. ) ;
#132 = AXIS2_PLACEMENT_3D ( 'NONE', #240, #233, #349 ) ;
#133 = CARTESIAN_POINT ( 'NONE',  ( 0.000000000000000000, 0.1250000000000000000, 0.000000000000000000 ) ) ;
#134 = FILL_AREA_STYLE_COLOUR ( '', #149 ) ;
#135 = DIRECTION ( 'NONE',  ( -2.048916547649773922E-16, 1.000000000000000000, -0.000000000000000000 ) ) ;
#136 = LINE ( 'NONE', #337, #208 ) ;
#137 = FACE_OUTER_BOUND ( 'NONE', #324, .T. ) ;
#138 = ORIENTED_EDGE ( 'NONE', *, *, #146, .T. ) ;
#139 = EDGE_CURVE ( 'NONE', #305, #183, #26, .T. ) ;
#140 = FILL_AREA_STYLE ('',( #345 ) ) ;
#141 = CIRCLE ( 'NONE', #307, 0.1250000000000000000 ) ;
#142 = ORIENTED_EDGE ( 'NONE', *, *, #104, .T. ) ;
#143 = CARTESIAN_POINT ( 'NONE',  ( -1.224646799147353700E-16, 3.000000000000000444, 0.000000000000000000 ) ) ;
#144 = DIRECTION ( 'NONE',  ( -2.048916547649773922E-16, 1.000000000000000000, -0.000000000000000000 ) ) ;
#145 = CARTESIAN_POINT ( 'NONE',  ( 0.000000000000000000, 0.000000000000000000, 0.000000000000000000 ) ) ;
#146 = EDGE_CURVE ( 'NONE', #367, #183, #174, .T. ) ;
#147 = SURFACE_STYLE_FILL_AREA ( #82 ) ;
#148 = UNCERTAINTY_MEASURE_WITH_UNIT (LENGTH_MEASURE( 1.000000000000000082E-05 ), #224, 'distance_accuracy_value', 'NONE');
#149 = COLOUR_RGB ( '',1.000000000000000000, 0.000000000000000000, 0.000000000000000000 ) ;
#150 = CIRCLE ( 'NONE', #323, 0.1249999999999999167 ) ;
#151 = ADVANCED_FACE ( 'NONE', ( #131 ), #257, .T. ) ;
#152 =( GEOMETRIC_REPRESENTATION_CONTEXT ( 3 ) GLOBAL_UNCERTAINTY_ASSIGNED_CONTEXT ( ( #293 ) ) GLOBAL_UNIT_ASSIGNED_CONTEXT ( ( #109, #46, #202 ) ) REPRESENTATION_CONTEXT ( 'NONE', 'WORKASPACE' ) );
#153 = ORIENTED_EDGE ( 'NONE', *, *, #350, .F. ) ;
#154 = ORIENTED_EDGE ( 'NONE', *, *, #76, .T. ) ;
#155 = DIRECTION ( 'NONE',  ( -0.000000000000000000, -1.000000000000000000, -0.000000000000000000 ) ) ;
#156 = PRESENTATION_STYLE_ASSIGNMENT (( #304 ) ) ;
#157 = ORIENTED_EDGE ( 'NONE', *, *, #207, .T. ) ;
#158 = LINE ( 'NONE', #35, #52 ) ;
#159 = STYLED_ITEM ( 'NONE', ( #177 ), #210 ) ;
#160 = ADVANCED_FACE ( 'NONE', ( #220 ), #172, .T. ) ;
#161 = CYLINDRICAL_SURFACE ( 'NONE', #74, 0.1249999999999997641 ) ;
#162 = DIRECTION ( 'NONE',  ( -1.000000000000000000, 0.000000000000000000, 0.000000000000000000 ) ) ;
#163 = DIMENSIONAL_EXPONENTS ( 1.000000000000000000, 0.000000000000000000, 0.000000000000000000, 0.000000000000000000, 0.000000000000000000, 0.000000000000000000, 0.000000000000000000 ) ;
#164 = ORIENTED_EDGE ( 'NONE', *, *, #25, .F. ) ;
#165 = DIRECTION ( 'NONE',  ( 1.000000000000000000, 0.000000000000000000, 0.000000000000000000 ) ) ;
#166 = VERTEX_POINT ( 'NONE', #9 ) ;
#167 = DIRECTION ( 'NONE',  ( -1.000000000000000000, 0.000000000000000000, 0.000000000000000000 ) ) ;
#168 = SURFACE_SIDE_STYLE ('',( #229 ) ) ;
#169 = AXIS2_PLACEMENT_3D ( 'NONE', #278, #5, #16 ) ;
#170 = CIRCLE ( 'NONE', #190, 0.1249999999999998057 ) ;
#171 = ORIENTED_EDGE ( 'NONE', *, *, #14, .F. ) ;
#172 = SPHERICAL_SURFACE ( 'NONE', #44, 0.1250000000000000000 ) ;
#173 = COLOUR_RGB ( '',0.7921568627450980005, 0.8196078431372548767, 0.9333333333333333481 ) ;
#174 = CIRCLE ( 'NONE', #62, 0.1250000000000000000 ) ;
#175 = AXIS2_PLACEMENT_3D ( 'NONE', #100, #331, #282 ) ;
#176 = EDGE_CURVE ( 'NONE', #328, #120, #215, .T. ) ;
#177 = PRESENTATION_STYLE_ASSIGNMENT (( #317 ) ) ;
#178 = CARTESIAN_POINT ( 'NONE',  ( 0.000000000000000000, 0.000000000000000000, 0.000000000000000000 ) ) ;
#179 = UNCERTAINTY_MEASURE_WITH_UNIT (LENGTH_MEASURE( 1.000000000000000082E-05 ), #40, 'distance_accuracy_value', 'NONE');
#180 = SURFACE_STYLE_FILL_AREA ( #47 ) ;
#181 = UNCERTAINTY_MEASURE_WITH_UNIT (LENGTH_MEASURE( 1.000000000000000082E-05 ), #6, 'distance_accuracy_value', 'NONE');
#182 = DIMENSIONAL_EXPONENTS ( 1.000000000000000000, 0.000000000000000000, 0.000000000000000000, 0.000000000000000000, 0.000000000000000000, 0.000000000000000000, 0.000000000000000000 ) ;
#183 = VERTEX_POINT ( 'NONE', #372 ) ;
#184 = STYLED_ITEM ( 'NONE', ( #200 ), #242 ) ;
#185 = ORIENTED_EDGE ( 'NONE', *, *, #280, .T. ) ;
#186 = DIMENSIONAL_EXPONENTS ( 1.000000000000000000, 0.000000000000000000, 0.000000000000000000, 0.000000000000000000, 0.000000000000000000, 0.000000000000000000, 0.000000000000000000 ) ;
#187 = SURFACE_SIDE_STYLE ('',( #56 ) ) ;
#188 = CARTESIAN_POINT ( 'NONE',  ( 1.530808498934191509E-17, 0.1250000000000000000, 0.1250000000000000278 ) ) ;
#189 = CARTESIAN_POINT ( 'NONE',  ( 1.530808498934190276E-17, 0.000000000000000000, 0.1249999999999999029 ) ) ;
#190 = AXIS2_PLACEMENT_3D ( 'NONE', #279, #336, #7 ) ;
#191 = ORIENTED_EDGE ( 'NONE', *, *, #268, .F. ) ;
#192 = DIRECTION ( 'NONE',  ( 0.000000000000000000, 0.000000000000000000, -1.000000000000000000 ) ) ;
#193 = LENGTH_MEASURE_WITH_UNIT ( LENGTH_MEASURE( 0.02539999999999999897 ), #227 );
#194 =( LENGTH_UNIT ( ) NAMED_UNIT ( * ) SI_UNIT ( $, .METRE. ) );
#195 = CLOSED_SHELL ( 'NONE', ( #298, #371, #151, #244 ) ) ;
#196 = PRESENTATION_LAYER_ASSIGNMENT (  '', '', ( #49 ) ) ;
#197 = MANIFOLD_SOLID_BREP ( 'Revolve - Tool Body (Straight Shanked)', #195 ) ;
#198 = AXIS2_PLACEMENT_3D ( 'NONE', #122, #70, #264 ) ;
#199 =( NAMED_UNIT ( * ) PLANE_ANGLE_UNIT ( ) SI_UNIT ( $, .RADIAN. ) );
#200 = PRESENTATION_STYLE_ASSIGNMENT (( #366 ) ) ;
#201 = LENGTH_MEASURE_WITH_UNIT ( LENGTH_MEASURE( 0.02539999999999999897 ), #247 );
#202 =( NAMED_UNIT ( * ) SI_UNIT ( $, .STERADIAN. ) SOLID_ANGLE_UNIT ( ) );
#203 = AXIS2_PLACEMENT_3D ( 'NONE', #145, #115, #237 ) ;
#204 = STYLED_ITEM ( 'NONE', ( #339 ), #160 ) ;
#205 = DIRECTION ( 'NONE',  ( 0.000000000000000000, 0.000000000000000000, -1.000000000000000000 ) ) ;
#206 =( NAMED_UNIT ( * ) PLANE_ANGLE_UNIT ( ) SI_UNIT ( $, .RADIAN. ) );
#207 = EDGE_CURVE ( 'NONE', #86, #166, #299, .T. ) ;
#208 = VECTOR ( 'NONE', #355, 39.37007874015748143 ) ;
#209 =( GEOMETRIC_REPRESENTATION_CONTEXT ( 3 ) GLOBAL_UNCERTAINTY_ASSIGNED_CONTEXT ( ( #148 ) ) GLOBAL_UNIT_ASSIGNED_CONTEXT ( ( #224, #58, #332 ) ) REPRESENTATION_CONTEXT ( 'NONE', 'WORKASPACE' ) );
#210 = ADVANCED_FACE ( 'NONE', ( #137 ), #114, .T. ) ;
#211 = LENGTH_MEASURE_WITH_UNIT ( LENGTH_MEASURE( 0.02539999999999999897 ), #117 );
#212 = UNCERTAINTY_MEASURE_WITH_UNIT (LENGTH_MEASURE( 1.000000000000000082E-05 ), #232, 'distance_accuracy_value', 'NONE');
#213 = PRODUCT_RELATED_PRODUCT_CATEGORY ( 'part', '', ( #83 ) ) ;
#214 = ORIENTED_EDGE ( 'NONE', *, *, #25, .T. ) ;
#215 = CIRCLE ( 'NONE', #107, 0.1249999999999998057 ) ;
#216 = ORIENTED_EDGE ( 'NONE', *, *, #84, .T. ) ;
#217 = SURFACE_STYLE_USAGE ( .BOTH. , #269 ) ;
#218 = PRODUCT_CONTEXT ( 'NONE', #79, 'mechanical' ) ;
#219 = DIRECTION ( 'NONE',  ( -0.000000000000000000, -1.000000000000000000, -0.000000000000000000 ) ) ;
#220 = FACE_OUTER_BOUND ( 'NONE', #245, .T. ) ;
#221 = APPLICATION_PROTOCOL_DEFINITION ( 'draft international standard', 'automotive_design', 1998, #289 ) ;
#222 = CARTESIAN_POINT ( 'NONE',  ( 1.848728022327307430E-16, 1.500000000000000222, 0.000000000000000000 ) ) ;
#223 = DIRECTION ( 'NONE',  ( 0.000000000000000000, 0.000000000000000000, 1.000000000000000000 ) ) ;
#224 =( CONVERSION_BASED_UNIT ( 'INCH', #98 ) LENGTH_UNIT ( ) NAMED_UNIT ( #186 ) );
#225 = FACE_OUTER_BOUND ( 'NONE', #272, .T. ) ;
#226 = FACE_OUTER_BOUND ( 'NONE', #41, .T. ) ;
#227 =( LENGTH_UNIT ( ) NAMED_UNIT ( * ) SI_UNIT ( $, .METRE. ) );
#228 = DIRECTION ( 'NONE',  ( -2.048916547649774169E-16, 1.000000000000000000, -0.000000000000000000 ) ) ;
#229 = SURFACE_STYLE_FILL_AREA ( #251 ) ;
#230 = ADVANCED_BREP_SHAPE_REPRESENTATION ( '84758', ( #64, #197, #175 ), #108 ) ;
#231 = ORIENTED_EDGE ( 'NONE', *, *, #89, .F. ) ;
#232 =( CONVERSION_BASED_UNIT ( 'INCH', #201 ) LENGTH_UNIT ( ) NAMED_UNIT ( #182 ) );
#233 = DIRECTION ( 'NONE',  ( 0.000000000000000000, 1.000000000000000000, 0.000000000000000000 ) ) ;
#234 = CYLINDRICAL_SURFACE ( 'NONE', #203, 0.1249999999999999029 ) ;
#235 = ORIENTED_EDGE ( 'NONE', *, *, #176, .F. ) ;
#236 = SURFACE_STYLE_FILL_AREA ( #140 ) ;
#237 = DIRECTION ( 'NONE',  ( 0.000000000000000000, 0.000000000000000000, -1.000000000000000000 ) ) ;
#238 =( NAMED_UNIT ( * ) SI_UNIT ( $, .STERADIAN. ) SOLID_ANGLE_UNIT ( ) );
#239 = SURFACE_STYLE_USAGE ( .BOTH. , #110 ) ;
#240 = CARTESIAN_POINT ( 'NONE',  ( 0.000000000000000000, 1.500000000000000222, 0.000000000000000000 ) ) ;
#241 = MECHANICAL_DESIGN_GEOMETRIC_PRESENTATION_REPRESENTATION (  '', ( #297 ), #248 ) ;
#242 = ADVANCED_FACE ( 'NONE', ( #85 ), #65, .T. ) ;
#243 = VERTEX_POINT ( 'NONE', #342 ) ;
#244 = ADVANCED_FACE ( 'NONE', ( #67 ), #281, .F. ) ;
#245 = EDGE_LOOP ( 'NONE', ( #92, #216, #185, #91 ) ) ;
#246 = VECTOR ( 'NONE', #219, 39.37007874015748143 ) ;
#247 =( LENGTH_UNIT ( ) NAMED_UNIT ( * ) SI_UNIT ( $, .METRE. ) );
#248 =( GEOMETRIC_REPRESENTATION_CONTEXT ( 3 ) GLOBAL_UNCERTAINTY_ASSIGNED_CONTEXT ( ( #212 ) ) GLOBAL_UNIT_ASSIGNED_CONTEXT ( ( #232, #199, #238 ) ) REPRESENTATION_CONTEXT ( 'NONE', 'WORKASPACE' ) );
#249 = DIRECTION ( 'NONE',  ( -1.000000000000000000, 0.000000000000000000, 0.000000000000000000 ) ) ;
#250 =( NAMED_UNIT ( * ) SI_UNIT ( $, .STERADIAN. ) SOLID_ANGLE_UNIT ( ) );
#251 = FILL_AREA_STYLE ('',( #39 ) ) ;
#252 = CARTESIAN_POINT ( 'NONE',  ( -0.1250000000000000000, 0.1250000000000000000, 1.530808498934191201E-17 ) ) ;
#253 =( GEOMETRIC_REPRESENTATION_CONTEXT ( 3 ) GLOBAL_UNCERTAINTY_ASSIGNED_CONTEXT ( ( #179 ) ) GLOBAL_UNIT_ASSIGNED_CONTEXT ( ( #40, #206, #42 ) ) REPRESENTATION_CONTEXT ( 'NONE', 'WORKASPACE' ) );
#254 = CARTESIAN_POINT ( 'NONE',  ( -1.530808498934191509E-17, 0.1250000000000000000, 0.000000000000000000 ) ) ;
#255 = FACE_OUTER_BOUND ( 'NONE', #54, .T. ) ;
#256 = FILL_AREA_STYLE ('',( #134 ) ) ;
#257 = CYLINDRICAL_SURFACE ( 'NONE', #359, 0.1249999999999997641 ) ;
#258 = ORIENTED_EDGE ( 'NONE', *, *, #84, .F. ) ;
#259 = EDGE_CURVE ( 'NONE', #328, #273, #8, .T. ) ;
#260 = STYLED_ITEM ( 'NONE', ( #156 ), #30 ) ;
#261 = FILL_AREA_STYLE_COLOUR ( '', #322 ) ;
#262 = AXIS2_PLACEMENT_3D ( 'NONE', #61, #192, #103 ) ;
#263 = SURFACE_SIDE_STYLE ('',( #22 ) ) ;
#264 = DIRECTION ( 'NONE',  ( -1.000000000000000000, -2.048916547649774169E-16, 0.000000000000000000 ) ) ;
#265 = CIRCLE ( 'NONE', #373, 0.1249999999999996253 ) ;
#266 = MECHANICAL_DESIGN_GEOMETRIC_PRESENTATION_REPRESENTATION (  '', ( #49 ), #253 ) ;
#267 = LENGTH_MEASURE_WITH_UNIT ( LENGTH_MEASURE( 0.02539999999999999897 ), #51 );
#268 = EDGE_CURVE ( 'NONE', #166, #243, #308, .T. ) ;
#269 = SURFACE_SIDE_STYLE ('',( #147 ) ) ;
#270 = PRESENTATION_LAYER_ASSIGNMENT (  '', '', ( #43 ) ) ;
#271 = PRESENTATION_LAYER_ASSIGNMENT (  '', '', ( #159 ) ) ;
#272 = EDGE_LOOP ( 'NONE', ( #231, #105 ) ) ;
#273 = VERTEX_POINT ( 'NONE', #188 ) ;
#274 = SURFACE_SIDE_STYLE ('',( #71 ) ) ;
#275 = EDGE_CURVE ( 'NONE', #305, #273, #141, .T. ) ;
#276 = MECHANICAL_DESIGN_GEOMETRIC_PRESENTATION_REPRESENTATION (  '', ( #204 ), #209 ) ;
#277 = DIRECTION ( 'NONE',  ( 0.000000000000000000, 0.000000000000000000, -1.000000000000000000 ) ) ;
#278 = CARTESIAN_POINT ( 'NONE',  ( 0.000000000000000000, 0.1250000000000000000, 0.000000000000000000 ) ) ;
#279 = CARTESIAN_POINT ( 'NONE',  ( 0.000000000000000000, 1.500000000000000222, 0.000000000000000000 ) ) ;
#280 = EDGE_CURVE ( 'NONE', #311, #305, #351, .T. ) ;
#281 = PLANE ( 'NONE',  #93 ) ;
#282 = DIRECTION ( 'NONE',  ( 1.000000000000000000, 0.000000000000000000, 0.000000000000000000 ) ) ;
#283 = AXIS2_PLACEMENT_3D ( 'NONE', #45, #68, #162 ) ;
#284 = ORIENTED_EDGE ( 'NONE', *, *, #104, .F. ) ;
#285 = FACE_OUTER_BOUND ( 'NONE', #352, .T. ) ;
#286 = AXIS2_PLACEMENT_3D ( 'NONE', #335, #223, #165 ) ;
#287 = DIRECTION ( 'NONE',  ( 1.000000000000000000, 0.000000000000000000, 0.000000000000000000 ) ) ;
#288 = DIRECTION ( 'NONE',  ( -0.000000000000000000, -1.000000000000000000, -0.000000000000000000 ) ) ;
#289 = APPLICATION_CONTEXT ( 'automotive_design' ) ;
#290 = DIRECTION ( 'NONE',  ( -2.048916547649774169E-16, 1.000000000000000000, -0.000000000000000000 ) ) ;
#291 = ORIENTED_EDGE ( 'NONE', *, *, #280, .F. ) ;
#292 = PRESENTATION_STYLE_ASSIGNMENT (( #239 ) ) ;
#293 = UNCERTAINTY_MEASURE_WITH_UNIT (LENGTH_MEASURE( 1.000000000000000082E-05 ), #109, 'distance_accuracy_value', 'NONE');
#294 = FILL_AREA_STYLE ('',( #261 ) ) ;
#295 = SURFACE_SIDE_STYLE ('',( #180 ) ) ;
#296 = CIRCLE ( 'NONE', #283, 0.1249999999999999167 ) ;
#297 = STYLED_ITEM ( 'NONE', ( #4 ), #310 ) ;
#298 = ADVANCED_FACE ( 'NONE', ( #226 ), #161, .T. ) ;
#299 = CIRCLE ( 'NONE', #341, 0.1249999999999996253 ) ;
#300 = EDGE_LOOP ( 'NONE', ( #31, #154 ) ) ;
#301 =( NAMED_UNIT ( * ) PLANE_ANGLE_UNIT ( ) SI_UNIT ( $, .RADIAN. ) );
#302 = DIRECTION ( 'NONE',  ( -0.000000000000000000, -1.000000000000000000, -0.000000000000000000 ) ) ;
#303 = ORIENTED_EDGE ( 'NONE', *, *, #66, .F. ) ;
#304 = SURFACE_STYLE_USAGE ( .BOTH. , #187 ) ;
#305 = VERTEX_POINT ( 'NONE', #123 ) ;
#306 = CARTESIAN_POINT ( 'NONE',  ( 0.1249999999999997780, 3.000000000000000444, 1.530808498934189352E-17 ) ) ;
#307 = AXIS2_PLACEMENT_3D ( 'NONE', #312, #101, #277 ) ;
#308 = LINE ( 'NONE', #360, #112 ) ;
#309 = LENGTH_MEASURE_WITH_UNIT ( LENGTH_MEASURE( 0.02539999999999999897 ), #63 );
#310 = ADVANCED_FACE ( 'NONE', ( #285 ), #330, .T. ) ;
#311 = VERTEX_POINT ( 'NONE', #113 ) ;
#312 = CARTESIAN_POINT ( 'NONE',  ( 0.000000000000000000, 0.1250000000000000000, 0.000000000000000000 ) ) ;
#313 = CARTESIAN_POINT ( 'NONE',  ( 0.000000000000000000, 1.500000000000000222, -0.1249999999999998057 ) ) ;
#314 = EDGE_LOOP ( 'NONE', ( #303, #157, #315, #27 ) ) ;
#315 = ORIENTED_EDGE ( 'NONE', *, *, #268, .T. ) ;
#316 = FILL_AREA_STYLE_COLOUR ( '', #173 ) ;
#317 = SURFACE_STYLE_USAGE ( .BOTH. , #263 ) ;
#318 = COLOUR_RGB ( '',1.000000000000000000, 0.000000000000000000, 0.000000000000000000 ) ;
#319 = UNCERTAINTY_MEASURE_WITH_UNIT (LENGTH_MEASURE( 1.000000000000000082E-05 ), #325, 'distance_accuracy_value', 'NONE');
#320 = FILL_AREA_STYLE_COLOUR ( '', #348 ) ;
#321 = UNCERTAINTY_MEASURE_WITH_UNIT (LENGTH_MEASURE( 1.000000000000000082E-05 ), #23, 'distance_accuracy_value', 'NONE');
#322 = COLOUR_RGB ( '',1.000000000000000000, 0.000000000000000000, 0.000000000000000000 ) ;
#323 = AXIS2_PLACEMENT_3D ( 'NONE', #143, #129, #353 ) ;
#324 = EDGE_LOOP ( 'NONE', ( #284, #235 ) ) ;
#325 =( CONVERSION_BASED_UNIT ( 'INCH', #211 ) LENGTH_UNIT ( ) NAMED_UNIT ( #69 ) );
#326 = CIRCLE ( 'NONE', #169, 0.1250000000000000000 ) ;
#327 = AXIS2_PLACEMENT_3D ( 'NONE', #33, #155, #34 ) ;
#328 = VERTEX_POINT ( 'NONE', #344 ) ;
#329 = FILL_AREA_STYLE ('',( #94 ) ) ;
#330 = CYLINDRICAL_SURFACE ( 'NONE', #19, 0.1249999999999999029 ) ;
#331 = DIRECTION ( 'NONE',  ( 0.000000000000000000, 0.000000000000000000, 1.000000000000000000 ) ) ;
#332 =( NAMED_UNIT ( * ) SI_UNIT ( $, .STERADIAN. ) SOLID_ANGLE_UNIT ( ) );
#333 = CARTESIAN_POINT ( 'NONE',  ( -1.224646799147353700E-16, 3.000000000000000444, 0.000000000000000000 ) ) ;
#334 =( NAMED_UNIT ( * ) SI_UNIT ( $, .STERADIAN. ) SOLID_ANGLE_UNIT ( ) );
#335 = CARTESIAN_POINT ( 'NONE',  ( -1.530808498934191509E-17, 0.1250000000000000000, 0.000000000000000000 ) ) ;
#336 = DIRECTION ( 'NONE',  ( -0.000000000000000000, -1.000000000000000000, -0.000000000000000000 ) ) ;
#337 = CARTESIAN_POINT ( 'NONE',  ( 0.000000000000000000, 0.000000000000000000, -0.1249999999999999029 ) ) ;
#338 = DIRECTION ( 'NONE',  ( -2.048916547649773922E-16, 1.000000000000000000, -0.000000000000000000 ) ) ;
#339 = PRESENTATION_STYLE_ASSIGNMENT (( #96 ) ) ;
#340 = ORIENTED_EDGE ( 'NONE', *, *, #89, .T. ) ;
#341 = AXIS2_PLACEMENT_3D ( 'NONE', #78, #144, #21 ) ;
#342 = CARTESIAN_POINT ( 'NONE',  ( -0.1250000000000000278, 3.000000000000000444, 0.000000000000000000 ) ) ;
#343 = ORIENTED_EDGE ( 'NONE', *, *, #275, .F. ) ;
#344 = CARTESIAN_POINT ( 'NONE',  ( 1.530808498934189352E-17, 1.500000000000000222, 0.1249999999999998057 ) ) ;
#345 = FILL_AREA_STYLE_COLOUR ( '', #38 ) ;
#346 = CIRCLE ( 'NONE', #106, 0.1250000000000000000 ) ;
#347 =( LENGTH_UNIT ( ) NAMED_UNIT ( * ) SI_UNIT ( $, .METRE. ) );
#348 = COLOUR_RGB ( '',1.000000000000000000, 0.000000000000000000, 0.000000000000000000 ) ;
#349 = DIRECTION ( 'NONE',  ( 0.000000000000000000, -0.000000000000000000, 1.000000000000000000 ) ) ;
#350 = EDGE_CURVE ( 'NONE', #243, #121, #150, .T. ) ;
#351 = CIRCLE ( 'NONE', #327, 0.1250000000000000000 ) ;
#352 = EDGE_LOOP ( 'NONE', ( #17, #119, #214, #258, #171 ) ) ;
#353 = DIRECTION ( 'NONE',  ( -1.000000000000000000, 0.000000000000000000, 0.000000000000000000 ) ) ;
#354 = ORIENTED_EDGE ( 'NONE', *, *, #259, .T. ) ;
#355 = DIRECTION ( 'NONE',  ( -0.000000000000000000, -1.000000000000000000, -0.000000000000000000 ) ) ;
#356 = DIRECTION ( 'NONE',  ( 1.224646799147353207E-16, -0.000000000000000000, 1.000000000000000000 ) ) ;
#357 = CARTESIAN_POINT ( 'NONE',  ( -1.224646799147353700E-16, 3.000000000000000444, 0.000000000000000000 ) ) ;
#358 = DIMENSIONAL_EXPONENTS ( 1.000000000000000000, 0.000000000000000000, 0.000000000000000000, 0.000000000000000000, 0.000000000000000000, 0.000000000000000000, 0.000000000000000000 ) ;
#359 = AXIS2_PLACEMENT_3D ( 'NONE', #357, #36, #128 ) ;
#360 = CARTESIAN_POINT ( 'NONE',  ( -0.1249999999999998751, 3.000000000000000444, 0.000000000000000000 ) ) ;
#361 = DIRECTION ( 'NONE',  ( 0.000000000000000000, 0.000000000000000000, 1.000000000000000000 ) ) ;
#362 = PRODUCT_DEFINITION_SHAPE ( 'NONE', 'NONE',  #3 ) ;
#363 = CARTESIAN_POINT ( 'NONE',  ( 0.1249999999999998057, 1.500000000000000222, 1.530808498934189660E-17 ) ) ;
#364 = APPLICATION_PROTOCOL_DEFINITION ( 'draft international standard', 'automotive_design', 1998, #79 ) ;
#365 =( NAMED_UNIT ( * ) PLANE_ANGLE_UNIT ( ) SI_UNIT ( $, .RADIAN. ) );
#366 = SURFACE_STYLE_USAGE ( .BOTH. , #295 ) ;
#367 = VERTEX_POINT ( 'NONE', #252 ) ;
#368 = PRESENTATION_LAYER_ASSIGNMENT (  '', '', ( #260 ) ) ;
#369 = PRESENTATION_LAYER_ASSIGNMENT (  '', '', ( #184 ) ) ;
#370 = DIRECTION ( 'NONE',  ( 0.000000000000000000, 0.000000000000000000, -1.000000000000000000 ) ) ;
#371 = ADVANCED_FACE ( 'NONE', ( #225 ), #55, .F. ) ;
#372 = CARTESIAN_POINT ( 'NONE',  ( -7.654042494670957545E-18, 0.000000000000000000, 0.000000000000000000 ) ) ;
#373 = AXIS2_PLACEMENT_3D ( 'NONE', #222, #135, #249 ) ;
ENDSEC;
END-ISO-10303-21;
