ISO-10303-21;
HEADER;
FILE_DESCRIPTION (( 'STEP AP214' ),
    '1' );
FILE_NAME ('Micro_GEM-109-2X.STEP',
    '2021-09-01T19:25:11',
    ( '' ),
    ( '' ),
    'SwSTEP 2.0',
    'SolidWorks 2020',
    '' );
FILE_SCHEMA (( 'AUTOMOTIVE_DESIGN' ));
ENDSEC;

DATA;
#1 = ADVANCED_FACE ( 'NONE', ( #258 ), #77, .T. ) ;
#2 = CARTESIAN_POINT ( 'NONE',  ( 0.0000000000000000000, 0.0000000000000000000, 0.0000000000000000000 ) ) ;
#3 =( CONVERSION_BASED_UNIT ( 'INCH', #250 ) LENGTH_UNIT ( ) NAMED_UNIT ( #93 ) );
#4 = CARTESIAN_POINT ( 'NONE',  ( -0.05464529999999995225, 7.173080834007822861E-18, 0.3750000000000000555 ) ) ;
#5 = SURFACE_STYLE_FILL_AREA ( #99 ) ;
#6 = EDGE_LOOP ( 'NONE', ( #75, #234, #174, #150 ) ) ;
#7 = EDGE_CURVE ( 'NONE', #288, #28, #79, .T. ) ;
#8 = DIRECTION ( 'NONE',  ( 1.224646799147353700E-16, 0.0000000000000000000, 1.000000000000000000 ) ) ;
#9 = ORIENTED_EDGE ( 'NONE', *, *, #11, .F. ) ;
#10 = ORIENTED_EDGE ( 'NONE', *, *, #11, .T. ) ;
#11 = EDGE_CURVE ( 'NONE', #193, #149, #280, .T. ) ;
#12 =( CONVERSION_BASED_UNIT ( 'INCH', #127 ) LENGTH_UNIT ( ) NAMED_UNIT ( #298 ) );
#13 = VERTEX_POINT ( 'NONE', #137 ) ;
#14 = CARTESIAN_POINT ( 'NONE',  ( 4.592425496802576684E-17, 0.0000000000000000000, 0.3750000000000000555 ) ) ;
#15 = COLOUR_RGB ( '',0.7921568627450980005, 0.8196078431372548767, 0.9333333333333333481 ) ;
#16 = CARTESIAN_POINT ( 'NONE',  ( 0.0000000000000000000, 0.0000000000000000000, 1.485000000000000764 ) ) ;
#17 = CARTESIAN_POINT ( 'NONE',  ( 0.0000000000000000000, 0.0000000000000000000, 1.500000000000000222 ) ) ;
#18 = DIRECTION ( 'NONE',  ( 0.7071067811865462405, 8.659560562354916834E-17, -0.7071067811865486830 ) ) ;
#19 = CIRCLE ( 'NONE', #100, 0.05464529999999999388 ) ;
#20 = CARTESIAN_POINT ( 'NONE',  ( -0.05464529999999995225, 6.692119173344685866E-18, 0.3750000000000000555 ) ) ;
#21 = DIRECTION ( 'NONE',  ( -1.224646799147353700E-16, -0.0000000000000000000, -1.000000000000000000 ) ) ;
#22 = AXIS2_PLACEMENT_3D ( 'NONE', #14, #64, #160 ) ;
#23 = DIRECTION ( 'NONE',  ( 1.000000000000000000, 0.0000000000000000000, 0.0000000000000000000 ) ) ;
#24 = CYLINDRICAL_SURFACE ( 'NONE', #49, 0.06250000000000002776 ) ;
#25 = VECTOR ( 'NONE', #18, 39.37007874015748854 ) ;
#26 = AXIS2_PLACEMENT_3D ( 'NONE', #228, #21, #23 ) ;
#27 = DIRECTION ( 'NONE',  ( 0.0000000000000000000, 0.0000000000000000000, 1.000000000000000000 ) ) ;
#28 = VERTEX_POINT ( 'NONE', #159 ) ;
#29 = ORIENTED_EDGE ( 'NONE', *, *, #259, .F. ) ;
#30 = DIRECTION ( 'NONE',  ( 1.000000000000000000, 0.0000000000000000000, 0.0000000000000000000 ) ) ;
#31 = CIRCLE ( 'NONE', #201, 0.06250000000000002776 ) ;
#32 = VECTOR ( 'NONE', #143, 39.37007874015748143 ) ;
#33 =( NAMED_UNIT ( * ) PLANE_ANGLE_UNIT ( ) SI_UNIT ( $, .RADIAN. ) );
#34 = ORIENTED_EDGE ( 'NONE', *, *, #40, .T. ) ;
#35 = APPLICATION_PROTOCOL_DEFINITION ( 'draft international standard', 'automotive_design', 1998, #229 ) ;
#36 = EDGE_CURVE ( 'NONE', #13, #52, #116, .T. ) ;
#37 = ORIENTED_EDGE ( 'NONE', *, *, #290, .F. ) ;
#38 = CARTESIAN_POINT ( 'NONE',  ( 8.195482325149207809E-34, 0.0000000000000000000, 6.692119173344688177E-18 ) ) ;
#39 = DIRECTION ( 'NONE',  ( 1.000000000000000000, 0.0000000000000000000, -0.0000000000000000000 ) ) ;
#40 = EDGE_CURVE ( 'NONE', #288, #13, #31, .T. ) ;
#41 = DIRECTION ( 'NONE',  ( 0.0000000000000000000, 0.0000000000000000000, -1.000000000000000000 ) ) ;
#42 = DIRECTION ( 'NONE',  ( -1.000000000000000000, 0.0000000000000000000, 1.224646799147353700E-16 ) ) ;
#43 = CARTESIAN_POINT ( 'NONE',  ( -0.06250000000000002776, 0.0000000000000000000, 1.500000000000000222 ) ) ;
#44 = ADVANCED_FACE ( 'NONE', ( #272 ), #136, .T. ) ;
#45 = CIRCLE ( 'NONE', #283, 0.04750000000000064587 ) ;
#46 = DIRECTION ( 'NONE',  ( -1.000000000000000000, 0.0000000000000000000, 1.224646799147353700E-16 ) ) ;
#47 = FACE_OUTER_BOUND ( 'NONE', #102, .T. ) ;
#48 = CARTESIAN_POINT ( 'NONE',  ( 0.0000000000000000000, 0.0000000000000000000, 1.500000000000000222 ) ) ;
#49 = AXIS2_PLACEMENT_3D ( 'NONE', #48, #121, #249 ) ;
#50 = DIRECTION ( 'NONE',  ( -1.224646799147353700E-16, -0.0000000000000000000, -1.000000000000000000 ) ) ;
#51 = AXIS2_PLACEMENT_3D ( 'NONE', #225, #277, #204 ) ;
#52 = VERTEX_POINT ( 'NONE', #63 ) ;
#53 = ADVANCED_BREP_SHAPE_REPRESENTATION ( 'Micro_GEM-109-2X', ( #254, #72 ), #274 ) ;
#54 = PRESENTATION_STYLE_ASSIGNMENT (( #82 ) ) ;
#55 = ORIENTED_EDGE ( 'NONE', *, *, #165, .F. ) ;
#56 = ORIENTED_EDGE ( 'NONE', *, *, #241, .T. ) ;
#57 = VECTOR ( 'NONE', #199, 39.37007874015747433 ) ;
#58 = ORIENTED_EDGE ( 'NONE', *, *, #165, .T. ) ;
#59 = LINE ( 'NONE', #157, #25 ) ;
#60 = FACE_OUTER_BOUND ( 'NONE', #6, .T. ) ;
#61 = ADVANCED_FACE ( 'NONE', ( #60 ), #118, .T. ) ;
#62 = CIRCLE ( 'NONE', #264, 0.04750000000000064587 ) ;
#63 = CARTESIAN_POINT ( 'NONE',  ( -0.06249999999999997224, 0.0000000000000000000, 0.4195462173085511837 ) ) ;
#64 = DIRECTION ( 'NONE',  ( -1.224646799147353700E-16, -0.0000000000000000000, -1.000000000000000000 ) ) ;
#65 = DIRECTION ( 'NONE',  ( 1.000000000000000000, 0.0000000000000000000, 0.0000000000000000000 ) ) ;
#66 = CARTESIAN_POINT ( 'NONE',  ( 0.05464529999999999388, 6.692119173344685866E-18, -6.692119173344688177E-18 ) ) ;
#67 = CIRCLE ( 'NONE', #255, 0.06250000000000002776 ) ;
#68 = VECTOR ( 'NONE', #50, 39.37007874015748143 ) ;
#69 = SURFACE_SIDE_STYLE ('',( #5 ) ) ;
#70 = CARTESIAN_POINT ( 'NONE',  ( -0.05464529999999999388, 0.0000000000000000000, 6.692119173344688177E-18 ) ) ;
#71 = EDGE_CURVE ( 'NONE', #86, #81, #45, .T. ) ;
#72 = AXIS2_PLACEMENT_3D ( 'NONE', #80, #27, #123 ) ;
#73 = DIRECTION ( 'NONE',  ( -1.000000000000000000, 0.0000000000000000000, 1.224646799147353700E-16 ) ) ;
#74 =( NAMED_UNIT ( * ) PLANE_ANGLE_UNIT ( ) SI_UNIT ( $, .RADIAN. ) );
#75 = ORIENTED_EDGE ( 'NONE', *, *, #87, .F. ) ;
#76 = VECTOR ( 'NONE', #156, 39.37007874015748143 ) ;
#77 = CONICAL_SURFACE ( 'NONE', #296, 0.05464529999999999388, 0.1745329251994338637 ) ;
#78 = AXIS2_PLACEMENT_3D ( 'NONE', #2, #226, #46 ) ;
#79 = LINE ( 'NONE', #299, #243 ) ;
#80 = CARTESIAN_POINT ( 'NONE',  ( 0.0000000000000000000, 0.0000000000000000000, 0.0000000000000000000 ) ) ;
#81 = VERTEX_POINT ( 'NONE', #92 ) ;
#82 = SURFACE_STYLE_USAGE ( .BOTH. , #128 ) ;
#83 = ORIENTED_EDGE ( 'NONE', *, *, #126, .T. ) ;
#84 = EDGE_CURVE ( 'NONE', #235, #52, #90, .T. ) ;
#85 = AXIS2_PLACEMENT_3D ( 'NONE', #198, #88, #246 ) ;
#86 = VERTEX_POINT ( 'NONE', #221 ) ;
#87 = EDGE_CURVE ( 'NONE', #86, #288, #59, .T. ) ;
#88 = DIRECTION ( 'NONE',  ( 0.0000000000000000000, 0.0000000000000000000, -1.000000000000000000 ) ) ;
#89 = DIRECTION ( 'NONE',  ( 0.0000000000000000000, 0.0000000000000000000, -1.000000000000000000 ) ) ;
#90 = LINE ( 'NONE', #20, #57 ) ;
#91 = CARTESIAN_POINT ( 'NONE',  ( -0.04750000000000064587, 0.0000000000000000000, 1.500000000000000222 ) ) ;
#92 = CARTESIAN_POINT ( 'NONE',  ( -0.04750000000000064587, 0.0000000000000000000, 1.500000000000000222 ) ) ;
#93 = DIMENSIONAL_EXPONENTS ( 1.000000000000000000, 0.0000000000000000000, 0.0000000000000000000, 0.0000000000000000000, 0.0000000000000000000, 0.0000000000000000000, 0.0000000000000000000 ) ;
#94 = CYLINDRICAL_SURFACE ( 'NONE', #266, 0.05464529999999999388 ) ;
#95 = PRESENTATION_LAYER_ASSIGNMENT (  '', '', ( #209 ) ) ;
#96 = DIRECTION ( 'NONE',  ( -1.224646799147353700E-16, -0.0000000000000000000, -1.000000000000000000 ) ) ;
#97 = EDGE_CURVE ( 'NONE', #235, #108, #19, .T. ) ;
#98 = PRESENTATION_STYLE_ASSIGNMENT (( #119 ) ) ;
#99 = FILL_AREA_STYLE ('',( #142 ) ) ;
#100 = AXIS2_PLACEMENT_3D ( 'NONE', #181, #271, #240 ) ;
#101 = DIRECTION ( 'NONE',  ( 0.0000000000000000000, 0.0000000000000000000, 1.000000000000000000 ) ) ;
#102 = EDGE_LOOP ( 'NONE', ( #169, #56, #37, #217 ) ) ;
#103 = EDGE_LOOP ( 'NONE', ( #152, #83, #282, #9 ) ) ;
#104 = AXIS2_PLACEMENT_3D ( 'NONE', #114, #200, #223 ) ;
#105 = CLOSED_SHELL ( 'NONE', ( #261, #1, #168, #44, #184, #112, #61, #286, #278, #276 ) ) ;
#106 = AXIS2_PLACEMENT_3D ( 'NONE', #275, #96, #188 ) ;
#107 = SHAPE_DEFINITION_REPRESENTATION ( #236, #53 ) ;
#108 = VERTEX_POINT ( 'NONE', #139 ) ;
#109 = ORIENTED_EDGE ( 'NONE', *, *, #126, .F. ) ;
#110 = MECHANICAL_DESIGN_GEOMETRIC_PRESENTATION_REPRESENTATION (  '', ( #232 ), #196 ) ;
#111 = DIRECTION ( 'NONE',  ( -0.7071067811865462405, 0.0000000000000000000, -0.7071067811865486830 ) ) ;
#112 = ADVANCED_FACE ( 'NONE', ( #297 ), #115, .T. ) ;
#113 = CARTESIAN_POINT ( 'NONE',  ( -0.05464529999999999388, 0.0000000000000000000, 1.338423834668937635E-17 ) ) ;
#114 = CARTESIAN_POINT ( 'NONE',  ( 0.0000000000000000000, 0.0000000000000000000, 1.500000000000000222 ) ) ;
#115 = PLANE ( 'NONE',  #195 ) ;
#116 = LINE ( 'NONE', #43, #76 ) ;
#117 = CYLINDRICAL_SURFACE ( 'NONE', #78, 0.05464529999999999388 ) ;
#118 = CONICAL_SURFACE ( 'NONE', #104, 0.04750000000000064587, 0.7853981633974466137 ) ;
#119 = SURFACE_STYLE_USAGE ( .BOTH. , #69 ) ;
#120 = VECTOR ( 'NONE', #164, 39.37007874015748143 ) ;
#121 = DIRECTION ( 'NONE',  ( -0.0000000000000000000, -0.0000000000000000000, -1.000000000000000000 ) ) ;
#122 = LINE ( 'NONE', #66, #68 ) ;
#123 = DIRECTION ( 'NONE',  ( 1.000000000000000000, 0.0000000000000000000, 0.0000000000000000000 ) ) ;
#124 = ORIENTED_EDGE ( 'NONE', *, *, #252, .T. ) ;
#125 = CARTESIAN_POINT ( 'NONE',  ( 4.592425496802576684E-17, 0.0000000000000000000, 0.3750000000000000555 ) ) ;
#126 = EDGE_CURVE ( 'NONE', #108, #235, #158, .T. ) ;
#127 = LENGTH_MEASURE_WITH_UNIT ( LENGTH_MEASURE( 0.02539999999999999897 ), #154 );
#128 = SURFACE_SIDE_STYLE ('',( #263 ) ) ;
#129 = PRODUCT_RELATED_PRODUCT_CATEGORY ( 'part', '', ( #178 ) ) ;
#130 = EDGE_LOOP ( 'NONE', ( #131, #10 ) ) ;
#131 = ORIENTED_EDGE ( 'NONE', *, *, #290, .T. ) ;
#132 = PRODUCT_DEFINITION_CONTEXT ( 'detailed design', #229, 'design' ) ;
#133 = DIRECTION ( 'NONE',  ( -1.000000000000000000, 0.0000000000000000000, 0.0000000000000000000 ) ) ;
#134 = COLOUR_RGB ( '',0.7921568627450980005, 0.8196078431372548767, 0.9333333333333333481 ) ;
#135 = LINE ( 'NONE', #91, #189 ) ;
#136 = CYLINDRICAL_SURFACE ( 'NONE', #153, 0.06250000000000002776 ) ;
#137 = CARTESIAN_POINT ( 'NONE',  ( -0.06250000000000002776, 0.0000000000000000000, 1.485000000000000764 ) ) ;
#138 = CONICAL_SURFACE ( 'NONE', #85, 0.04750000000000064587, 0.7853981633974466137 ) ;
#139 = CARTESIAN_POINT ( 'NONE',  ( 0.05464530000000004245, 0.0000000000000000000, 0.3750000000000000555 ) ) ;
#140 = FACE_OUTER_BOUND ( 'NONE', #216, .T. ) ;
#141 = EDGE_CURVE ( 'NONE', #81, #13, #135, .T. ) ;
#142 = FILL_AREA_STYLE_COLOUR ( '', #134 ) ;
#143 = DIRECTION ( 'NONE',  ( -1.224646799147353700E-16, -0.0000000000000000000, -1.000000000000000000 ) ) ;
#144 = CARTESIAN_POINT ( 'NONE',  ( 0.05464530000000004245, 0.0000000000000000000, 0.3750000000000000555 ) ) ;
#145 =( LENGTH_UNIT ( ) NAMED_UNIT ( * ) SI_UNIT ( $, .METRE. ) );
#146 = EDGE_CURVE ( 'NONE', #81, #86, #62, .T. ) ;
#147 = ORIENTED_EDGE ( 'NONE', *, *, #97, .F. ) ;
#148 = FILL_AREA_STYLE ('',( #284 ) ) ;
#149 = VERTEX_POINT ( 'NONE', #113 ) ;
#150 = ORIENTED_EDGE ( 'NONE', *, *, #40, .F. ) ;
#151 = APPLICATION_PROTOCOL_DEFINITION ( 'draft international standard', 'automotive_design', 1998, #182 ) ;
#152 = ORIENTED_EDGE ( 'NONE', *, *, #241, .F. ) ;
#153 = AXIS2_PLACEMENT_3D ( 'NONE', #295, #293, #133 ) ;
#154 =( LENGTH_UNIT ( ) NAMED_UNIT ( * ) SI_UNIT ( $, .METRE. ) );
#155 = ORIENTED_EDGE ( 'NONE', *, *, #7, .F. ) ;
#156 = DIRECTION ( 'NONE',  ( -0.0000000000000000000, -0.0000000000000000000, -1.000000000000000000 ) ) ;
#157 = CARTESIAN_POINT ( 'NONE',  ( 0.04750000000000064587, 5.817072295950006528E-18, 1.500000000000000222 ) ) ;
#158 = CIRCLE ( 'NONE', #22, 0.05464529999999999388 ) ;
#159 = CARTESIAN_POINT ( 'NONE',  ( 0.06250000000000008327, 7.654042494670966789E-18, 0.4195462173085511837 ) ) ;
#160 = DIRECTION ( 'NONE',  ( -1.000000000000000000, 0.0000000000000000000, 0.0000000000000000000 ) ) ;
#161 = FACE_OUTER_BOUND ( 'NONE', #194, .T. ) ;
#162 = PRODUCT_DEFINITION_FORMATION_WITH_SPECIFIED_SOURCE ( 'ANY', '', #178, .NOT_KNOWN. ) ;
#163 = FACE_OUTER_BOUND ( 'NONE', #103, .T. ) ;
#164 = DIRECTION ( 'NONE',  ( 0.1736481776669313581, 0.0000000000000000000, 0.9848077530122077983 ) ) ;
#165 = EDGE_CURVE ( 'NONE', #13, #288, #227, .T. ) ;
#166 = FACE_OUTER_BOUND ( 'NONE', #130, .T. ) ;
#167 =( NAMED_UNIT ( * ) SI_UNIT ( $, .STERADIAN. ) SOLID_ANGLE_UNIT ( ) );
#168 = ADVANCED_FACE ( 'NONE', ( #161 ), #138, .T. ) ;
#169 = ORIENTED_EDGE ( 'NONE', *, *, #97, .T. ) ;
#170 = CIRCLE ( 'NONE', #26, 0.06250000000000002776 ) ;
#171 = ORIENTED_EDGE ( 'NONE', *, *, #84, .T. ) ;
#172 = EDGE_LOOP ( 'NONE', ( #233, #211 ) ) ;
#173 = LENGTH_MEASURE_WITH_UNIT ( LENGTH_MEASURE( 0.02539999999999999897 ), #257 );
#174 = ORIENTED_EDGE ( 'NONE', *, *, #141, .T. ) ;
#175 = AXIS2_PLACEMENT_3D ( 'NONE', #38, #218, #42 ) ;
#176 = ORIENTED_EDGE ( 'NONE', *, *, #141, .F. ) ;
#177 = CARTESIAN_POINT ( 'NONE',  ( 5.137959321212973182E-17, 0.0000000000000000000, 0.4195462173085511837 ) ) ;
#178 = PRODUCT ( 'Micro_GEM-109-2X', 'Micro_GEM-109-2X', '', ( #215 ) ) ;
#179 = DIRECTION ( 'NONE',  ( 1.000000000000000000, 0.0000000000000000000, 0.0000000000000000000 ) ) ;
#180 = EDGE_CURVE ( 'NONE', #52, #28, #67, .T. ) ;
#181 = CARTESIAN_POINT ( 'NONE',  ( 4.592425496802576684E-17, 0.0000000000000000000, 0.3750000000000000555 ) ) ;
#182 = APPLICATION_CONTEXT ( 'automotive_design' ) ;
#183 = DIRECTION ( 'NONE',  ( 0.0000000000000000000, 0.0000000000000000000, 1.000000000000000000 ) ) ;
#184 = ADVANCED_FACE ( 'NONE', ( #269 ), #24, .T. ) ;
#185 = DIRECTION ( 'NONE',  ( 0.0000000000000000000, 0.0000000000000000000, 1.000000000000000000 ) ) ;
#186 =( GEOMETRIC_REPRESENTATION_CONTEXT ( 3 ) GLOBAL_UNCERTAINTY_ASSIGNED_CONTEXT ( ( #239 ) ) GLOBAL_UNIT_ASSIGNED_CONTEXT ( ( #12, #74, #213 ) ) REPRESENTATION_CONTEXT ( 'NONE', 'WORKASPACE' ) );
#187 = CARTESIAN_POINT ( 'NONE',  ( 0.06250000000000002776, 7.654042494670959086E-18, 1.485000000000000764 ) ) ;
#188 = DIRECTION ( 'NONE',  ( -1.000000000000000000, 0.0000000000000000000, 1.224646799147353700E-16 ) ) ;
#189 = VECTOR ( 'NONE', #111, 39.37007874015748854 ) ;
#190 = ORIENTED_EDGE ( 'NONE', *, *, #259, .T. ) ;
#191 = EDGE_LOOP ( 'NONE', ( #58, #267, #287, #214 ) ) ;
#192 =( CONVERSION_BASED_UNIT ( 'INCH', #173 ) LENGTH_UNIT ( ) NAMED_UNIT ( #222 ) );
#193 = VERTEX_POINT ( 'NONE', #207 ) ;
#194 = EDGE_LOOP ( 'NONE', ( #289, #260, #55, #176 ) ) ;
#195 = AXIS2_PLACEMENT_3D ( 'NONE', #17, #203, #39 ) ;
#196 =( GEOMETRIC_REPRESENTATION_CONTEXT ( 3 ) GLOBAL_UNCERTAINTY_ASSIGNED_CONTEXT ( ( #197 ) ) GLOBAL_UNIT_ASSIGNED_CONTEXT ( ( #3, #231, #279 ) ) REPRESENTATION_CONTEXT ( 'NONE', 'WORKASPACE' ) );
#197 = UNCERTAINTY_MEASURE_WITH_UNIT (LENGTH_MEASURE( 1.000000000000000082E-05 ), #3, 'distance_accuracy_value', 'NONE');
#198 = CARTESIAN_POINT ( 'NONE',  ( 0.0000000000000000000, 0.0000000000000000000, 1.500000000000000222 ) ) ;
#199 = DIRECTION ( 'NONE',  ( -0.1736481776669311639, 2.126576849575783008E-17, 0.9848077530122080203 ) ) ;
#200 = DIRECTION ( 'NONE',  ( 0.0000000000000000000, 0.0000000000000000000, -1.000000000000000000 ) ) ;
#201 = AXIS2_PLACEMENT_3D ( 'NONE', #16, #41, #202 ) ;
#202 = DIRECTION ( 'NONE',  ( 1.000000000000000000, 0.0000000000000000000, 0.0000000000000000000 ) ) ;
#203 = DIRECTION ( 'NONE',  ( 0.0000000000000000000, 0.0000000000000000000, 1.000000000000000000 ) ) ;
#204 = DIRECTION ( 'NONE',  ( 1.000000000000000000, 0.0000000000000000000, 0.0000000000000000000 ) ) ;
#205 = CONICAL_SURFACE ( 'NONE', #51, 0.05464529999999999388, 0.1745329251994338637 ) ;
#206 = LINE ( 'NONE', #144, #120 ) ;
#207 = CARTESIAN_POINT ( 'NONE',  ( 0.05464529999999999388, 6.692119173344685866E-18, 0.0000000000000000000 ) ) ;
#208 = CARTESIAN_POINT ( 'NONE',  ( 0.0000000000000000000, 0.0000000000000000000, 0.0000000000000000000 ) ) ;
#209 = STYLED_ITEM ( 'NONE', ( #54 ), #53 ) ;
#210 = EDGE_CURVE ( 'NONE', #235, #149, #251, .T. ) ;
#211 = ORIENTED_EDGE ( 'NONE', *, *, #71, .T. ) ;
#212 = EDGE_LOOP ( 'NONE', ( #147, #171, #237, #29 ) ) ;
#213 =( NAMED_UNIT ( * ) SI_UNIT ( $, .STERADIAN. ) SOLID_ANGLE_UNIT ( ) );
#214 = ORIENTED_EDGE ( 'NONE', *, *, #36, .F. ) ;
#215 = PRODUCT_CONTEXT ( 'NONE', #182, 'mechanical' ) ;
#216 = EDGE_LOOP ( 'NONE', ( #256, #109, #190, #124 ) ) ;
#217 = ORIENTED_EDGE ( 'NONE', *, *, #210, .F. ) ;
#218 = DIRECTION ( 'NONE',  ( -1.224646799147353700E-16, -0.0000000000000000000, -1.000000000000000000 ) ) ;
#219 = DIRECTION ( 'NONE',  ( 1.000000000000000000, 0.0000000000000000000, 0.0000000000000000000 ) ) ;
#220 = CARTESIAN_POINT ( 'NONE',  ( 0.0000000000000000000, 0.0000000000000000000, 1.500000000000000222 ) ) ;
#221 = CARTESIAN_POINT ( 'NONE',  ( 0.04750000000000064587, 6.735557395310483192E-18, 1.500000000000000222 ) ) ;
#222 = DIMENSIONAL_EXPONENTS ( 1.000000000000000000, 0.0000000000000000000, 0.0000000000000000000, 0.0000000000000000000, 0.0000000000000000000, 0.0000000000000000000, 0.0000000000000000000 ) ;
#223 = DIRECTION ( 'NONE',  ( -1.000000000000000000, 0.0000000000000000000, 0.0000000000000000000 ) ) ;
#224 = PRODUCT_DEFINITION ( 'UNKNOWN', '', #162, #132 ) ;
#225 = CARTESIAN_POINT ( 'NONE',  ( 4.592425496802576684E-17, 0.0000000000000000000, 0.3750000000000000555 ) ) ;
#226 = DIRECTION ( 'NONE',  ( -1.224646799147353700E-16, -0.0000000000000000000, -1.000000000000000000 ) ) ;
#227 = CIRCLE ( 'NONE', #270, 0.06250000000000002776 ) ;
#228 = CARTESIAN_POINT ( 'NONE',  ( 5.137959321212973182E-17, 0.0000000000000000000, 0.4195462173085511837 ) ) ;
#229 = APPLICATION_CONTEXT ( 'automotive_design' ) ;
#230 = CARTESIAN_POINT ( 'NONE',  ( 0.0000000000000000000, 0.0000000000000000000, 0.0000000000000000000 ) ) ;
#231 =( NAMED_UNIT ( * ) PLANE_ANGLE_UNIT ( ) SI_UNIT ( $, .RADIAN. ) );
#232 = STYLED_ITEM ( 'NONE', ( #98 ), #254 ) ;
#233 = ORIENTED_EDGE ( 'NONE', *, *, #146, .T. ) ;
#234 = ORIENTED_EDGE ( 'NONE', *, *, #146, .F. ) ;
#235 = VERTEX_POINT ( 'NONE', #4 ) ;
#236 = PRODUCT_DEFINITION_SHAPE ( 'NONE', 'NONE',  #224 ) ;
#237 = ORIENTED_EDGE ( 'NONE', *, *, #180, .T. ) ;
#238 = ORIENTED_EDGE ( 'NONE', *, *, #36, .T. ) ;
#239 = UNCERTAINTY_MEASURE_WITH_UNIT (LENGTH_MEASURE( 1.000000000000000082E-05 ), #12, 'distance_accuracy_value', 'NONE');
#240 = DIRECTION ( 'NONE',  ( -1.000000000000000000, 0.0000000000000000000, 0.0000000000000000000 ) ) ;
#241 = EDGE_CURVE ( 'NONE', #108, #193, #122, .T. ) ;
#242 = DIRECTION ( 'NONE',  ( 1.000000000000000000, 0.0000000000000000000, 0.0000000000000000000 ) ) ;
#243 = VECTOR ( 'NONE', #247, 39.37007874015748143 ) ;
#244 = PRESENTATION_LAYER_ASSIGNMENT (  '', '', ( #232 ) ) ;
#245 = CARTESIAN_POINT ( 'NONE',  ( 0.0000000000000000000, 0.0000000000000000000, 1.500000000000000222 ) ) ;
#246 = DIRECTION ( 'NONE',  ( -1.000000000000000000, 0.0000000000000000000, 0.0000000000000000000 ) ) ;
#247 = DIRECTION ( 'NONE',  ( -0.0000000000000000000, -0.0000000000000000000, -1.000000000000000000 ) ) ;
#248 = CIRCLE ( 'NONE', #106, 0.05464529999999999388 ) ;
#249 = DIRECTION ( 'NONE',  ( -1.000000000000000000, 0.0000000000000000000, 0.0000000000000000000 ) ) ;
#250 = LENGTH_MEASURE_WITH_UNIT ( LENGTH_MEASURE( 0.02539999999999999897 ), #145 );
#251 = LINE ( 'NONE', #70, #32 ) ;
#252 = EDGE_CURVE ( 'NONE', #28, #52, #170, .T. ) ;
#253 = PLANE ( 'NONE',  #285 ) ;
#254 = MANIFOLD_SOLID_BREP ( 'Cut-Revolve1', #105 ) ;
#255 = AXIS2_PLACEMENT_3D ( 'NONE', #177, #268, #179 ) ;
#256 = ORIENTED_EDGE ( 'NONE', *, *, #84, .F. ) ;
#257 =( LENGTH_UNIT ( ) NAMED_UNIT ( * ) SI_UNIT ( $, .METRE. ) );
#258 = FACE_OUTER_BOUND ( 'NONE', #212, .T. ) ;
#259 = EDGE_CURVE ( 'NONE', #108, #28, #206, .T. ) ;
#260 = ORIENTED_EDGE ( 'NONE', *, *, #87, .T. ) ;
#261 = ADVANCED_FACE ( 'NONE', ( #47 ), #94, .T. ) ;
#262 = UNCERTAINTY_MEASURE_WITH_UNIT (LENGTH_MEASURE( 1.000000000000000082E-05 ), #192, 'distance_accuracy_value', 'NONE');
#263 = SURFACE_STYLE_FILL_AREA ( #148 ) ;
#264 = AXIS2_PLACEMENT_3D ( 'NONE', #245, #183, #219 ) ;
#265 = EDGE_LOOP ( 'NONE', ( #155, #34, #238, #291 ) ) ;
#266 = AXIS2_PLACEMENT_3D ( 'NONE', #230, #281, #73 ) ;
#267 = ORIENTED_EDGE ( 'NONE', *, *, #7, .T. ) ;
#268 = DIRECTION ( 'NONE',  ( -1.224646799147353700E-16, -0.0000000000000000000, -1.000000000000000000 ) ) ;
#269 = FACE_OUTER_BOUND ( 'NONE', #265, .T. ) ;
#270 = AXIS2_PLACEMENT_3D ( 'NONE', #294, #89, #65 ) ;
#271 = DIRECTION ( 'NONE',  ( -1.224646799147353700E-16, -0.0000000000000000000, -1.000000000000000000 ) ) ;
#272 = FACE_OUTER_BOUND ( 'NONE', #191, .T. ) ;
#273 = DIRECTION ( 'NONE',  ( 1.000000000000000000, 0.0000000000000000000, -0.0000000000000000000 ) ) ;
#274 =( GEOMETRIC_REPRESENTATION_CONTEXT ( 3 ) GLOBAL_UNCERTAINTY_ASSIGNED_CONTEXT ( ( #262 ) ) GLOBAL_UNIT_ASSIGNED_CONTEXT ( ( #192, #33, #167 ) ) REPRESENTATION_CONTEXT ( 'NONE', 'WORKASPACE' ) );
#275 = CARTESIAN_POINT ( 'NONE',  ( 8.195482325149207809E-34, 0.0000000000000000000, 6.692119173344688177E-18 ) ) ;
#276 = ADVANCED_FACE ( 'NONE', ( #166 ), #253, .F. ) ;
#277 = DIRECTION ( 'NONE',  ( 1.224646799147353700E-16, 0.0000000000000000000, 1.000000000000000000 ) ) ;
#278 = ADVANCED_FACE ( 'NONE', ( #163 ), #117, .T. ) ;
#279 =( NAMED_UNIT ( * ) SI_UNIT ( $, .STERADIAN. ) SOLID_ANGLE_UNIT ( ) );
#280 = CIRCLE ( 'NONE', #175, 0.05464529999999999388 ) ;
#281 = DIRECTION ( 'NONE',  ( -1.224646799147353700E-16, -0.0000000000000000000, -1.000000000000000000 ) ) ;
#282 = ORIENTED_EDGE ( 'NONE', *, *, #210, .T. ) ;
#283 = AXIS2_PLACEMENT_3D ( 'NONE', #220, #185, #242 ) ;
#284 = FILL_AREA_STYLE_COLOUR ( '', #15 ) ;
#285 = AXIS2_PLACEMENT_3D ( 'NONE', #208, #101, #273 ) ;
#286 = ADVANCED_FACE ( 'NONE', ( #140 ), #205, .T. ) ;
#287 = ORIENTED_EDGE ( 'NONE', *, *, #180, .F. ) ;
#288 = VERTEX_POINT ( 'NONE', #187 ) ;
#289 = ORIENTED_EDGE ( 'NONE', *, *, #71, .F. ) ;
#290 = EDGE_CURVE ( 'NONE', #149, #193, #248, .T. ) ;
#291 = ORIENTED_EDGE ( 'NONE', *, *, #252, .F. ) ;
#292 = MECHANICAL_DESIGN_GEOMETRIC_PRESENTATION_REPRESENTATION (  '', ( #209 ), #186 ) ;
#293 = DIRECTION ( 'NONE',  ( -0.0000000000000000000, -0.0000000000000000000, -1.000000000000000000 ) ) ;
#294 = CARTESIAN_POINT ( 'NONE',  ( 0.0000000000000000000, 0.0000000000000000000, 1.485000000000000764 ) ) ;
#295 = CARTESIAN_POINT ( 'NONE',  ( 0.0000000000000000000, 0.0000000000000000000, 1.500000000000000222 ) ) ;
#296 = AXIS2_PLACEMENT_3D ( 'NONE', #125, #8, #30 ) ;
#297 = FACE_OUTER_BOUND ( 'NONE', #172, .T. ) ;
#298 = DIMENSIONAL_EXPONENTS ( 1.000000000000000000, 0.0000000000000000000, 0.0000000000000000000, 0.0000000000000000000, 0.0000000000000000000, 0.0000000000000000000, 0.0000000000000000000 ) ;
#299 = CARTESIAN_POINT ( 'NONE',  ( 0.06250000000000002776, 7.654042494670959086E-18, 1.500000000000000222 ) ) ;
ENDSEC;
END-ISO-10303-21;
