ISO-10303-21;
HEADER;
FILE_DESCRIPTION (( 'STEP AP214' ),
    '1' );
FILE_NAME ('30347W.STEP',
    '2023-06-22T18:24:48',
    ( '' ),
    ( '' ),
    'SwSTEP 2.0',
    'SolidWorks 2023',
    '' );
FILE_SCHEMA (( 'AUTOMOTIVE_DESIGN' ));
ENDSEC;

DATA;
#1 = SURFACE_STYLE_FILL_AREA ( #173 ) ;
#2 = CIRCLE ( 'NONE', #219, 0.1875000000000001388 ) ;
#3 = CARTESIAN_POINT ( 'NONE',  ( 0.000000000000000000, 1.250000000000000000, 0.000000000000000000 ) ) ;
#4 = SURFACE_STYLE_USAGE ( .BOTH. , #95 ) ;
#5 = CARTESIAN_POINT ( 'NONE',  ( 0.1875000000000000278, 1.250000000000000000, 2.296212748401288650E-17 ) ) ;
#6 = DIMENSIONAL_EXPONENTS ( 1.000000000000000000, 0.000000000000000000, 0.000000000000000000, 0.000000000000000000, 0.000000000000000000, 0.000000000000000000, 0.000000000000000000 ) ;
#7 = CARTESIAN_POINT ( 'NONE',  ( 0.000000000000000000, 1.250000000000000000, 0.000000000000000000 ) ) ;
#8 = DIRECTION ( 'NONE',  ( -0.000000000000000000, -1.000000000000000000, -0.000000000000000000 ) ) ;
#9 = DIRECTION ( 'NONE',  ( -6.997981709413449187E-17, 1.000000000000000000, -0.000000000000000000 ) ) ;
#10 = UNCERTAINTY_MEASURE_WITH_UNIT (LENGTH_MEASURE( 1.000000000000000082E-05 ), #268, 'distance_accuracy_value', 'NONE');
#11 = LENGTH_MEASURE_WITH_UNIT ( LENGTH_MEASURE( 0.02539999999999999897 ), #225 );
#12 = STYLED_ITEM ( 'NONE', ( #54 ), #23 ) ;
#13 = CARTESIAN_POINT ( 'NONE',  ( -0.1875000000000002776, 3.000000000000000444, 0.000000000000000000 ) ) ;
#14 = VECTOR ( 'NONE', #232, 39.37007874015748143 ) ;
#15 = CARTESIAN_POINT ( 'NONE',  ( -1.224646799147353700E-16, 3.000000000000000444, 0.000000000000000000 ) ) ;
#16 = DIRECTION ( 'NONE',  ( -6.997981709413449187E-17, 1.000000000000000000, -0.000000000000000000 ) ) ;
#17 = FILL_AREA_STYLE ('',( #211 ) ) ;
#18 = CIRCLE ( 'NONE', #228, 0.1875000000000000278 ) ;
#19 = EDGE_CURVE ( 'NONE', #137, #138, #206, .T. ) ;
#20 =( GEOMETRIC_REPRESENTATION_CONTEXT ( 3 ) GLOBAL_UNCERTAINTY_ASSIGNED_CONTEXT ( ( #111 ) ) GLOBAL_UNIT_ASSIGNED_CONTEXT ( ( #157, #288, #53 ) ) REPRESENTATION_CONTEXT ( 'NONE', 'WORKASPACE' ) );
#21 = VECTOR ( 'NONE', #55, 39.37007874015748143 ) ;
#22 = VERTEX_POINT ( 'NONE', #5 ) ;
#23 = ADVANCED_FACE ( 'NONE', ( #68 ), #291, .T. ) ;
#24 =( LENGTH_UNIT ( ) NAMED_UNIT ( * ) SI_UNIT ( $, .METRE. ) );
#25 = EDGE_CURVE ( 'NONE', #138, #239, #171, .T. ) ;
#26 = FILL_AREA_STYLE_COLOUR ( '', #267 ) ;
#27 = DIRECTION ( 'NONE',  ( 0.000000000000000000, 0.000000000000000000, -1.000000000000000000 ) ) ;
#28 =( NAMED_UNIT ( * ) PLANE_ANGLE_UNIT ( ) SI_UNIT ( $, .RADIAN. ) );
#29 = PRESENTATION_STYLE_ASSIGNMENT (( #152 ) ) ;
#30 = STYLED_ITEM ( 'NONE', ( #256 ), #215 ) ;
#31 =( GEOMETRIC_REPRESENTATION_CONTEXT ( 3 ) GLOBAL_UNCERTAINTY_ASSIGNED_CONTEXT ( ( #76 ) ) GLOBAL_UNIT_ASSIGNED_CONTEXT ( ( #35, #263, #170 ) ) REPRESENTATION_CONTEXT ( 'NONE', 'WORKASPACE' ) );
#32 = DIRECTION ( 'NONE',  ( 0.000000000000000000, 0.000000000000000000, -1.000000000000000000 ) ) ;
#33 =( NAMED_UNIT ( * ) SI_UNIT ( $, .STERADIAN. ) SOLID_ANGLE_UNIT ( ) );
#34 =( NAMED_UNIT ( * ) PLANE_ANGLE_UNIT ( ) SI_UNIT ( $, .RADIAN. ) );
#35 =( CONVERSION_BASED_UNIT ( 'INCH', #274 ) LENGTH_UNIT ( ) NAMED_UNIT ( #273 ) );
#36 = CLOSED_SHELL ( 'NONE', ( #307, #240, #151, #153 ) ) ;
#37 = STYLED_ITEM ( 'NONE', ( #69 ), #99 ) ;
#38 = DIRECTION ( 'NONE',  ( -6.997981709413449187E-17, 1.000000000000000000, -0.000000000000000000 ) ) ;
#39 = FACE_OUTER_BOUND ( 'NONE', #309, .T. ) ;
#40 = ADVANCED_FACE ( 'NONE', ( #174 ), #265, .T. ) ;
#41 = ORIENTED_EDGE ( 'NONE', *, *, #190, .F. ) ;
#42 =( LENGTH_UNIT ( ) NAMED_UNIT ( * ) SI_UNIT ( $, .METRE. ) );
#43 = CARTESIAN_POINT ( 'NONE',  ( 0.000000000000000000, 0.000000000000000000, -0.1875000000000000278 ) ) ;
#44 = PRESENTATION_LAYER_ASSIGNMENT (  '', '', ( #238 ) ) ;
#45 = ORIENTED_EDGE ( 'NONE', *, *, #280, .T. ) ;
#46 = PRODUCT_CONTEXT ( 'NONE', #144, 'mechanical' ) ;
#47 = UNCERTAINTY_MEASURE_WITH_UNIT (LENGTH_MEASURE( 1.000000000000000082E-05 ), #80, 'distance_accuracy_value', 'NONE');
#48 = EDGE_CURVE ( 'NONE', #138, #137, #18, .T. ) ;
#49 = MECHANICAL_DESIGN_GEOMETRIC_PRESENTATION_REPRESENTATION (  '', ( #207 ), #243 ) ;
#50 = COLOUR_RGB ( '',1.000000000000000000, 0.000000000000000000, 0.000000000000000000 ) ;
#51 = EDGE_LOOP ( 'NONE', ( #131, #266, #41, #290 ) ) ;
#52 = ORIENTED_EDGE ( 'NONE', *, *, #113, .F. ) ;
#53 =( NAMED_UNIT ( * ) SI_UNIT ( $, .STERADIAN. ) SOLID_ANGLE_UNIT ( ) );
#54 = PRESENTATION_STYLE_ASSIGNMENT (( #264 ) ) ;
#55 = DIRECTION ( 'NONE',  ( -6.997981709413449187E-17, 1.000000000000000000, -0.000000000000000000 ) ) ;
#56 = AXIS2_PLACEMENT_3D ( 'NONE', #202, #146, #213 ) ;
#57 = SURFACE_SIDE_STYLE ('',( #253 ) ) ;
#58 = CARTESIAN_POINT ( 'NONE',  ( 2.296212748401287726E-17, 0.000000000000000000, 0.1875000000000000278 ) ) ;
#59 =( LENGTH_UNIT ( ) NAMED_UNIT ( * ) SI_UNIT ( $, .METRE. ) );
#60 = DIRECTION ( 'NONE',  ( -0.000000000000000000, -1.000000000000000000, -0.000000000000000000 ) ) ;
#61 = CARTESIAN_POINT ( 'NONE',  ( -0.1875000000000002220, 3.000000000000000444, 0.000000000000000000 ) ) ;
#62 = PRESENTATION_LAYER_ASSIGNMENT (  '', '', ( #207 ) ) ;
#63 = EDGE_CURVE ( 'NONE', #237, #168, #167, .T. ) ;
#64 = DIRECTION ( 'NONE',  ( 0.000000000000000000, -0.000000000000000000, 1.000000000000000000 ) ) ;
#65 = MECHANICAL_DESIGN_GEOMETRIC_PRESENTATION_REPRESENTATION (  '', ( #30 ), #31 ) ;
#66 = FILL_AREA_STYLE_COLOUR ( '', #139 ) ;
#67 = DIRECTION ( 'NONE',  ( -6.997981709413449187E-17, 1.000000000000000000, 0.000000000000000000 ) ) ;
#68 = FACE_OUTER_BOUND ( 'NONE', #98, .T. ) ;
#69 = PRESENTATION_STYLE_ASSIGNMENT (( #246 ) ) ;
#70 = DIRECTION ( 'NONE',  ( -0.000000000000000000, -1.000000000000000000, -0.000000000000000000 ) ) ;
#71 =( LENGTH_UNIT ( ) NAMED_UNIT ( * ) SI_UNIT ( $, .METRE. ) );
#72 =( GEOMETRIC_REPRESENTATION_CONTEXT ( 3 ) GLOBAL_UNCERTAINTY_ASSIGNED_CONTEXT ( ( #10 ) ) GLOBAL_UNIT_ASSIGNED_CONTEXT ( ( #268, #222, #296 ) ) REPRESENTATION_CONTEXT ( 'NONE', 'WORKASPACE' ) );
#73 = DIMENSIONAL_EXPONENTS ( 1.000000000000000000, 0.000000000000000000, 0.000000000000000000, 0.000000000000000000, 0.000000000000000000, 0.000000000000000000, 0.000000000000000000 ) ;
#74 = FILL_AREA_STYLE ('',( #208 ) ) ;
#75 = SURFACE_STYLE_USAGE ( .BOTH. , #83 ) ;
#76 = UNCERTAINTY_MEASURE_WITH_UNIT (LENGTH_MEASURE( 1.000000000000000082E-05 ), #35, 'distance_accuracy_value', 'NONE');
#77 =( CONVERSION_BASED_UNIT ( 'INCH', #122 ) LENGTH_UNIT ( ) NAMED_UNIT ( #203 ) );
#78 = MECHANICAL_DESIGN_GEOMETRIC_PRESENTATION_REPRESENTATION (  '', ( #37 ), #72 ) ;
#79 =( GEOMETRIC_REPRESENTATION_CONTEXT ( 3 ) GLOBAL_UNCERTAINTY_ASSIGNED_CONTEXT ( ( #47 ) ) GLOBAL_UNIT_ASSIGNED_CONTEXT ( ( #80, #158, #106 ) ) REPRESENTATION_CONTEXT ( 'NONE', 'WORKASPACE' ) );
#80 =( CONVERSION_BASED_UNIT ( 'INCH', #11 ) LENGTH_UNIT ( ) NAMED_UNIT ( #100 ) );
#81 = FILL_AREA_STYLE_COLOUR ( '', #50 ) ;
#82 = DIRECTION ( 'NONE',  ( -0.000000000000000000, -1.000000000000000000, -0.000000000000000000 ) ) ;
#83 = SURFACE_SIDE_STYLE ('',( #304 ) ) ;
#84 = CARTESIAN_POINT ( 'NONE',  ( 2.296212748401287726E-17, 1.250000000000000000, 0.1875000000000000278 ) ) ;
#85 = AXIS2_PLACEMENT_3D ( 'NONE', #303, #16, #209 ) ;
#86 = LINE ( 'NONE', #61, #197 ) ;
#87 = ORIENTED_EDGE ( 'NONE', *, *, #63, .F. ) ;
#88 = PLANE ( 'NONE',  #118 ) ;
#89 = VECTOR ( 'NONE', #94, 39.37007874015748143 ) ;
#90 = ADVANCED_FACE ( 'NONE', ( #183 ), #178, .T. ) ;
#91 = ORIENTED_EDGE ( 'NONE', *, *, #108, .F. ) ;
#92 = LENGTH_MEASURE_WITH_UNIT ( LENGTH_MEASURE( 0.02539999999999999897 ), #244 );
#93 = PRESENTATION_LAYER_ASSIGNMENT (  '', '', ( #37 ) ) ;
#94 = DIRECTION ( 'NONE',  ( -0.000000000000000000, -1.000000000000000000, -0.000000000000000000 ) ) ;
#95 = SURFACE_SIDE_STYLE ('',( #119 ) ) ;
#96 = EDGE_LOOP ( 'NONE', ( #162, #260 ) ) ;
#97 = CIRCLE ( 'NONE', #254, 0.1875000000000000278 ) ;
#98 = EDGE_LOOP ( 'NONE', ( #147, #150 ) ) ;
#99 = MANIFOLD_SOLID_BREP ( 'Revolve - Cutting Edge', #180 ) ;
#100 = DIMENSIONAL_EXPONENTS ( 1.000000000000000000, 0.000000000000000000, 0.000000000000000000, 0.000000000000000000, 0.000000000000000000, 0.000000000000000000, 0.000000000000000000 ) ;
#101 = DIRECTION ( 'NONE',  ( -1.000000000000000000, 0.000000000000000000, 0.000000000000000000 ) ) ;
#102 = FACE_OUTER_BOUND ( 'NONE', #269, .T. ) ;
#103 = DIRECTION ( 'NONE',  ( 0.000000000000000000, 0.000000000000000000, -1.000000000000000000 ) ) ;
#104 = AXIS2_PLACEMENT_3D ( 'NONE', #186, #60, #161 ) ;
#105 = DIRECTION ( 'NONE',  ( 1.000000000000000000, 6.997981709413449187E-17, 0.000000000000000000 ) ) ;
#106 =( NAMED_UNIT ( * ) SI_UNIT ( $, .STERADIAN. ) SOLID_ANGLE_UNIT ( ) );
#107 = CYLINDRICAL_SURFACE ( 'NONE', #181, 0.1875000000000000833 ) ;
#108 = EDGE_CURVE ( 'NONE', #149, #239, #97, .T. ) ;
#109 = DIRECTION ( 'NONE',  ( -6.997981709413449187E-17, 1.000000000000000000, -0.000000000000000000 ) ) ;
#110 = FACE_OUTER_BOUND ( 'NONE', #294, .T. ) ;
#111 = UNCERTAINTY_MEASURE_WITH_UNIT (LENGTH_MEASURE( 1.000000000000000082E-05 ), #157, 'distance_accuracy_value', 'NONE');
#112 = VERTEX_POINT ( 'NONE', #220 ) ;
#113 = EDGE_CURVE ( 'NONE', #168, #237, #2, .T. ) ;
#114 = ORIENTED_EDGE ( 'NONE', *, *, #194, .F. ) ;
#115 = ORIENTED_EDGE ( 'NONE', *, *, #135, .T. ) ;
#116 = CARTESIAN_POINT ( 'NONE',  ( 0.000000000000000000, 0.000000000000000000, 0.000000000000000000 ) ) ;
#117 =( GEOMETRIC_REPRESENTATION_CONTEXT ( 3 ) GLOBAL_UNCERTAINTY_ASSIGNED_CONTEXT ( ( #270 ) ) GLOBAL_UNIT_ASSIGNED_CONTEXT ( ( #200, #28, #145 ) ) REPRESENTATION_CONTEXT ( 'NONE', 'WORKASPACE' ) );
#118 = AXIS2_PLACEMENT_3D ( 'NONE', #245, #67, #188 ) ;
#119 = SURFACE_STYLE_FILL_AREA ( #221 ) ;
#120 = DIRECTION ( 'NONE',  ( 0.000000000000000000, 1.000000000000000000, 0.000000000000000000 ) ) ;
#121 = COLOUR_RGB ( '',0.7921568627450980005, 0.8196078431372548767, 0.9333333333333333481 ) ;
#122 = LENGTH_MEASURE_WITH_UNIT ( LENGTH_MEASURE( 0.02539999999999999897 ), #24 );
#123 = UNCERTAINTY_MEASURE_WITH_UNIT (LENGTH_MEASURE( 1.000000000000000082E-05 ), #77, 'distance_accuracy_value', 'NONE');
#124 = DIRECTION ( 'NONE',  ( 0.000000000000000000, 0.000000000000000000, -1.000000000000000000 ) ) ;
#125 = COLOUR_RGB ( '',1.000000000000000000, 0.000000000000000000, 0.000000000000000000 ) ;
#126 = CARTESIAN_POINT ( 'NONE',  ( 0.000000000000000000, 0.000000000000000000, 0.000000000000000000 ) ) ;
#127 = DIRECTION ( 'NONE',  ( -1.000000000000000000, 0.000000000000000000, 0.000000000000000000 ) ) ;
#128 = LINE ( 'NONE', #272, #21 ) ;
#129 = FACE_OUTER_BOUND ( 'NONE', #195, .T. ) ;
#130 = APPLICATION_CONTEXT ( 'automotive_design' ) ;
#131 = ORIENTED_EDGE ( 'NONE', *, *, #48, .T. ) ;
#132 = DIRECTION ( 'NONE',  ( -0.000000000000000000, -1.000000000000000000, -0.000000000000000000 ) ) ;
#133 =( LENGTH_UNIT ( ) NAMED_UNIT ( * ) SI_UNIT ( $, .METRE. ) );
#134 = PRESENTATION_LAYER_ASSIGNMENT (  '', '', ( #302 ) ) ;
#135 = EDGE_CURVE ( 'NONE', #112, #22, #277, .T. ) ;
#136 = CARTESIAN_POINT ( 'NONE',  ( 0.000000000000000000, 0.000000000000000000, 0.000000000000000000 ) ) ;
#137 = VERTEX_POINT ( 'NONE', #84 ) ;
#138 = VERTEX_POINT ( 'NONE', #191 ) ;
#139 = COLOUR_RGB ( '',1.000000000000000000, 0.000000000000000000, 0.000000000000000000 ) ;
#140 = AXIS2_PLACEMENT_3D ( 'NONE', #3, #120, #64 ) ;
#141 = ORIENTED_EDGE ( 'NONE', *, *, #280, .F. ) ;
#142 = DIRECTION ( 'NONE',  ( -6.997981709413449187E-17, 1.000000000000000000, -0.000000000000000000 ) ) ;
#143 = LENGTH_MEASURE_WITH_UNIT ( LENGTH_MEASURE( 0.02539999999999999897 ), #133 );
#144 = APPLICATION_CONTEXT ( 'automotive_design' ) ;
#145 =( NAMED_UNIT ( * ) SI_UNIT ( $, .STERADIAN. ) SOLID_ANGLE_UNIT ( ) );
#146 = DIRECTION ( 'NONE',  ( -6.997981709413449187E-17, 1.000000000000000000, -0.000000000000000000 ) ) ;
#147 = ORIENTED_EDGE ( 'NONE', *, *, #48, .F. ) ;
#148 = DIRECTION ( 'NONE',  ( 0.000000000000000000, -1.000000000000000000, -0.000000000000000000 ) ) ;
#149 = VERTEX_POINT ( 'NONE', #58 ) ;
#150 = ORIENTED_EDGE ( 'NONE', *, *, #19, .F. ) ;
#151 = ADVANCED_FACE ( 'NONE', ( #39 ), #107, .T. ) ;
#152 = SURFACE_STYLE_USAGE ( .BOTH. , #155 ) ;
#153 = ADVANCED_FACE ( 'NONE', ( #129 ), #159, .F. ) ;
#154 = AXIS2_PLACEMENT_3D ( 'NONE', #204, #82, #124 ) ;
#155 = SURFACE_SIDE_STYLE ('',( #298 ) ) ;
#156 = LINE ( 'NONE', #233, #14 ) ;
#157 =( CONVERSION_BASED_UNIT ( 'INCH', #143 ) LENGTH_UNIT ( ) NAMED_UNIT ( #6 ) );
#158 =( NAMED_UNIT ( * ) PLANE_ANGLE_UNIT ( ) SI_UNIT ( $, .RADIAN. ) );
#159 = PLANE ( 'NONE',  #189 ) ;
#160 = COLOUR_RGB ( '',0.7921568627450980005, 0.8196078431372548767, 0.9333333333333333481 ) ;
#161 = DIRECTION ( 'NONE',  ( 0.000000000000000000, 0.000000000000000000, -1.000000000000000000 ) ) ;
#162 = ORIENTED_EDGE ( 'NONE', *, *, #190, .T. ) ;
#163 = PRESENTATION_STYLE_ASSIGNMENT (( #184 ) ) ;
#164 = APPLICATION_PROTOCOL_DEFINITION ( 'draft international standard', 'automotive_design', 1998, #130 ) ;
#165 = DIRECTION ( 'NONE',  ( -1.000000000000000000, 0.000000000000000000, 0.000000000000000000 ) ) ;
#166 = SHAPE_DEFINITION_REPRESENTATION ( #279, #299 ) ;
#167 = CIRCLE ( 'NONE', #187, 0.1875000000000001388 ) ;
#168 = VERTEX_POINT ( 'NONE', #13 ) ;
#169 = ADVANCED_FACE ( 'NONE', ( #210 ), #251, .T. ) ;
#170 =( NAMED_UNIT ( * ) SI_UNIT ( $, .STERADIAN. ) SOLID_ANGLE_UNIT ( ) );
#171 = LINE ( 'NONE', #262, #89 ) ;
#172 = AXIS2_PLACEMENT_3D ( 'NONE', #136, #235, #308 ) ;
#173 = FILL_AREA_STYLE ('',( #66 ) ) ;
#174 = FACE_OUTER_BOUND ( 'NONE', #51, .T. ) ;
#175 = ORIENTED_EDGE ( 'NONE', *, *, #226, .F. ) ;
#176 = LENGTH_MEASURE_WITH_UNIT ( LENGTH_MEASURE( 0.02539999999999999897 ), #71 );
#177 = DIMENSIONAL_EXPONENTS ( 1.000000000000000000, 0.000000000000000000, 0.000000000000000000, 0.000000000000000000, 0.000000000000000000, 0.000000000000000000, 0.000000000000000000 ) ;
#178 = PLANE ( 'NONE',  #257 ) ;
#179 = DIRECTION ( 'NONE',  ( -1.000000000000000000, 0.000000000000000000, 0.000000000000000000 ) ) ;
#180 = CLOSED_SHELL ( 'NONE', ( #40, #23, #169, #90 ) ) ;
#181 = AXIS2_PLACEMENT_3D ( 'NONE', #281, #109, #179 ) ;
#182 = AXIS2_PLACEMENT_3D ( 'NONE', #230, #259, #165 ) ;
#183 = FACE_OUTER_BOUND ( 'NONE', #96, .T. ) ;
#184 = SURFACE_STYLE_USAGE ( .BOTH. , #57 ) ;
#185 = PRODUCT_RELATED_PRODUCT_CATEGORY ( 'part', '', ( #282 ) ) ;
#186 = CARTESIAN_POINT ( 'NONE',  ( 0.000000000000000000, 0.000000000000000000, 0.000000000000000000 ) ) ;
#187 = AXIS2_PLACEMENT_3D ( 'NONE', #15, #38, #127 ) ;
#188 = DIRECTION ( 'NONE',  ( -1.000000000000000000, -6.997981709413449187E-17, 0.000000000000000000 ) ) ;
#189 = AXIS2_PLACEMENT_3D ( 'NONE', #227, #205, #105 ) ;
#190 = EDGE_CURVE ( 'NONE', #239, #149, #261, .T. ) ;
#191 = CARTESIAN_POINT ( 'NONE',  ( 0.000000000000000000, 1.250000000000000000, -0.1875000000000000278 ) ) ;
#192 = ORIENTED_EDGE ( 'NONE', *, *, #231, .F. ) ;
#193 = PRODUCT_DEFINITION_CONTEXT ( 'detailed design', #130, 'design' ) ;
#194 = EDGE_CURVE ( 'NONE', #137, #149, #156, .T. ) ;
#195 = EDGE_LOOP ( 'NONE', ( #236, #198 ) ) ;
#196 = EDGE_LOOP ( 'NONE', ( #114, #258, #292, #91 ) ) ;
#197 = VECTOR ( 'NONE', #142, 39.37007874015748143 ) ;
#198 = ORIENTED_EDGE ( 'NONE', *, *, #63, .T. ) ;
#199 = PRESENTATION_STYLE_ASSIGNMENT (( #4 ) ) ;
#200 =( CONVERSION_BASED_UNIT ( 'INCH', #92 ) LENGTH_UNIT ( ) NAMED_UNIT ( #177 ) );
#201 = FILL_AREA_STYLE ('',( #271 ) ) ;
#202 = CARTESIAN_POINT ( 'NONE',  ( 0.000000000000000000, 1.250000000000000000, 0.000000000000000000 ) ) ;
#203 = DIMENSIONAL_EXPONENTS ( 1.000000000000000000, 0.000000000000000000, 0.000000000000000000, 0.000000000000000000, 0.000000000000000000, 0.000000000000000000, 0.000000000000000000 ) ;
#204 = CARTESIAN_POINT ( 'NONE',  ( 0.000000000000000000, 0.000000000000000000, 0.000000000000000000 ) ) ;
#205 = DIRECTION ( 'NONE',  ( 6.997981709413449187E-17, -1.000000000000000000, 0.000000000000000000 ) ) ;
#206 = CIRCLE ( 'NONE', #242, 0.1875000000000000278 ) ;
#207 = STYLED_ITEM ( 'NONE', ( #163 ), #169 ) ;
#208 = FILL_AREA_STYLE_COLOUR ( '', #125 ) ;
#209 = DIRECTION ( 'NONE',  ( -1.000000000000000000, 0.000000000000000000, 0.000000000000000000 ) ) ;
#210 = FACE_OUTER_BOUND ( 'NONE', #196, .T. ) ;
#211 = FILL_AREA_STYLE_COLOUR ( '', #121 ) ;
#212 = PRESENTATION_LAYER_ASSIGNMENT (  '', '', ( #30 ) ) ;
#213 = DIRECTION ( 'NONE',  ( -1.000000000000000000, 0.000000000000000000, 0.000000000000000000 ) ) ;
#214 = ORIENTED_EDGE ( 'NONE', *, *, #226, .T. ) ;
#215 = MANIFOLD_SOLID_BREP ( 'Revolve - Tool Body (Straight Shanked)', #36 ) ;
#216 = CARTESIAN_POINT ( 'NONE',  ( 0.1875000000000000278, 3.000000000000000444, 2.296212748401288650E-17 ) ) ;
#217 = PRESENTATION_LAYER_ASSIGNMENT (  '', '', ( #12 ) ) ;
#218 = DIRECTION ( 'NONE',  ( 0.000000000000000000, 0.000000000000000000, -1.000000000000000000 ) ) ;
#219 = AXIS2_PLACEMENT_3D ( 'NONE', #224, #9, #101 ) ;
#220 = CARTESIAN_POINT ( 'NONE',  ( -0.1875000000000000278, 1.250000000000000000, 0.000000000000000000 ) ) ;
#221 = FILL_AREA_STYLE ('',( #26 ) ) ;
#222 =( NAMED_UNIT ( * ) PLANE_ANGLE_UNIT ( ) SI_UNIT ( $, .RADIAN. ) );
#223 = SURFACE_SIDE_STYLE ('',( #293 ) ) ;
#224 = CARTESIAN_POINT ( 'NONE',  ( -1.224646799147353700E-16, 3.000000000000000444, 0.000000000000000000 ) ) ;
#225 =( LENGTH_UNIT ( ) NAMED_UNIT ( * ) SI_UNIT ( $, .METRE. ) );
#226 = EDGE_CURVE ( 'NONE', #112, #168, #86, .T. ) ;
#227 = CARTESIAN_POINT ( 'NONE',  ( 0.1875000000000000278, 3.000000000000000444, 0.000000000000000000 ) ) ;
#228 = AXIS2_PLACEMENT_3D ( 'NONE', #300, #255, #229 ) ;
#229 = DIRECTION ( 'NONE',  ( 0.000000000000000000, 0.000000000000000000, -1.000000000000000000 ) ) ;
#230 = CARTESIAN_POINT ( 'NONE',  ( 0.000000000000000000, 1.250000000000000000, 0.000000000000000000 ) ) ;
#231 = EDGE_CURVE ( 'NONE', #22, #112, #278, .T. ) ;
#232 = DIRECTION ( 'NONE',  ( -0.000000000000000000, -1.000000000000000000, -0.000000000000000000 ) ) ;
#233 = CARTESIAN_POINT ( 'NONE',  ( 2.296212748401287726E-17, 0.000000000000000000, 0.1875000000000000278 ) ) ;
#234 = UNCERTAINTY_MEASURE_WITH_UNIT (LENGTH_MEASURE( 1.000000000000000082E-05 ), #305, 'distance_accuracy_value', 'NONE');
#235 = DIRECTION ( 'NONE',  ( 0.000000000000000000, 0.000000000000000000, 1.000000000000000000 ) ) ;
#236 = ORIENTED_EDGE ( 'NONE', *, *, #113, .T. ) ;
#237 = VERTEX_POINT ( 'NONE', #216 ) ;
#238 = STYLED_ITEM ( 'NONE', ( #199 ), #40 ) ;
#239 = VERTEX_POINT ( 'NONE', #43 ) ;
#240 = ADVANCED_FACE ( 'NONE', ( #110 ), #88, .F. ) ;
#241 = SURFACE_SIDE_STYLE ('',( #1 ) ) ;
#242 = AXIS2_PLACEMENT_3D ( 'NONE', #7, #70, #218 ) ;
#243 =( GEOMETRIC_REPRESENTATION_CONTEXT ( 3 ) GLOBAL_UNCERTAINTY_ASSIGNED_CONTEXT ( ( #234 ) ) GLOBAL_UNIT_ASSIGNED_CONTEXT ( ( #305, #34, #275 ) ) REPRESENTATION_CONTEXT ( 'NONE', 'WORKASPACE' ) );
#244 =( LENGTH_UNIT ( ) NAMED_UNIT ( * ) SI_UNIT ( $, .METRE. ) );
#245 = CARTESIAN_POINT ( 'NONE',  ( 4.591101375495486296E-34, 1.250000000000000000, 0.000000000000000000 ) ) ;
#246 = SURFACE_STYLE_USAGE ( .BOTH. , #223 ) ;
#247 = CARTESIAN_POINT ( 'NONE',  ( 0.000000000000000000, 0.000000000000000000, 0.000000000000000000 ) ) ;
#248 = MECHANICAL_DESIGN_GEOMETRIC_PRESENTATION_REPRESENTATION (  '', ( #12 ), #117 ) ;
#249 = CYLINDRICAL_SURFACE ( 'NONE', #85, 0.1875000000000000833 ) ;
#250 = FILL_AREA_STYLE ('',( #81 ) ) ;
#251 = CYLINDRICAL_SURFACE ( 'NONE', #104, 0.1875000000000000278 ) ;
#252 = DIMENSIONAL_EXPONENTS ( 1.000000000000000000, 0.000000000000000000, 0.000000000000000000, 0.000000000000000000, 0.000000000000000000, 0.000000000000000000, 0.000000000000000000 ) ;
#253 = SURFACE_STYLE_FILL_AREA ( #250 ) ;
#254 = AXIS2_PLACEMENT_3D ( 'NONE', #247, #8, #32 ) ;
#255 = DIRECTION ( 'NONE',  ( -0.000000000000000000, -1.000000000000000000, -0.000000000000000000 ) ) ;
#256 = PRESENTATION_STYLE_ASSIGNMENT (( #75 ) ) ;
#257 = AXIS2_PLACEMENT_3D ( 'NONE', #116, #148, #27 ) ;
#258 = ORIENTED_EDGE ( 'NONE', *, *, #19, .T. ) ;
#259 = DIRECTION ( 'NONE',  ( -6.997981709413449187E-17, 1.000000000000000000, -0.000000000000000000 ) ) ;
#260 = ORIENTED_EDGE ( 'NONE', *, *, #108, .T. ) ;
#261 = CIRCLE ( 'NONE', #285, 0.1875000000000000278 ) ;
#262 = CARTESIAN_POINT ( 'NONE',  ( 0.000000000000000000, 0.000000000000000000, -0.1875000000000000278 ) ) ;
#263 =( NAMED_UNIT ( * ) PLANE_ANGLE_UNIT ( ) SI_UNIT ( $, .RADIAN. ) );
#264 = SURFACE_STYLE_USAGE ( .BOTH. , #241 ) ;
#265 = CYLINDRICAL_SURFACE ( 'NONE', #154, 0.1875000000000000278 ) ;
#266 = ORIENTED_EDGE ( 'NONE', *, *, #194, .T. ) ;
#267 = COLOUR_RGB ( '',1.000000000000000000, 0.000000000000000000, 0.000000000000000000 ) ;
#268 =( CONVERSION_BASED_UNIT ( 'INCH', #176 ) LENGTH_UNIT ( ) NAMED_UNIT ( #252 ) );
#269 = EDGE_LOOP ( 'NONE', ( #115, #45, #52, #175 ) ) ;
#270 = UNCERTAINTY_MEASURE_WITH_UNIT (LENGTH_MEASURE( 1.000000000000000082E-05 ), #200, 'distance_accuracy_value', 'NONE');
#271 = FILL_AREA_STYLE_COLOUR ( '', #160 ) ;
#272 = CARTESIAN_POINT ( 'NONE',  ( 0.1874999999999999445, 3.000000000000000444, 2.296212748401288342E-17 ) ) ;
#273 = DIMENSIONAL_EXPONENTS ( 1.000000000000000000, 0.000000000000000000, 0.000000000000000000, 0.000000000000000000, 0.000000000000000000, 0.000000000000000000, 0.000000000000000000 ) ;
#274 = LENGTH_MEASURE_WITH_UNIT ( LENGTH_MEASURE( 0.02539999999999999897 ), #59 );
#275 =( NAMED_UNIT ( * ) SI_UNIT ( $, .STERADIAN. ) SOLID_ANGLE_UNIT ( ) );
#276 =( NAMED_UNIT ( * ) PLANE_ANGLE_UNIT ( ) SI_UNIT ( $, .RADIAN. ) );
#277 = CIRCLE ( 'NONE', #56, 0.1875000000000000278 ) ;
#278 = CIRCLE ( 'NONE', #182, 0.1875000000000000278 ) ;
#279 = PRODUCT_DEFINITION_SHAPE ( 'NONE', 'NONE',  #284 ) ;
#280 = EDGE_CURVE ( 'NONE', #22, #237, #128, .T. ) ;
#281 = CARTESIAN_POINT ( 'NONE',  ( -1.224646799147353700E-16, 3.000000000000000444, 0.000000000000000000 ) ) ;
#282 = PRODUCT ( '30347W', '30347W', '', ( #46 ) ) ;
#283 = ORIENTED_EDGE ( 'NONE', *, *, #231, .T. ) ;
#284 = PRODUCT_DEFINITION ( 'UNKNOWN', '', #297, #193 ) ;
#285 = AXIS2_PLACEMENT_3D ( 'NONE', #126, #132, #103 ) ;
#286 = ORIENTED_EDGE ( 'NONE', *, *, #135, .F. ) ;
#287 = APPLICATION_PROTOCOL_DEFINITION ( 'draft international standard', 'automotive_design', 1998, #144 ) ;
#288 =( NAMED_UNIT ( * ) PLANE_ANGLE_UNIT ( ) SI_UNIT ( $, .RADIAN. ) );
#289 = MECHANICAL_DESIGN_GEOMETRIC_PRESENTATION_REPRESENTATION (  '', ( #238 ), #306 ) ;
#290 = ORIENTED_EDGE ( 'NONE', *, *, #25, .F. ) ;
#291 = PLANE ( 'NONE',  #140 ) ;
#292 = ORIENTED_EDGE ( 'NONE', *, *, #25, .T. ) ;
#293 = SURFACE_STYLE_FILL_AREA ( #201 ) ;
#294 = EDGE_LOOP ( 'NONE', ( #286, #192 ) ) ;
#295 = MECHANICAL_DESIGN_GEOMETRIC_PRESENTATION_REPRESENTATION (  '', ( #302 ), #20 ) ;
#296 =( NAMED_UNIT ( * ) SI_UNIT ( $, .STERADIAN. ) SOLID_ANGLE_UNIT ( ) );
#297 = PRODUCT_DEFINITION_FORMATION_WITH_SPECIFIED_SOURCE ( 'ANY', '', #282, .NOT_KNOWN. ) ;
#298 = SURFACE_STYLE_FILL_AREA ( #74 ) ;
#299 = ADVANCED_BREP_SHAPE_REPRESENTATION ( '30347W', ( #99, #215, #172 ), #79 ) ;
#300 = CARTESIAN_POINT ( 'NONE',  ( 0.000000000000000000, 1.250000000000000000, 0.000000000000000000 ) ) ;
#301 = LENGTH_MEASURE_WITH_UNIT ( LENGTH_MEASURE( 0.02539999999999999897 ), #42 );
#302 = STYLED_ITEM ( 'NONE', ( #29 ), #90 ) ;
#303 = CARTESIAN_POINT ( 'NONE',  ( -1.224646799147353700E-16, 3.000000000000000444, 0.000000000000000000 ) ) ;
#304 = SURFACE_STYLE_FILL_AREA ( #17 ) ;
#305 =( CONVERSION_BASED_UNIT ( 'INCH', #301 ) LENGTH_UNIT ( ) NAMED_UNIT ( #73 ) );
#306 =( GEOMETRIC_REPRESENTATION_CONTEXT ( 3 ) GLOBAL_UNCERTAINTY_ASSIGNED_CONTEXT ( ( #123 ) ) GLOBAL_UNIT_ASSIGNED_CONTEXT ( ( #77, #276, #33 ) ) REPRESENTATION_CONTEXT ( 'NONE', 'WORKASPACE' ) );
#307 = ADVANCED_FACE ( 'NONE', ( #102 ), #249, .T. ) ;
#308 = DIRECTION ( 'NONE',  ( 1.000000000000000000, 0.000000000000000000, 0.000000000000000000 ) ) ;
#309 = EDGE_LOOP ( 'NONE', ( #141, #283, #214, #87 ) ) ;
ENDSEC;
END-ISO-10303-21;
