ISO-10303-21;
HEADER;
FILE_DESCRIPTION (( 'STEP AP214' ),
    '1' );
FILE_NAME ('Micro_RME-021-2X.STEP',
    '2021-09-01T22:49:09',
    ( '' ),
    ( '' ),
    'SwSTEP 2.0',
    'SolidWorks 2020',
    '' );
FILE_SCHEMA (( 'AUTOMOTIVE_DESIGN' ));
ENDSEC;

DATA;
#1 = AXIS2_PLACEMENT_3D ( 'NONE', #133, #225, #199 ) ;
#2 = PLANE ( 'NONE',  #69 ) ;
#3 = CIRCLE ( 'NONE', #23, 0.04750000000000064587 ) ;
#4 =( NAMED_UNIT ( * ) PLANE_ANGLE_UNIT ( ) SI_UNIT ( $, .RADIAN. ) );
#5 = DIMENSIONAL_EXPONENTS ( 1.000000000000000000, 0.0000000000000000000, 0.0000000000000000000, 0.0000000000000000000, 0.0000000000000000000, 0.0000000000000000000, 0.0000000000000000000 ) ;
#6 = ORIENTED_EDGE ( 'NONE', *, *, #224, .F. ) ;
#7 = UNCERTAINTY_MEASURE_WITH_UNIT (LENGTH_MEASURE( 1.000000000000000082E-05 ), #297, 'distance_accuracy_value', 'NONE');
#8 = DIRECTION ( 'NONE',  ( 1.000000000000000000, 0.0000000000000000000, 0.0000000000000000000 ) ) ;
#9 = EDGE_CURVE ( 'NONE', #33, #49, #130, .T. ) ;
#10 = DIRECTION ( 'NONE',  ( -1.000000000000000000, 0.0000000000000000000, 1.224646799147353454E-16 ) ) ;
#11 = AXIS2_PLACEMENT_3D ( 'NONE', #104, #216, #103 ) ;
#12 = CARTESIAN_POINT ( 'NONE',  ( 0.0000000000000000000, 0.0000000000000000000, 1.485000000000000764 ) ) ;
#13 = DIRECTION ( 'NONE',  ( 0.0000000000000000000, 0.0000000000000000000, -1.000000000000000000 ) ) ;
#14 = DIRECTION ( 'NONE',  ( -1.224646799147353454E-16, -0.0000000000000000000, -1.000000000000000000 ) ) ;
#15 = CARTESIAN_POINT ( 'NONE',  ( 0.06250000000000002776, 7.654042494670959086E-18, 1.500000000000000222 ) ) ;
#16 = EDGE_CURVE ( 'NONE', #118, #270, #217, .T. ) ;
#17 = PRESENTATION_STYLE_ASSIGNMENT (( #221 ) ) ;
#18 = ORIENTED_EDGE ( 'NONE', *, *, #9, .F. ) ;
#19 = SHAPE_DEFINITION_REPRESENTATION ( #20, #52 ) ;
#20 = PRODUCT_DEFINITION_SHAPE ( 'NONE', 'NONE',  #235 ) ;
#21 = DIRECTION ( 'NONE',  ( 0.0000000000000000000, 0.0000000000000000000, 1.000000000000000000 ) ) ;
#22 = FACE_OUTER_BOUND ( 'NONE', #141, .T. ) ;
#23 = AXIS2_PLACEMENT_3D ( 'NONE', #172, #21, #44 ) ;
#24 = CARTESIAN_POINT ( 'NONE',  ( 1.573173024023156606E-34, 0.0000000000000000000, 1.284593259965616749E-18 ) ) ;
#25 = FACE_OUTER_BOUND ( 'NONE', #77, .T. ) ;
#26 = DIRECTION ( 'NONE',  ( 0.0000000000000000000, 0.0000000000000000000, 1.000000000000000000 ) ) ;
#27 = ORIENTED_EDGE ( 'NONE', *, *, #40, .T. ) ;
#28 = VECTOR ( 'NONE', #230, 39.37007874015748854 ) ;
#29 = EDGE_CURVE ( 'NONE', #164, #273, #290, .T. ) ;
#30 = CLOSED_SHELL ( 'NONE', ( #264, #182, #203, #232, #183, #107, #56, #143, #286, #119 ) ) ;
#31 = UNCERTAINTY_MEASURE_WITH_UNIT (LENGTH_MEASURE( 1.000000000000000082E-05 ), #50, 'distance_accuracy_value', 'NONE');
#32 = AXIS2_PLACEMENT_3D ( 'NONE', #247, #101, #148 ) ;
#33 = VERTEX_POINT ( 'NONE', #88 ) ;
#34 = CARTESIAN_POINT ( 'NONE',  ( 1.573173024023156606E-34, 0.0000000000000000000, 1.284593259965616749E-18 ) ) ;
#35 = LENGTH_MEASURE_WITH_UNIT ( LENGTH_MEASURE( 0.02539999999999999897 ), #272 );
#36 = VECTOR ( 'NONE', #136, 39.37007874015748143 ) ;
#37 = CIRCLE ( 'NONE', #151, 0.06250000000000002776 ) ;
#38 = DIRECTION ( 'NONE',  ( -1.224646799147353454E-16, -0.0000000000000000000, -1.000000000000000000 ) ) ;
#39 = LINE ( 'NONE', #45, #181 ) ;
#40 = EDGE_CURVE ( 'NONE', #273, #49, #126, .T. ) ;
#41 = EDGE_LOOP ( 'NONE', ( #80, #263, #58, #53 ) ) ;
#42 = SURFACE_SIDE_STYLE ('',( #86 ) ) ;
#43 = CARTESIAN_POINT ( 'NONE',  ( 0.0000000000000000000, 0.0000000000000000000, 1.500000000000000222 ) ) ;
#44 = DIRECTION ( 'NONE',  ( 1.000000000000000000, 0.0000000000000000000, 0.0000000000000000000 ) ) ;
#45 = CARTESIAN_POINT ( 'NONE',  ( -0.06250000000000002776, 0.0000000000000000000, 1.500000000000000222 ) ) ;
#46 = AXIS2_PLACEMENT_3D ( 'NONE', #97, #70, #184 ) ;
#47 =( NAMED_UNIT ( * ) PLANE_ANGLE_UNIT ( ) SI_UNIT ( $, .RADIAN. ) );
#48 = DIRECTION ( 'NONE',  ( -1.000000000000000000, 0.0000000000000000000, 1.224646799147353454E-16 ) ) ;
#49 = VERTEX_POINT ( 'NONE', #153 ) ;
#50 =( CONVERSION_BASED_UNIT ( 'INCH', #243 ) LENGTH_UNIT ( ) NAMED_UNIT ( #234 ) );
#51 = ORIENTED_EDGE ( 'NONE', *, *, #29, .F. ) ;
#52 = ADVANCED_BREP_SHAPE_REPRESENTATION ( 'Micro_RME-021-2X', ( #249, #189 ), #78 ) ;
#53 = ORIENTED_EDGE ( 'NONE', *, *, #157, .F. ) ;
#54 = ORIENTED_EDGE ( 'NONE', *, *, #120, .T. ) ;
#55 =( GEOMETRIC_REPRESENTATION_CONTEXT ( 3 ) GLOBAL_UNCERTAINTY_ASSIGNED_CONTEXT ( ( #31 ) ) GLOBAL_UNIT_ASSIGNED_CONTEXT ( ( #50, #4, #93 ) ) REPRESENTATION_CONTEXT ( 'NONE', 'WORKASPACE' ) );
#56 = ADVANCED_FACE ( 'NONE', ( #253 ), #75, .T. ) ;
#57 = CARTESIAN_POINT ( 'NONE',  ( 0.0000000000000000000, 0.0000000000000000000, 1.500000000000000222 ) ) ;
#58 = ORIENTED_EDGE ( 'NONE', *, *, #171, .F. ) ;
#59 = SURFACE_STYLE_USAGE ( .BOTH. , #66 ) ;
#60 = DIRECTION ( 'NONE',  ( -1.224646799147353454E-16, -0.0000000000000000000, -1.000000000000000000 ) ) ;
#61 = AXIS2_PLACEMENT_3D ( 'NONE', #180, #277, #68 ) ;
#62 = AXIS2_PLACEMENT_3D ( 'NONE', #194, #64, #267 ) ;
#63 = ORIENTED_EDGE ( 'NONE', *, *, #256, .T. ) ;
#64 = DIRECTION ( 'NONE',  ( -1.224646799147353454E-16, -0.0000000000000000000, -1.000000000000000000 ) ) ;
#65 = STYLED_ITEM ( 'NONE', ( #269 ), #52 ) ;
#66 = SURFACE_SIDE_STYLE ('',( #276 ) ) ;
#67 = FACE_OUTER_BOUND ( 'NONE', #41, .T. ) ;
#68 = DIRECTION ( 'NONE',  ( 1.000000000000000000, 0.0000000000000000000, 0.0000000000000000000 ) ) ;
#69 = AXIS2_PLACEMENT_3D ( 'NONE', #226, #177, #174 ) ;
#70 = DIRECTION ( 'NONE',  ( -1.224646799147353454E-16, -0.0000000000000000000, -1.000000000000000000 ) ) ;
#71 = CARTESIAN_POINT ( 'NONE',  ( -0.04750000000000064587, 0.0000000000000000000, 1.500000000000000222 ) ) ;
#72 = ORIENTED_EDGE ( 'NONE', *, *, #256, .F. ) ;
#73 = VERTEX_POINT ( 'NONE', #147 ) ;
#74 = MECHANICAL_DESIGN_GEOMETRIC_PRESENTATION_REPRESENTATION (  '', ( #65 ), #150 ) ;
#75 = CONICAL_SURFACE ( 'NONE', #188, 0.04750000000000064587, 0.7853981633974466137 ) ;
#76 =( NAMED_UNIT ( * ) PLANE_ANGLE_UNIT ( ) SI_UNIT ( $, .RADIAN. ) );
#77 = EDGE_LOOP ( 'NONE', ( #128, #186 ) ) ;
#78 =( GEOMETRIC_REPRESENTATION_CONTEXT ( 3 ) GLOBAL_UNCERTAINTY_ASSIGNED_CONTEXT ( ( #7 ) ) GLOBAL_UNIT_ASSIGNED_CONTEXT ( ( #297, #47, #134 ) ) REPRESENTATION_CONTEXT ( 'NONE', 'WORKASPACE' ) );
#79 =( CONVERSION_BASED_UNIT ( 'INCH', #282 ) LENGTH_UNIT ( ) NAMED_UNIT ( #5 ) );
#80 = ORIENTED_EDGE ( 'NONE', *, *, #16, .F. ) ;
#81 = ORIENTED_EDGE ( 'NONE', *, *, #171, .T. ) ;
#82 = DIRECTION ( 'NONE',  ( 0.7071067811865462405, 8.659560562354916834E-17, -0.7071067811865486830 ) ) ;
#83 = CONICAL_SURFACE ( 'NONE', #258, 0.01048950000000000229, 0.1745329251994339192 ) ;
#84 = CIRCLE ( 'NONE', #32, 0.06250000000000002776 ) ;
#85 = PLANE ( 'NONE',  #11 ) ;
#86 = SURFACE_STYLE_FILL_AREA ( #252 ) ;
#87 = EDGE_CURVE ( 'NONE', #164, #73, #191, .T. ) ;
#88 = CARTESIAN_POINT ( 'NONE',  ( -0.01048949999999999362, 4.469317877318288976E-18, 0.06300000000000000044 ) ) ;
#89 = VECTOR ( 'NONE', #14, 39.37007874015748143 ) ;
#90 = DIRECTION ( 'NONE',  ( -0.0000000000000000000, -0.0000000000000000000, -1.000000000000000000 ) ) ;
#91 = EDGE_CURVE ( 'NONE', #100, #214, #254, .T. ) ;
#92 = LINE ( 'NONE', #135, #28 ) ;
#93 =( NAMED_UNIT ( * ) SI_UNIT ( $, .STERADIAN. ) SOLID_ANGLE_UNIT ( ) );
#94 = PRODUCT ( 'Micro_RME-021-2X', 'Micro_RME-021-2X', '', ( #257 ) ) ;
#95 = DIRECTION ( 'NONE',  ( -1.224646799147353454E-16, -0.0000000000000000000, -1.000000000000000000 ) ) ;
#96 = ORIENTED_EDGE ( 'NONE', *, *, #98, .F. ) ;
#97 = CARTESIAN_POINT ( 'NONE',  ( 0.0000000000000000000, 0.0000000000000000000, 0.0000000000000000000 ) ) ;
#98 = EDGE_CURVE ( 'NONE', #49, #273, #84, .T. ) ;
#99 = DIRECTION ( 'NONE',  ( 1.000000000000000000, 0.0000000000000000000, 0.0000000000000000000 ) ) ;
#100 = VERTEX_POINT ( 'NONE', #123 ) ;
#101 = DIRECTION ( 'NONE',  ( -1.224646799147353454E-16, -0.0000000000000000000, -1.000000000000000000 ) ) ;
#102 = AXIS2_PLACEMENT_3D ( 'NONE', #24, #113, #185 ) ;
#103 = DIRECTION ( 'NONE',  ( 1.000000000000000000, 0.0000000000000000000, -0.0000000000000000000 ) ) ;
#104 = CARTESIAN_POINT ( 'NONE',  ( 0.0000000000000000000, 0.0000000000000000000, 1.500000000000000222 ) ) ;
#105 = CYLINDRICAL_SURFACE ( 'NONE', #1, 0.06250000000000002776 ) ;
#106 = ORIENTED_EDGE ( 'NONE', *, *, #231, .T. ) ;
#107 = ADVANCED_FACE ( 'NONE', ( #196 ), #85, .T. ) ;
#108 = ORIENTED_EDGE ( 'NONE', *, *, #120, .F. ) ;
#109 = EDGE_CURVE ( 'NONE', #33, #214, #292, .T. ) ;
#110 = APPLICATION_PROTOCOL_DEFINITION ( 'draft international standard', 'automotive_design', 1998, #167 ) ;
#111 = FILL_AREA_STYLE_COLOUR ( '', #294 ) ;
#112 = AXIS2_PLACEMENT_3D ( 'NONE', #125, #219, #202 ) ;
#113 = DIRECTION ( 'NONE',  ( -1.224646799147353454E-16, -0.0000000000000000000, -1.000000000000000000 ) ) ;
#114 = EDGE_CURVE ( 'NONE', #118, #164, #198, .T. ) ;
#115 = AXIS2_PLACEMENT_3D ( 'NONE', #34, #38, #10 ) ;
#116 = ORIENTED_EDGE ( 'NONE', *, *, #109, .F. ) ;
#117 = FACE_OUTER_BOUND ( 'NONE', #233, .T. ) ;
#118 = VERTEX_POINT ( 'NONE', #271 ) ;
#119 = ADVANCED_FACE ( 'NONE', ( #25 ), #2, .F. ) ;
#120 = EDGE_CURVE ( 'NONE', #33, #144, #245, .T. ) ;
#121 = DIRECTION ( 'NONE',  ( 1.224646799147353454E-16, 0.0000000000000000000, 1.000000000000000000 ) ) ;
#122 = DIRECTION ( 'NONE',  ( 1.000000000000000000, 0.0000000000000000000, 0.0000000000000000000 ) ) ;
#123 = CARTESIAN_POINT ( 'NONE',  ( 0.01048950000000000229, 1.284593259965616364E-18, 0.0000000000000000000 ) ) ;
#124 = CONICAL_SURFACE ( 'NONE', #112, 0.04750000000000064587, 0.7853981633974466137 ) ;
#125 = CARTESIAN_POINT ( 'NONE',  ( 0.0000000000000000000, 0.0000000000000000000, 1.500000000000000222 ) ) ;
#126 = CIRCLE ( 'NONE', #62, 0.06250000000000002776 ) ;
#127 = CARTESIAN_POINT ( 'NONE',  ( 0.06250000000000002776, 7.654042494670959086E-18, 1.485000000000000764 ) ) ;
#128 = ORIENTED_EDGE ( 'NONE', *, *, #162, .T. ) ;
#129 = CARTESIAN_POINT ( 'NONE',  ( 0.01048950000000000229, 1.284593259965616364E-18, -1.284593259965616749E-18 ) ) ;
#130 = LINE ( 'NONE', #149, #229 ) ;
#131 = EDGE_LOOP ( 'NONE', ( #163, #244 ) ) ;
#132 = MECHANICAL_DESIGN_GEOMETRIC_PRESENTATION_REPRESENTATION (  '', ( #160 ), #55 ) ;
#133 = CARTESIAN_POINT ( 'NONE',  ( 0.0000000000000000000, 0.0000000000000000000, 1.500000000000000222 ) ) ;
#134 =( NAMED_UNIT ( * ) SI_UNIT ( $, .STERADIAN. ) SOLID_ANGLE_UNIT ( ) );
#135 = CARTESIAN_POINT ( 'NONE',  ( -0.04750000000000064587, 0.0000000000000000000, 1.500000000000000222 ) ) ;
#136 = DIRECTION ( 'NONE',  ( 0.1736481776669314137, 0.0000000000000000000, 0.9848077530122077983 ) ) ;
#137 = ORIENTED_EDGE ( 'NONE', *, *, #9, .T. ) ;
#138 = AXIS2_PLACEMENT_3D ( 'NONE', #212, #95, #278 ) ;
#139 = CARTESIAN_POINT ( 'NONE',  ( 0.0000000000000000000, 0.0000000000000000000, 0.0000000000000000000 ) ) ;
#140 = ORIENTED_EDGE ( 'NONE', *, *, #162, .F. ) ;
#141 = EDGE_LOOP ( 'NONE', ( #18, #72, #152, #27 ) ) ;
#142 = CARTESIAN_POINT ( 'NONE',  ( 0.0000000000000000000, 0.0000000000000000000, 0.0000000000000000000 ) ) ;
#143 = ADVANCED_FACE ( 'NONE', ( #22 ), #146, .T. ) ;
#144 = VERTEX_POINT ( 'NONE', #156 ) ;
#145 = ORIENTED_EDGE ( 'NONE', *, *, #109, .T. ) ;
#146 = CONICAL_SURFACE ( 'NONE', #61, 0.01048950000000000229, 0.1745329251994339192 ) ;
#147 = CARTESIAN_POINT ( 'NONE',  ( -0.06250000000000002776, 0.0000000000000000000, 1.485000000000000764 ) ) ;
#148 = DIRECTION ( 'NONE',  ( 1.000000000000000000, 0.0000000000000000000, 0.0000000000000000000 ) ) ;
#149 = CARTESIAN_POINT ( 'NONE',  ( -0.01048949999999999362, 1.284593259965616364E-18, 0.06300000000000000044 ) ) ;
#150 =( GEOMETRIC_REPRESENTATION_CONTEXT ( 3 ) GLOBAL_UNCERTAINTY_ASSIGNED_CONTEXT ( ( #246 ) ) GLOBAL_UNIT_ASSIGNED_CONTEXT ( ( #79, #76, #213 ) ) REPRESENTATION_CONTEXT ( 'NONE', 'WORKASPACE' ) );
#151 = AXIS2_PLACEMENT_3D ( 'NONE', #291, #266, #8 ) ;
#152 = ORIENTED_EDGE ( 'NONE', *, *, #287, .T. ) ;
#153 = CARTESIAN_POINT ( 'NONE',  ( -0.06249999999999997918, 0.0000000000000000000, 0.3579662030792253868 ) ) ;
#154 = AXIS2_PLACEMENT_3D ( 'NONE', #139, #190, #48 ) ;
#155 = LINE ( 'NONE', #129, #89 ) ;
#156 = CARTESIAN_POINT ( 'NONE',  ( 0.01048950000000001097, 0.0000000000000000000, 0.06300000000000000044 ) ) ;
#157 = EDGE_CURVE ( 'NONE', #270, #73, #92, .T. ) ;
#158 = CARTESIAN_POINT ( 'NONE',  ( 0.06250000000000006939, 7.654042494670963708E-18, 0.3579662030792253868 ) ) ;
#159 = EDGE_LOOP ( 'NONE', ( #81, #220, #96, #285 ) ) ;
#160 = STYLED_ITEM ( 'NONE', ( #17 ), #249 ) ;
#161 = ORIENTED_EDGE ( 'NONE', *, *, #87, .F. ) ;
#162 = EDGE_CURVE ( 'NONE', #214, #100, #228, .T. ) ;
#163 = ORIENTED_EDGE ( 'NONE', *, *, #224, .T. ) ;
#164 = VERTEX_POINT ( 'NONE', #127 ) ;
#165 = DIRECTION ( 'NONE',  ( 1.000000000000000000, 0.0000000000000000000, 0.0000000000000000000 ) ) ;
#166 = PRESENTATION_LAYER_ASSIGNMENT (  '', '', ( #65 ) ) ;
#167 = APPLICATION_CONTEXT ( 'automotive_design' ) ;
#168 = DIRECTION ( 'NONE',  ( 1.000000000000000000, 0.0000000000000000000, 0.0000000000000000000 ) ) ;
#169 = CARTESIAN_POINT ( 'NONE',  ( -0.01048950000000000229, 0.0000000000000000000, 1.284593259965616749E-18 ) ) ;
#170 = DIRECTION ( 'NONE',  ( -0.1736481776669312194, 2.126576849575783625E-17, 0.9848077530122080203 ) ) ;
#171 = EDGE_CURVE ( 'NONE', #73, #164, #37, .T. ) ;
#172 = CARTESIAN_POINT ( 'NONE',  ( 0.0000000000000000000, 0.0000000000000000000, 1.500000000000000222 ) ) ;
#173 = ORIENTED_EDGE ( 'NONE', *, *, #215, .T. ) ;
#174 = DIRECTION ( 'NONE',  ( 1.000000000000000000, 0.0000000000000000000, -0.0000000000000000000 ) ) ;
#175 = PRODUCT_DEFINITION_FORMATION_WITH_SPECIFIED_SOURCE ( 'ANY', '', #94, .NOT_KNOWN. ) ;
#176 = AXIS2_PLACEMENT_3D ( 'NONE', #275, #255, #227 ) ;
#177 = DIRECTION ( 'NONE',  ( 0.0000000000000000000, 0.0000000000000000000, 1.000000000000000000 ) ) ;
#178 = FILL_AREA_STYLE ('',( #111 ) ) ;
#179 = DIRECTION ( 'NONE',  ( -1.000000000000000000, 0.0000000000000000000, 0.0000000000000000000 ) ) ;
#180 = CARTESIAN_POINT ( 'NONE',  ( 7.715274834628326610E-18, 0.0000000000000000000, 0.06300000000000000044 ) ) ;
#181 = VECTOR ( 'NONE', #299, 39.37007874015748143 ) ;
#182 = ADVANCED_FACE ( 'NONE', ( #288 ), #83, .T. ) ;
#183 = ADVANCED_FACE ( 'NONE', ( #239 ), #260, .T. ) ;
#184 = DIRECTION ( 'NONE',  ( -1.000000000000000000, 0.0000000000000000000, 1.224646799147353454E-16 ) ) ;
#185 = DIRECTION ( 'NONE',  ( -1.000000000000000000, 0.0000000000000000000, 1.224646799147353454E-16 ) ) ;
#186 = ORIENTED_EDGE ( 'NONE', *, *, #91, .T. ) ;
#187 =( LENGTH_UNIT ( ) NAMED_UNIT ( * ) SI_UNIT ( $, .METRE. ) );
#188 = AXIS2_PLACEMENT_3D ( 'NONE', #57, #13, #268 ) ;
#189 = AXIS2_PLACEMENT_3D ( 'NONE', #142, #26, #99 ) ;
#190 = DIRECTION ( 'NONE',  ( -1.224646799147353454E-16, -0.0000000000000000000, -1.000000000000000000 ) ) ;
#191 = CIRCLE ( 'NONE', #207, 0.06250000000000002776 ) ;
#192 = PRODUCT_DEFINITION_CONTEXT ( 'detailed design', #279, 'design' ) ;
#193 = CARTESIAN_POINT ( 'NONE',  ( 7.715274834628326610E-18, 0.0000000000000000000, 0.06300000000000000044 ) ) ;
#194 = CARTESIAN_POINT ( 'NONE',  ( 4.383821648039047744E-17, 0.0000000000000000000, 0.3579662030792253868 ) ) ;
#195 = VECTOR ( 'NONE', #200, 39.37007874015748143 ) ;
#196 = FACE_OUTER_BOUND ( 'NONE', #131, .T. ) ;
#197 = CARTESIAN_POINT ( 'NONE',  ( -0.01048950000000000229, 0.0000000000000000000, 2.569186519931233498E-18 ) ) ;
#198 = LINE ( 'NONE', #293, #259 ) ;
#199 = DIRECTION ( 'NONE',  ( -1.000000000000000000, 0.0000000000000000000, 0.0000000000000000000 ) ) ;
#200 = DIRECTION ( 'NONE',  ( -0.0000000000000000000, -0.0000000000000000000, -1.000000000000000000 ) ) ;
#201 = EDGE_LOOP ( 'NONE', ( #51, #238, #173, #251 ) ) ;
#202 = DIRECTION ( 'NONE',  ( -1.000000000000000000, 0.0000000000000000000, 0.0000000000000000000 ) ) ;
#203 = ADVANCED_FACE ( 'NONE', ( #67 ), #124, .T. ) ;
#204 = FILL_AREA_STYLE_COLOUR ( '', #236 ) ;
#205 = PRODUCT_RELATED_PRODUCT_CATEGORY ( 'part', '', ( #94 ) ) ;
#206 = DIMENSIONAL_EXPONENTS ( 1.000000000000000000, 0.0000000000000000000, 0.0000000000000000000, 0.0000000000000000000, 0.0000000000000000000, 0.0000000000000000000, 0.0000000000000000000 ) ;
#207 = AXIS2_PLACEMENT_3D ( 'NONE', #12, #295, #122 ) ;
#208 = EDGE_LOOP ( 'NONE', ( #108, #137, #289, #250 ) ) ;
#209 = CARTESIAN_POINT ( 'NONE',  ( 0.0000000000000000000, 0.0000000000000000000, 1.500000000000000222 ) ) ;
#210 = CYLINDRICAL_SURFACE ( 'NONE', #46, 0.01048950000000000229 ) ;
#211 = AXIS2_PLACEMENT_3D ( 'NONE', #43, #298, #168 ) ;
#212 = CARTESIAN_POINT ( 'NONE',  ( 7.715274834628326610E-18, 0.0000000000000000000, 0.06300000000000000044 ) ) ;
#213 =( NAMED_UNIT ( * ) SI_UNIT ( $, .STERADIAN. ) SOLID_ANGLE_UNIT ( ) );
#214 = VERTEX_POINT ( 'NONE', #197 ) ;
#215 = EDGE_CURVE ( 'NONE', #73, #49, #39, .T. ) ;
#216 = DIRECTION ( 'NONE',  ( 0.0000000000000000000, 0.0000000000000000000, 1.000000000000000000 ) ) ;
#217 = CIRCLE ( 'NONE', #211, 0.04750000000000064587 ) ;
#218 = EDGE_LOOP ( 'NONE', ( #281, #63, #145, #248 ) ) ;
#219 = DIRECTION ( 'NONE',  ( 0.0000000000000000000, 0.0000000000000000000, -1.000000000000000000 ) ) ;
#220 = ORIENTED_EDGE ( 'NONE', *, *, #29, .T. ) ;
#221 = SURFACE_STYLE_USAGE ( .BOTH. , #42 ) ;
#222 = ORIENTED_EDGE ( 'NONE', *, *, #114, .F. ) ;
#223 = PRESENTATION_LAYER_ASSIGNMENT (  '', '', ( #160 ) ) ;
#224 = EDGE_CURVE ( 'NONE', #270, #118, #3, .T. ) ;
#225 = DIRECTION ( 'NONE',  ( -0.0000000000000000000, -0.0000000000000000000, -1.000000000000000000 ) ) ;
#226 = CARTESIAN_POINT ( 'NONE',  ( 0.0000000000000000000, 0.0000000000000000000, 0.0000000000000000000 ) ) ;
#227 = DIRECTION ( 'NONE',  ( -1.000000000000000000, 0.0000000000000000000, 0.0000000000000000000 ) ) ;
#228 = CIRCLE ( 'NONE', #102, 0.01048950000000000229 ) ;
#229 = VECTOR ( 'NONE', #170, 39.37007874015747433 ) ;
#230 = DIRECTION ( 'NONE',  ( -0.7071067811865462405, 0.0000000000000000000, -0.7071067811865486830 ) ) ;
#231 = EDGE_CURVE ( 'NONE', #144, #100, #155, .T. ) ;
#232 = ADVANCED_FACE ( 'NONE', ( #274 ), #105, .T. ) ;
#233 = EDGE_LOOP ( 'NONE', ( #54, #106, #140, #116 ) ) ;
#234 = DIMENSIONAL_EXPONENTS ( 1.000000000000000000, 0.0000000000000000000, 0.0000000000000000000, 0.0000000000000000000, 0.0000000000000000000, 0.0000000000000000000, 0.0000000000000000000 ) ;
#235 = PRODUCT_DEFINITION ( 'UNKNOWN', '', #175, #192 ) ;
#236 = COLOUR_RGB ( '',0.7921568627450980005, 0.8196078431372548767, 0.9333333333333333481 ) ;
#237 = FACE_OUTER_BOUND ( 'NONE', #218, .T. ) ;
#238 = ORIENTED_EDGE ( 'NONE', *, *, #87, .T. ) ;
#239 = FACE_OUTER_BOUND ( 'NONE', #201, .T. ) ;
#240 = ORIENTED_EDGE ( 'NONE', *, *, #157, .T. ) ;
#241 =( LENGTH_UNIT ( ) NAMED_UNIT ( * ) SI_UNIT ( $, .METRE. ) );
#242 = AXIS2_PLACEMENT_3D ( 'NONE', #209, #90, #179 ) ;
#243 = LENGTH_MEASURE_WITH_UNIT ( LENGTH_MEASURE( 0.02539999999999999897 ), #241 );
#244 = ORIENTED_EDGE ( 'NONE', *, *, #16, .T. ) ;
#245 = CIRCLE ( 'NONE', #176, 0.01048950000000000229 ) ;
#246 = UNCERTAINTY_MEASURE_WITH_UNIT (LENGTH_MEASURE( 1.000000000000000082E-05 ), #79, 'distance_accuracy_value', 'NONE');
#247 = CARTESIAN_POINT ( 'NONE',  ( 4.383821648039047744E-17, 0.0000000000000000000, 0.3579662030792253868 ) ) ;
#248 = ORIENTED_EDGE ( 'NONE', *, *, #91, .F. ) ;
#249 = MANIFOLD_SOLID_BREP ( 'Cut-Revolve1', #30 ) ;
#250 = ORIENTED_EDGE ( 'NONE', *, *, #287, .F. ) ;
#251 = ORIENTED_EDGE ( 'NONE', *, *, #40, .F. ) ;
#252 = FILL_AREA_STYLE ('',( #204 ) ) ;
#253 = FACE_OUTER_BOUND ( 'NONE', #265, .T. ) ;
#254 = CIRCLE ( 'NONE', #115, 0.01048950000000000229 ) ;
#255 = DIRECTION ( 'NONE',  ( -1.224646799147353454E-16, -0.0000000000000000000, -1.000000000000000000 ) ) ;
#256 = EDGE_CURVE ( 'NONE', #144, #33, #262, .T. ) ;
#257 = PRODUCT_CONTEXT ( 'NONE', #167, 'mechanical' ) ;
#258 = AXIS2_PLACEMENT_3D ( 'NONE', #193, #121, #165 ) ;
#259 = VECTOR ( 'NONE', #82, 39.37007874015748854 ) ;
#260 = CYLINDRICAL_SURFACE ( 'NONE', #242, 0.06250000000000002776 ) ;
#261 = CYLINDRICAL_SURFACE ( 'NONE', #154, 0.01048950000000000229 ) ;
#262 = CIRCLE ( 'NONE', #138, 0.01048950000000000229 ) ;
#263 = ORIENTED_EDGE ( 'NONE', *, *, #114, .T. ) ;
#264 = ADVANCED_FACE ( 'NONE', ( #117 ), #210, .T. ) ;
#265 = EDGE_LOOP ( 'NONE', ( #222, #6, #240, #161 ) ) ;
#266 = DIRECTION ( 'NONE',  ( 0.0000000000000000000, 0.0000000000000000000, -1.000000000000000000 ) ) ;
#267 = DIRECTION ( 'NONE',  ( 1.000000000000000000, 0.0000000000000000000, 0.0000000000000000000 ) ) ;
#268 = DIRECTION ( 'NONE',  ( -1.000000000000000000, 0.0000000000000000000, 0.0000000000000000000 ) ) ;
#269 = PRESENTATION_STYLE_ASSIGNMENT (( #59 ) ) ;
#270 = VERTEX_POINT ( 'NONE', #71 ) ;
#271 = CARTESIAN_POINT ( 'NONE',  ( 0.04750000000000064587, 6.735557395310483192E-18, 1.500000000000000222 ) ) ;
#272 =( LENGTH_UNIT ( ) NAMED_UNIT ( * ) SI_UNIT ( $, .METRE. ) );
#273 = VERTEX_POINT ( 'NONE', #158 ) ;
#274 = FACE_OUTER_BOUND ( 'NONE', #159, .T. ) ;
#275 = CARTESIAN_POINT ( 'NONE',  ( 7.715274834628326610E-18, 0.0000000000000000000, 0.06300000000000000044 ) ) ;
#276 = SURFACE_STYLE_FILL_AREA ( #178 ) ;
#277 = DIRECTION ( 'NONE',  ( 1.224646799147353454E-16, 0.0000000000000000000, 1.000000000000000000 ) ) ;
#278 = DIRECTION ( 'NONE',  ( -1.000000000000000000, 0.0000000000000000000, 0.0000000000000000000 ) ) ;
#279 = APPLICATION_CONTEXT ( 'automotive_design' ) ;
#280 = CARTESIAN_POINT ( 'NONE',  ( 0.01048950000000001097, 0.0000000000000000000, 0.06300000000000000044 ) ) ;
#281 = ORIENTED_EDGE ( 'NONE', *, *, #231, .F. ) ;
#282 = LENGTH_MEASURE_WITH_UNIT ( LENGTH_MEASURE( 0.02539999999999999897 ), #187 );
#283 = VECTOR ( 'NONE', #60, 39.37007874015748143 ) ;
#284 = LINE ( 'NONE', #280, #36 ) ;
#285 = ORIENTED_EDGE ( 'NONE', *, *, #215, .F. ) ;
#286 = ADVANCED_FACE ( 'NONE', ( #237 ), #261, .T. ) ;
#287 = EDGE_CURVE ( 'NONE', #144, #273, #284, .T. ) ;
#288 = FACE_OUTER_BOUND ( 'NONE', #208, .T. ) ;
#289 = ORIENTED_EDGE ( 'NONE', *, *, #98, .T. ) ;
#290 = LINE ( 'NONE', #15, #195 ) ;
#291 = CARTESIAN_POINT ( 'NONE',  ( 0.0000000000000000000, 0.0000000000000000000, 1.485000000000000764 ) ) ;
#292 = LINE ( 'NONE', #169, #283 ) ;
#293 = CARTESIAN_POINT ( 'NONE',  ( 0.04750000000000064587, 5.817072295950006528E-18, 1.500000000000000222 ) ) ;
#294 = COLOUR_RGB ( '',0.7921568627450980005, 0.8196078431372548767, 0.9333333333333333481 ) ;
#295 = DIRECTION ( 'NONE',  ( 0.0000000000000000000, 0.0000000000000000000, -1.000000000000000000 ) ) ;
#296 = APPLICATION_PROTOCOL_DEFINITION ( 'draft international standard', 'automotive_design', 1998, #279 ) ;
#297 =( CONVERSION_BASED_UNIT ( 'INCH', #35 ) LENGTH_UNIT ( ) NAMED_UNIT ( #206 ) );
#298 = DIRECTION ( 'NONE',  ( 0.0000000000000000000, 0.0000000000000000000, 1.000000000000000000 ) ) ;
#299 = DIRECTION ( 'NONE',  ( -0.0000000000000000000, -0.0000000000000000000, -1.000000000000000000 ) ) ;
ENDSEC;
END-ISO-10303-21;
