ISO-10303-21;
HEADER;
FILE_DESCRIPTION (( 'STEP AP214' ),
    '1' );
FILE_NAME ('03182.STEP',
    '2023-06-22T15:01:30',
    ( '' ),
    ( '' ),
    'SwSTEP 2.0',
    'SolidWorks 2023',
    '' );
FILE_SCHEMA (( 'AUTOMOTIVE_DESIGN' ));
ENDSEC;

DATA;
#1 = DIRECTION ( 'NONE',  ( -0.000000000000000000, -1.000000000000000000, -0.000000000000000000 ) ) ;
#2 = UNCERTAINTY_MEASURE_WITH_UNIT (LENGTH_MEASURE( 1.000000000000000082E-05 ), #212, 'distance_accuracy_value', 'NONE');
#3 = DIRECTION ( 'NONE',  ( -1.000000000000000000, -3.061616997868386099E-17, 0.000000000000000000 ) ) ;
#4 = EDGE_LOOP ( 'NONE', ( #121, #146, #54, #70 ) ) ;
#5 =( GEOMETRIC_REPRESENTATION_CONTEXT ( 3 ) GLOBAL_UNCERTAINTY_ASSIGNED_CONTEXT ( ( #2 ) ) GLOBAL_UNIT_ASSIGNED_CONTEXT ( ( #212, #168, #170 ) ) REPRESENTATION_CONTEXT ( 'NONE', 'WORKASPACE' ) );
#6 = PRODUCT_DEFINITION_FORMATION_WITH_SPECIFIED_SOURCE ( 'ANY', '', #282, .NOT_KNOWN. ) ;
#7 =( NAMED_UNIT ( * ) PLANE_ANGLE_UNIT ( ) SI_UNIT ( $, .RADIAN. ) );
#8 = UNCERTAINTY_MEASURE_WITH_UNIT (LENGTH_MEASURE( 1.000000000000000082E-05 ), #55, 'distance_accuracy_value', 'NONE');
#9 =( NAMED_UNIT ( * ) SI_UNIT ( $, .STERADIAN. ) SOLID_ANGLE_UNIT ( ) );
#10 = SURFACE_STYLE_USAGE ( .BOTH. , #222 ) ;
#11 = LENGTH_MEASURE_WITH_UNIT ( LENGTH_MEASURE( 0.02539999999999999897 ), #228 );
#12 = PRODUCT_DEFINITION_CONTEXT ( 'detailed design', #126, 'design' ) ;
#13 = DIRECTION ( 'NONE',  ( 0.000000000000000000, 0.000000000000000000, -1.000000000000000000 ) ) ;
#14 = CARTESIAN_POINT ( 'NONE',  ( 7.582401355855259480E-33, 1.000000000000000000, 0.000000000000000000 ) ) ;
#15 = FACE_OUTER_BOUND ( 'NONE', #149, .T. ) ;
#16 = PRODUCT_RELATED_PRODUCT_CATEGORY ( 'part', '', ( #282 ) ) ;
#17 = ADVANCED_BREP_SHAPE_REPRESENTATION ( '03182', ( #305, #215, #262 ), #238 ) ;
#18 =( GEOMETRIC_REPRESENTATION_CONTEXT ( 3 ) GLOBAL_UNCERTAINTY_ASSIGNED_CONTEXT ( ( #244 ) ) GLOBAL_UNIT_ASSIGNED_CONTEXT ( ( #32, #132, #9 ) ) REPRESENTATION_CONTEXT ( 'NONE', 'WORKASPACE' ) );
#19 = EDGE_LOOP ( 'NONE', ( #173, #241 ) ) ;
#20 = FILL_AREA_STYLE_COLOUR ( '', #251 ) ;
#21 =( LENGTH_UNIT ( ) NAMED_UNIT ( * ) SI_UNIT ( $, .METRE. ) );
#22 = CIRCLE ( 'NONE', #203, 0.1249999999999999861 ) ;
#23 = CARTESIAN_POINT ( 'NONE',  ( 1.530808498934191509E-17, 0.000000000000000000, 0.1250000000000000000 ) ) ;
#24 = ORIENTED_EDGE ( 'NONE', *, *, #260, .T. ) ;
#25 =( NAMED_UNIT ( * ) PLANE_ANGLE_UNIT ( ) SI_UNIT ( $, .RADIAN. ) );
#26 = ADVANCED_FACE ( 'NONE', ( #268 ), #156, .F. ) ;
#27 = FACE_OUTER_BOUND ( 'NONE', #19, .T. ) ;
#28 = CARTESIAN_POINT ( 'NONE',  ( -0.1250000000000001110, 3.000000000000000444, 0.000000000000000000 ) ) ;
#29 = PRODUCT_CONTEXT ( 'NONE', #190, 'mechanical' ) ;
#30 = SURFACE_STYLE_USAGE ( .BOTH. , #247 ) ;
#31 = CARTESIAN_POINT ( 'NONE',  ( 5.858436651022893041E-35, 1.000000000000000000, 0.000000000000000000 ) ) ;
#32 =( CONVERSION_BASED_UNIT ( 'INCH', #11 ) LENGTH_UNIT ( ) NAMED_UNIT ( #192 ) );
#33 = MECHANICAL_DESIGN_GEOMETRIC_PRESENTATION_REPRESENTATION (  '', ( #118 ), #258 ) ;
#34 = DIRECTION ( 'NONE',  ( -3.061616997868386099E-17, 1.000000000000000000, 0.000000000000000000 ) ) ;
#35 = CARTESIAN_POINT ( 'NONE',  ( -6.123233995736772199E-17, 3.000000000000000444, 0.000000000000000000 ) ) ;
#36 = DIRECTION ( 'NONE',  ( -1.000000000000000000, 0.000000000000000000, 0.000000000000000000 ) ) ;
#37 = CARTESIAN_POINT ( 'NONE',  ( 0.000000000000000000, 1.000000000000000000, 0.000000000000000000 ) ) ;
#38 = CIRCLE ( 'NONE', #78, 0.1250000000000000000 ) ;
#39 = ADVANCED_FACE ( 'NONE', ( #27 ), #185, .T. ) ;
#40 = LENGTH_MEASURE_WITH_UNIT ( LENGTH_MEASURE( 0.02539999999999999897 ), #226 );
#41 = AXIS2_PLACEMENT_3D ( 'NONE', #179, #50, #150 ) ;
#42 = SURFACE_STYLE_USAGE ( .BOTH. , #98 ) ;
#43 = FILL_AREA_STYLE ('',( #20 ) ) ;
#44 = LENGTH_MEASURE_WITH_UNIT ( LENGTH_MEASURE( 0.02539999999999999897 ), #21 );
#45 = AXIS2_PLACEMENT_3D ( 'NONE', #35, #87, #135 ) ;
#46 = EDGE_CURVE ( 'NONE', #183, #286, #124, .T. ) ;
#47 = EDGE_LOOP ( 'NONE', ( #248, #232 ) ) ;
#48 =( LENGTH_UNIT ( ) NAMED_UNIT ( * ) SI_UNIT ( $, .METRE. ) );
#49 = ORIENTED_EDGE ( 'NONE', *, *, #293, .F. ) ;
#50 = DIRECTION ( 'NONE',  ( -0.000000000000000000, -1.000000000000000000, -0.000000000000000000 ) ) ;
#51 =( NAMED_UNIT ( * ) PLANE_ANGLE_UNIT ( ) SI_UNIT ( $, .RADIAN. ) );
#52 = PRESENTATION_LAYER_ASSIGNMENT (  '', '', ( #68 ) ) ;
#53 = ORIENTED_EDGE ( 'NONE', *, *, #187, .T. ) ;
#54 = ORIENTED_EDGE ( 'NONE', *, *, #216, .F. ) ;
#55 =( CONVERSION_BASED_UNIT ( 'INCH', #204 ) LENGTH_UNIT ( ) NAMED_UNIT ( #82 ) );
#56 = PRESENTATION_LAYER_ASSIGNMENT (  '', '', ( #151 ) ) ;
#57 = EDGE_CURVE ( 'NONE', #61, #264, #196, .T. ) ;
#58 = VECTOR ( 'NONE', #229, 39.37007874015748143 ) ;
#59 = DIRECTION ( 'NONE',  ( -3.061616997868386099E-17, 1.000000000000000000, -0.000000000000000000 ) ) ;
#60 = ORIENTED_EDGE ( 'NONE', *, *, #172, .F. ) ;
#61 = VERTEX_POINT ( 'NONE', #143 ) ;
#62 = DIRECTION ( 'NONE',  ( 0.000000000000000000, 0.000000000000000000, -1.000000000000000000 ) ) ;
#63 = AXIS2_PLACEMENT_3D ( 'NONE', #125, #1, #76 ) ;
#64 = CYLINDRICAL_SURFACE ( 'NONE', #73, 0.1250000000000000278 ) ;
#65 = DIMENSIONAL_EXPONENTS ( 1.000000000000000000, 0.000000000000000000, 0.000000000000000000, 0.000000000000000000, 0.000000000000000000, 0.000000000000000000, 0.000000000000000000 ) ;
#66 = CYLINDRICAL_SURFACE ( 'NONE', #102, 0.1250000000000000278 ) ;
#67 =( LENGTH_UNIT ( ) NAMED_UNIT ( * ) SI_UNIT ( $, .METRE. ) );
#68 = STYLED_ITEM ( 'NONE', ( #189 ), #215 ) ;
#69 = VECTOR ( 'NONE', #59, 39.37007874015748143 ) ;
#70 = ORIENTED_EDGE ( 'NONE', *, *, #57, .F. ) ;
#71 = ORIENTED_EDGE ( 'NONE', *, *, #46, .F. ) ;
#72 = VECTOR ( 'NONE', #235, 39.37007874015748143 ) ;
#73 = AXIS2_PLACEMENT_3D ( 'NONE', #205, #164, #182 ) ;
#74 =( CONVERSION_BASED_UNIT ( 'INCH', #79 ) LENGTH_UNIT ( ) NAMED_UNIT ( #80 ) );
#75 = ORIENTED_EDGE ( 'NONE', *, *, #281, .F. ) ;
#76 = DIRECTION ( 'NONE',  ( 0.000000000000000000, 0.000000000000000000, -1.000000000000000000 ) ) ;
#77 = APPLICATION_PROTOCOL_DEFINITION ( 'draft international standard', 'automotive_design', 1998, #190 ) ;
#78 = AXIS2_PLACEMENT_3D ( 'NONE', #176, #91, #111 ) ;
#79 = LENGTH_MEASURE_WITH_UNIT ( LENGTH_MEASURE( 0.02539999999999999897 ), #48 );
#80 = DIMENSIONAL_EXPONENTS ( 1.000000000000000000, 0.000000000000000000, 0.000000000000000000, 0.000000000000000000, 0.000000000000000000, 0.000000000000000000, 0.000000000000000000 ) ;
#81 =( LENGTH_UNIT ( ) NAMED_UNIT ( * ) SI_UNIT ( $, .METRE. ) );
#82 = DIMENSIONAL_EXPONENTS ( 1.000000000000000000, 0.000000000000000000, 0.000000000000000000, 0.000000000000000000, 0.000000000000000000, 0.000000000000000000, 0.000000000000000000 ) ;
#83 = ADVANCED_FACE ( 'NONE', ( #97 ), #66, .T. ) ;
#84 = ORIENTED_EDGE ( 'NONE', *, *, #236, .T. ) ;
#85 =( NAMED_UNIT ( * ) SI_UNIT ( $, .STERADIAN. ) SOLID_ANGLE_UNIT ( ) );
#86 = AXIS2_PLACEMENT_3D ( 'NONE', #108, #159, #206 ) ;
#87 = DIRECTION ( 'NONE',  ( -3.061616997868386099E-17, 1.000000000000000000, -0.000000000000000000 ) ) ;
#88 = DIRECTION ( 'NONE',  ( -1.000000000000000000, 0.000000000000000000, 0.000000000000000000 ) ) ;
#89 = DIRECTION ( 'NONE',  ( -1.000000000000000000, 0.000000000000000000, 0.000000000000000000 ) ) ;
#90 = SURFACE_STYLE_FILL_AREA ( #223 ) ;
#91 = DIRECTION ( 'NONE',  ( -0.000000000000000000, -1.000000000000000000, -0.000000000000000000 ) ) ;
#92 = CARTESIAN_POINT ( 'NONE',  ( 1.530808498934191509E-17, 0.000000000000000000, 0.1250000000000000000 ) ) ;
#93 = CARTESIAN_POINT ( 'NONE',  ( 0.000000000000000000, 0.000000000000000000, -0.1250000000000000000 ) ) ;
#94 = ORIENTED_EDGE ( 'NONE', *, *, #308, .T. ) ;
#95 = FILL_AREA_STYLE ('',( #261 ) ) ;
#96 = ORIENTED_EDGE ( 'NONE', *, *, #172, .T. ) ;
#97 = FACE_OUTER_BOUND ( 'NONE', #123, .T. ) ;
#98 = SURFACE_SIDE_STYLE ('',( #302 ) ) ;
#99 = VERTEX_POINT ( 'NONE', #191 ) ;
#100 =( NAMED_UNIT ( * ) SI_UNIT ( $, .STERADIAN. ) SOLID_ANGLE_UNIT ( ) );
#101 = VERTEX_POINT ( 'NONE', #23 ) ;
#102 = AXIS2_PLACEMENT_3D ( 'NONE', #298, #114, #193 ) ;
#103 = UNCERTAINTY_MEASURE_WITH_UNIT (LENGTH_MEASURE( 1.000000000000000082E-05 ), #74, 'distance_accuracy_value', 'NONE');
#104 = DIRECTION ( 'NONE',  ( 0.000000000000000000, -0.000000000000000000, 1.000000000000000000 ) ) ;
#105 = SURFACE_STYLE_USAGE ( .BOTH. , #218 ) ;
#106 = AXIS2_PLACEMENT_3D ( 'NONE', #37, #134, #62 ) ;
#107 = PRESENTATION_STYLE_ASSIGNMENT (( #10 ) ) ;
#108 = CARTESIAN_POINT ( 'NONE',  ( 0.000000000000000000, 0.000000000000000000, 0.000000000000000000 ) ) ;
#109 = DIRECTION ( 'NONE',  ( -3.061616997868386099E-17, 1.000000000000000000, -0.000000000000000000 ) ) ;
#110 = PRESENTATION_LAYER_ASSIGNMENT (  '', '', ( #265 ) ) ;
#111 = DIRECTION ( 'NONE',  ( 0.000000000000000000, 0.000000000000000000, -1.000000000000000000 ) ) ;
#112 = AXIS2_PLACEMENT_3D ( 'NONE', #165, #214, #303 ) ;
#113 = PRODUCT_DEFINITION ( 'UNKNOWN', '', #6, #12 ) ;
#114 = DIRECTION ( 'NONE',  ( -3.061616997868386099E-17, 1.000000000000000000, -0.000000000000000000 ) ) ;
#115 = LENGTH_MEASURE_WITH_UNIT ( LENGTH_MEASURE( 0.02539999999999999897 ), #181 );
#116 = PRESENTATION_STYLE_ASSIGNMENT (( #283 ) ) ;
#117 = ADVANCED_FACE ( 'NONE', ( #233 ), #120, .T. ) ;
#118 = STYLED_ITEM ( 'NONE', ( #167 ), #129 ) ;
#119 =( CONVERSION_BASED_UNIT ( 'INCH', #44 ) LENGTH_UNIT ( ) NAMED_UNIT ( #65 ) );
#120 = CYLINDRICAL_SURFACE ( 'NONE', #112, 0.1250000000000000000 ) ;
#121 = ORIENTED_EDGE ( 'NONE', *, *, #250, .T. ) ;
#122 = EDGE_LOOP ( 'NONE', ( #147, #199 ) ) ;
#123 = EDGE_LOOP ( 'NONE', ( #94, #96, #71, #287 ) ) ;
#124 = CIRCLE ( 'NONE', #45, 0.1250000000000000555 ) ;
#125 = CARTESIAN_POINT ( 'NONE',  ( 0.000000000000000000, 1.000000000000000000, 0.000000000000000000 ) ) ;
#126 = APPLICATION_CONTEXT ( 'automotive_design' ) ;
#127 = UNCERTAINTY_MEASURE_WITH_UNIT (LENGTH_MEASURE( 1.000000000000000082E-05 ), #119, 'distance_accuracy_value', 'NONE');
#128 = SURFACE_STYLE_FILL_AREA ( #153 ) ;
#129 = ADVANCED_FACE ( 'NONE', ( #163 ), #234, .T. ) ;
#130 = FILL_AREA_STYLE ('',( #133 ) ) ;
#131 = COLOUR_RGB ( '',1.000000000000000000, 0.000000000000000000, 0.000000000000000000 ) ;
#132 =( NAMED_UNIT ( * ) PLANE_ANGLE_UNIT ( ) SI_UNIT ( $, .RADIAN. ) );
#133 = FILL_AREA_STYLE_COLOUR ( '', #300 ) ;
#134 = DIRECTION ( 'NONE',  ( -0.000000000000000000, -1.000000000000000000, -0.000000000000000000 ) ) ;
#135 = DIRECTION ( 'NONE',  ( -1.000000000000000000, 0.000000000000000000, 0.000000000000000000 ) ) ;
#136 =( GEOMETRIC_REPRESENTATION_CONTEXT ( 3 ) GLOBAL_UNCERTAINTY_ASSIGNED_CONTEXT ( ( #202 ) ) GLOBAL_UNIT_ASSIGNED_CONTEXT ( ( #291, #51, #169 ) ) REPRESENTATION_CONTEXT ( 'NONE', 'WORKASPACE' ) );
#137 = CARTESIAN_POINT ( 'NONE',  ( 0.000000000000000000, 0.000000000000000000, -0.1250000000000000000 ) ) ;
#138 = ORIENTED_EDGE ( 'NONE', *, *, #293, .T. ) ;
#139 = CARTESIAN_POINT ( 'NONE',  ( 1.530808498934191201E-17, 1.000000000000000000, 0.1249999999999999861 ) ) ;
#140 = SURFACE_SIDE_STYLE ('',( #144 ) ) ;
#141 = MECHANICAL_DESIGN_GEOMETRIC_PRESENTATION_REPRESENTATION (  '', ( #210 ), #309 ) ;
#142 = ADVANCED_FACE ( 'NONE', ( #201 ), #174, .F. ) ;
#143 = CARTESIAN_POINT ( 'NONE',  ( 0.000000000000000000, 1.000000000000000000, -0.1249999999999999861 ) ) ;
#144 = SURFACE_STYLE_FILL_AREA ( #43 ) ;
#145 = COLOUR_RGB ( '',0.7921568627450980005, 0.8196078431372548767, 0.9333333333333333481 ) ;
#146 = ORIENTED_EDGE ( 'NONE', *, *, #281, .T. ) ;
#147 = ORIENTED_EDGE ( 'NONE', *, *, #250, .F. ) ;
#148 = DIRECTION ( 'NONE',  ( 3.061616997868386099E-17, -1.000000000000000000, 0.000000000000000000 ) ) ;
#149 = EDGE_LOOP ( 'NONE', ( #60, #84, #24, #49 ) ) ;
#150 = DIRECTION ( 'NONE',  ( 0.000000000000000000, 0.000000000000000000, -1.000000000000000000 ) ) ;
#151 = STYLED_ITEM ( 'NONE', ( #116 ), #117 ) ;
#152 = CARTESIAN_POINT ( 'NONE',  ( 0.1250000000000000000, 1.000000000000000000, 1.530808498934192125E-17 ) ) ;
#153 = FILL_AREA_STYLE ('',( #271 ) ) ;
#154 = CARTESIAN_POINT ( 'NONE',  ( 7.582401355855259480E-33, 1.000000000000000000, 0.000000000000000000 ) ) ;
#155 = ADVANCED_FACE ( 'NONE', ( #269 ), #270, .T. ) ;
#156 = PLANE ( 'NONE',  #276 ) ;
#157 = CARTESIAN_POINT ( 'NONE',  ( 0.000000000000000000, 1.000000000000000000, 0.000000000000000000 ) ) ;
#158 = CIRCLE ( 'NONE', #198, 0.1250000000000000555 ) ;
#159 = DIRECTION ( 'NONE',  ( 0.000000000000000000, -1.000000000000000000, -0.000000000000000000 ) ) ;
#160 = CARTESIAN_POINT ( 'NONE',  ( -6.123233995736772199E-17, 3.000000000000000444, 0.000000000000000000 ) ) ;
#161 =( NAMED_UNIT ( * ) PLANE_ANGLE_UNIT ( ) SI_UNIT ( $, .RADIAN. ) );
#162 = CLOSED_SHELL ( 'NONE', ( #155, #129, #117, #39 ) ) ;
#163 = FACE_OUTER_BOUND ( 'NONE', #122, .T. ) ;
#164 = DIRECTION ( 'NONE',  ( -3.061616997868386099E-17, 1.000000000000000000, -0.000000000000000000 ) ) ;
#165 = CARTESIAN_POINT ( 'NONE',  ( 0.000000000000000000, 0.000000000000000000, 0.000000000000000000 ) ) ;
#166 = AXIS2_PLACEMENT_3D ( 'NONE', #157, #240, #104 ) ;
#167 = PRESENTATION_STYLE_ASSIGNMENT (( #42 ) ) ;
#168 =( NAMED_UNIT ( * ) PLANE_ANGLE_UNIT ( ) SI_UNIT ( $, .RADIAN. ) );
#169 =( NAMED_UNIT ( * ) SI_UNIT ( $, .STERADIAN. ) SOLID_ANGLE_UNIT ( ) );
#170 =( NAMED_UNIT ( * ) SI_UNIT ( $, .STERADIAN. ) SOLID_ANGLE_UNIT ( ) );
#171 = ORIENTED_EDGE ( 'NONE', *, *, #57, .T. ) ;
#172 = EDGE_CURVE ( 'NONE', #306, #286, #295, .T. ) ;
#173 = ORIENTED_EDGE ( 'NONE', *, *, #216, .T. ) ;
#174 = PLANE ( 'NONE',  #288 ) ;
#175 = DIRECTION ( 'NONE',  ( 0.000000000000000000, 0.000000000000000000, 1.000000000000000000 ) ) ;
#176 = CARTESIAN_POINT ( 'NONE',  ( 0.000000000000000000, 0.000000000000000000, 0.000000000000000000 ) ) ;
#177 = SHAPE_DEFINITION_REPRESENTATION ( #231, #17 ) ;
#178 =( GEOMETRIC_REPRESENTATION_CONTEXT ( 3 ) GLOBAL_UNCERTAINTY_ASSIGNED_CONTEXT ( ( #294 ) ) GLOBAL_UNIT_ASSIGNED_CONTEXT ( ( #207, #161, #85 ) ) REPRESENTATION_CONTEXT ( 'NONE', 'WORKASPACE' ) );
#179 = CARTESIAN_POINT ( 'NONE',  ( 0.000000000000000000, 0.000000000000000000, 0.000000000000000000 ) ) ;
#180 =( NAMED_UNIT ( * ) SI_UNIT ( $, .STERADIAN. ) SOLID_ANGLE_UNIT ( ) );
#181 =( LENGTH_UNIT ( ) NAMED_UNIT ( * ) SI_UNIT ( $, .METRE. ) );
#182 = DIRECTION ( 'NONE',  ( -1.000000000000000000, 0.000000000000000000, 0.000000000000000000 ) ) ;
#183 = VERTEX_POINT ( 'NONE', #28 ) ;
#184 = CARTESIAN_POINT ( 'NONE',  ( 0.000000000000000000, 0.000000000000000000, 0.000000000000000000 ) ) ;
#185 = PLANE ( 'NONE',  #86 ) ;
#186 = FILL_AREA_STYLE_COLOUR ( '', #279 ) ;
#187 = EDGE_CURVE ( 'NONE', #274, #61, #194, .T. ) ;
#188 = MECHANICAL_DESIGN_GEOMETRIC_PRESENTATION_REPRESENTATION (  '', ( #151 ), #5 ) ;
#189 = PRESENTATION_STYLE_ASSIGNMENT (( #105 ) ) ;
#190 = APPLICATION_CONTEXT ( 'automotive_design' ) ;
#191 = CARTESIAN_POINT ( 'NONE',  ( -0.1249999999999999861, 1.000000000000000000, 0.000000000000000000 ) ) ;
#192 = DIMENSIONAL_EXPONENTS ( 1.000000000000000000, 0.000000000000000000, 0.000000000000000000, 0.000000000000000000, 0.000000000000000000, 0.000000000000000000, 0.000000000000000000 ) ;
#193 = DIRECTION ( 'NONE',  ( -1.000000000000000000, 0.000000000000000000, 0.000000000000000000 ) ) ;
#194 = CIRCLE ( 'NONE', #63, 0.1249999999999999861 ) ;
#195 =( NAMED_UNIT ( * ) PLANE_ANGLE_UNIT ( ) SI_UNIT ( $, .RADIAN. ) );
#196 = LINE ( 'NONE', #93, #72 ) ;
#197 = FILL_AREA_STYLE_COLOUR ( '', #145 ) ;
#198 = AXIS2_PLACEMENT_3D ( 'NONE', #160, #254, #36 ) ;
#199 = ORIENTED_EDGE ( 'NONE', *, *, #187, .F. ) ;
#200 = CARTESIAN_POINT ( 'NONE',  ( 0.000000000000000000, 0.000000000000000000, 0.000000000000000000 ) ) ;
#201 = FACE_OUTER_BOUND ( 'NONE', #47, .T. ) ;
#202 = UNCERTAINTY_MEASURE_WITH_UNIT (LENGTH_MEASURE( 1.000000000000000082E-05 ), #291, 'distance_accuracy_value', 'NONE');
#203 = AXIS2_PLACEMENT_3D ( 'NONE', #14, #277, #88 ) ;
#204 = LENGTH_MEASURE_WITH_UNIT ( LENGTH_MEASURE( 0.02539999999999999897 ), #81 );
#205 = CARTESIAN_POINT ( 'NONE',  ( -6.123233995736772199E-17, 3.000000000000000444, 0.000000000000000000 ) ) ;
#206 = DIRECTION ( 'NONE',  ( 0.000000000000000000, 0.000000000000000000, -1.000000000000000000 ) ) ;
#207 =( CONVERSION_BASED_UNIT ( 'INCH', #40 ) LENGTH_UNIT ( ) NAMED_UNIT ( #227 ) );
#208 = VECTOR ( 'NONE', #242, 39.37007874015748143 ) ;
#209 = LINE ( 'NONE', #92, #58 ) ;
#210 = STYLED_ITEM ( 'NONE', ( #107 ), #155 ) ;
#211 = SURFACE_STYLE_FILL_AREA ( #239 ) ;
#212 =( CONVERSION_BASED_UNIT ( 'INCH', #301 ) LENGTH_UNIT ( ) NAMED_UNIT ( #299 ) );
#213 = MECHANICAL_DESIGN_GEOMETRIC_PRESENTATION_REPRESENTATION (  '', ( #265 ), #18 ) ;
#214 = DIRECTION ( 'NONE',  ( -0.000000000000000000, -1.000000000000000000, -0.000000000000000000 ) ) ;
#215 = MANIFOLD_SOLID_BREP ( 'Revolve - Tool Body (Straight Shanked)', #220 ) ;
#216 = EDGE_CURVE ( 'NONE', #264, #101, #38, .T. ) ;
#217 = COLOUR_RGB ( '',0.7921568627450980005, 0.8196078431372548767, 0.9333333333333333481 ) ;
#218 = SURFACE_SIDE_STYLE ('',( #128 ) ) ;
#219 = SURFACE_STYLE_FILL_AREA ( #130 ) ;
#220 = CLOSED_SHELL ( 'NONE', ( #83, #142, #285, #26 ) ) ;
#221 = AXIS2_PLACEMENT_3D ( 'NONE', #184, #296, #13 ) ;
#222 = SURFACE_SIDE_STYLE ('',( #219 ) ) ;
#223 = FILL_AREA_STYLE ('',( #186 ) ) ;
#224 = CARTESIAN_POINT ( 'NONE',  ( -0.1250000000000000833, 3.000000000000000444, 0.000000000000000000 ) ) ;
#225 = MECHANICAL_DESIGN_GEOMETRIC_PRESENTATION_REPRESENTATION (  '', ( #68 ), #178 ) ;
#226 =( LENGTH_UNIT ( ) NAMED_UNIT ( * ) SI_UNIT ( $, .METRE. ) );
#227 = DIMENSIONAL_EXPONENTS ( 1.000000000000000000, 0.000000000000000000, 0.000000000000000000, 0.000000000000000000, 0.000000000000000000, 0.000000000000000000, 0.000000000000000000 ) ;
#228 =( LENGTH_UNIT ( ) NAMED_UNIT ( * ) SI_UNIT ( $, .METRE. ) );
#229 = DIRECTION ( 'NONE',  ( -0.000000000000000000, -1.000000000000000000, -0.000000000000000000 ) ) ;
#230 = STYLED_ITEM ( 'NONE', ( #249 ), #305 ) ;
#231 = PRODUCT_DEFINITION_SHAPE ( 'NONE', 'NONE',  #113 ) ;
#232 = ORIENTED_EDGE ( 'NONE', *, *, #236, .F. ) ;
#233 = FACE_OUTER_BOUND ( 'NONE', #266, .T. ) ;
#234 = PLANE ( 'NONE',  #166 ) ;
#235 = DIRECTION ( 'NONE',  ( -0.000000000000000000, -1.000000000000000000, -0.000000000000000000 ) ) ;
#236 = EDGE_CURVE ( 'NONE', #306, #99, #22, .T. ) ;
#237 = CIRCLE ( 'NONE', #106, 0.1249999999999999861 ) ;
#238 =( GEOMETRIC_REPRESENTATION_CONTEXT ( 3 ) GLOBAL_UNCERTAINTY_ASSIGNED_CONTEXT ( ( #8 ) ) GLOBAL_UNIT_ASSIGNED_CONTEXT ( ( #55, #25, #272 ) ) REPRESENTATION_CONTEXT ( 'NONE', 'WORKASPACE' ) );
#239 = FILL_AREA_STYLE ('',( #197 ) ) ;
#240 = DIRECTION ( 'NONE',  ( 0.000000000000000000, 1.000000000000000000, 0.000000000000000000 ) ) ;
#241 = ORIENTED_EDGE ( 'NONE', *, *, #263, .T. ) ;
#242 = DIRECTION ( 'NONE',  ( -3.061616997868386099E-17, 1.000000000000000000, -0.000000000000000000 ) ) ;
#243 = DIRECTION ( 'NONE',  ( 1.000000000000000000, 0.000000000000000000, 0.000000000000000000 ) ) ;
#244 = UNCERTAINTY_MEASURE_WITH_UNIT (LENGTH_MEASURE( 1.000000000000000082E-05 ), #32, 'distance_accuracy_value', 'NONE');
#245 = CARTESIAN_POINT ( 'NONE',  ( 0.1249999999999999861, 3.000000000000000444, 0.000000000000000000 ) ) ;
#246 = DIRECTION ( 'NONE',  ( 1.000000000000000000, 3.061616997868386099E-17, 0.000000000000000000 ) ) ;
#247 = SURFACE_SIDE_STYLE ('',( #211 ) ) ;
#248 = ORIENTED_EDGE ( 'NONE', *, *, #308, .F. ) ;
#249 = PRESENTATION_STYLE_ASSIGNMENT (( #30 ) ) ;
#250 = EDGE_CURVE ( 'NONE', #61, #274, #237, .T. ) ;
#251 = COLOUR_RGB ( '',1.000000000000000000, 0.000000000000000000, 0.000000000000000000 ) ;
#252 = PRESENTATION_LAYER_ASSIGNMENT (  '', '', ( #210 ) ) ;
#253 = MECHANICAL_DESIGN_GEOMETRIC_PRESENTATION_REPRESENTATION (  '', ( #230 ), #136 ) ;
#254 = DIRECTION ( 'NONE',  ( -3.061616997868386099E-17, 1.000000000000000000, -0.000000000000000000 ) ) ;
#255 = SURFACE_SIDE_STYLE ('',( #90 ) ) ;
#256 = PRESENTATION_STYLE_ASSIGNMENT (( #280 ) ) ;
#257 = LINE ( 'NONE', #224, #69 ) ;
#258 =( GEOMETRIC_REPRESENTATION_CONTEXT ( 3 ) GLOBAL_UNCERTAINTY_ASSIGNED_CONTEXT ( ( #127 ) ) GLOBAL_UNIT_ASSIGNED_CONTEXT ( ( #119, #195, #100 ) ) REPRESENTATION_CONTEXT ( 'NONE', 'WORKASPACE' ) );
#259 = PRESENTATION_LAYER_ASSIGNMENT (  '', '', ( #230 ) ) ;
#260 = EDGE_CURVE ( 'NONE', #99, #183, #257, .T. ) ;
#261 = FILL_AREA_STYLE_COLOUR ( '', #131 ) ;
#262 = AXIS2_PLACEMENT_3D ( 'NONE', #200, #175, #243 ) ;
#263 = EDGE_CURVE ( 'NONE', #101, #264, #290, .T. ) ;
#264 = VERTEX_POINT ( 'NONE', #137 ) ;
#265 = STYLED_ITEM ( 'NONE', ( #256 ), #39 ) ;
#266 = EDGE_LOOP ( 'NONE', ( #75, #53, #171, #278 ) ) ;
#267 = EDGE_LOOP ( 'NONE', ( #304, #138 ) ) ;
#268 = FACE_OUTER_BOUND ( 'NONE', #267, .T. ) ;
#269 = FACE_OUTER_BOUND ( 'NONE', #4, .T. ) ;
#270 = CYLINDRICAL_SURFACE ( 'NONE', #41, 0.1250000000000000000 ) ;
#271 = FILL_AREA_STYLE_COLOUR ( '', #217 ) ;
#272 =( NAMED_UNIT ( * ) SI_UNIT ( $, .STERADIAN. ) SOLID_ANGLE_UNIT ( ) );
#273 = CARTESIAN_POINT ( 'NONE',  ( 0.1249999999999999445, 3.000000000000000444, 1.530808498934191817E-17 ) ) ;
#274 = VERTEX_POINT ( 'NONE', #139 ) ;
#275 = CARTESIAN_POINT ( 'NONE',  ( 0.1250000000000000000, 3.000000000000000444, 1.530808498934192125E-17 ) ) ;
#276 = AXIS2_PLACEMENT_3D ( 'NONE', #245, #148, #246 ) ;
#277 = DIRECTION ( 'NONE',  ( -3.061616997868386099E-17, 1.000000000000000000, -0.000000000000000000 ) ) ;
#278 = ORIENTED_EDGE ( 'NONE', *, *, #263, .F. ) ;
#279 = COLOUR_RGB ( '',1.000000000000000000, 0.000000000000000000, 0.000000000000000000 ) ;
#280 = SURFACE_STYLE_USAGE ( .BOTH. , #255 ) ;
#281 = EDGE_CURVE ( 'NONE', #274, #101, #209, .T. ) ;
#282 = PRODUCT ( '03182', '03182', '', ( #29 ) ) ;
#283 = SURFACE_STYLE_USAGE ( .BOTH. , #140 ) ;
#284 = DIMENSIONAL_EXPONENTS ( 1.000000000000000000, 0.000000000000000000, 0.000000000000000000, 0.000000000000000000, 0.000000000000000000, 0.000000000000000000, 0.000000000000000000 ) ;
#285 = ADVANCED_FACE ( 'NONE', ( #15 ), #64, .T. ) ;
#286 = VERTEX_POINT ( 'NONE', #275 ) ;
#287 = ORIENTED_EDGE ( 'NONE', *, *, #260, .F. ) ;
#288 = AXIS2_PLACEMENT_3D ( 'NONE', #31, #34, #3 ) ;
#289 = AXIS2_PLACEMENT_3D ( 'NONE', #154, #109, #89 ) ;
#290 = CIRCLE ( 'NONE', #221, 0.1250000000000000000 ) ;
#291 =( CONVERSION_BASED_UNIT ( 'INCH', #115 ) LENGTH_UNIT ( ) NAMED_UNIT ( #284 ) );
#292 = CIRCLE ( 'NONE', #289, 0.1249999999999999861 ) ;
#293 = EDGE_CURVE ( 'NONE', #286, #183, #158, .T. ) ;
#294 = UNCERTAINTY_MEASURE_WITH_UNIT (LENGTH_MEASURE( 1.000000000000000082E-05 ), #207, 'distance_accuracy_value', 'NONE');
#295 = LINE ( 'NONE', #273, #208 ) ;
#296 = DIRECTION ( 'NONE',  ( -0.000000000000000000, -1.000000000000000000, -0.000000000000000000 ) ) ;
#297 = PRESENTATION_LAYER_ASSIGNMENT (  '', '', ( #118 ) ) ;
#298 = CARTESIAN_POINT ( 'NONE',  ( -6.123233995736772199E-17, 3.000000000000000444, 0.000000000000000000 ) ) ;
#299 = DIMENSIONAL_EXPONENTS ( 1.000000000000000000, 0.000000000000000000, 0.000000000000000000, 0.000000000000000000, 0.000000000000000000, 0.000000000000000000, 0.000000000000000000 ) ;
#300 = COLOUR_RGB ( '',1.000000000000000000, 0.000000000000000000, 0.000000000000000000 ) ;
#301 = LENGTH_MEASURE_WITH_UNIT ( LENGTH_MEASURE( 0.02539999999999999897 ), #67 );
#302 = SURFACE_STYLE_FILL_AREA ( #95 ) ;
#303 = DIRECTION ( 'NONE',  ( 0.000000000000000000, 0.000000000000000000, -1.000000000000000000 ) ) ;
#304 = ORIENTED_EDGE ( 'NONE', *, *, #46, .T. ) ;
#305 = MANIFOLD_SOLID_BREP ( 'Revolve - Cutting Edge', #162 ) ;
#306 = VERTEX_POINT ( 'NONE', #152 ) ;
#307 = APPLICATION_PROTOCOL_DEFINITION ( 'draft international standard', 'automotive_design', 1998, #126 ) ;
#308 = EDGE_CURVE ( 'NONE', #99, #306, #292, .T. ) ;
#309 =( GEOMETRIC_REPRESENTATION_CONTEXT ( 3 ) GLOBAL_UNCERTAINTY_ASSIGNED_CONTEXT ( ( #103 ) ) GLOBAL_UNIT_ASSIGNED_CONTEXT ( ( #74, #7, #180 ) ) REPRESENTATION_CONTEXT ( 'NONE', 'WORKASPACE' ) );
ENDSEC;
END-ISO-10303-21;
