ISO-10303-21;
HEADER;
FILE_DESCRIPTION (( 'STEP AP214' ),
    '1' );
FILE_NAME ('56497.STEP',
    '2023-06-30T22:09:19',
    ( '' ),
    ( '' ),
    'SwSTEP 2.0',
    'SolidWorks 2023',
    '' );
FILE_SCHEMA (( 'AUTOMOTIVE_DESIGN' ));
ENDSEC;

DATA;
#1 = DIRECTION ( 'NONE',  ( -1.205004597867860846E-16, 1.000000000000000000, -0.000000000000000000 ) ) ;
#2 = UNCERTAINTY_MEASURE_WITH_UNIT (LENGTH_MEASURE( 1.000000000000000082E-05 ), #349, 'distance_accuracy_value', 'NONE');
#3 = DIRECTION ( 'NONE',  ( 1.000000000000000000, 0.000000000000000000, -1.224646799147353207E-16 ) ) ;
#4 = VECTOR ( 'NONE', #336, 39.37007874015748143 ) ;
#5 = CARTESIAN_POINT ( 'NONE',  ( 0.000000000000000000, 0.6250000000000000000, 0.000000000000000000 ) ) ;
#6 = EDGE_CURVE ( 'NONE', #12, #166, #192, .T. ) ;
#7 = VERTEX_POINT ( 'NONE', #322 ) ;
#8 =( NAMED_UNIT ( * ) SI_UNIT ( $, .STERADIAN. ) SOLID_ANGLE_UNIT ( ) );
#9 = DIMENSIONAL_EXPONENTS ( 1.000000000000000000, 0.000000000000000000, 0.000000000000000000, 0.000000000000000000, 0.000000000000000000, 0.000000000000000000, 0.000000000000000000 ) ;
#10 = EDGE_CURVE ( 'NONE', #301, #7, #257, .T. ) ;
#11 =( GEOMETRIC_REPRESENTATION_CONTEXT ( 3 ) GLOBAL_UNCERTAINTY_ASSIGNED_CONTEXT ( ( #32 ) ) GLOBAL_UNIT_ASSIGNED_CONTEXT ( ( #23, #120, #188 ) ) REPRESENTATION_CONTEXT ( 'NONE', 'WORKASPACE' ) );
#12 = VERTEX_POINT ( 'NONE', #168 ) ;
#13 = DIRECTION ( 'NONE',  ( -1.205004597867860846E-16, 1.000000000000000000, 0.000000000000000000 ) ) ;
#14 =( NAMED_UNIT ( * ) SI_UNIT ( $, .STERADIAN. ) SOLID_ANGLE_UNIT ( ) );
#15 = DIRECTION ( 'NONE',  ( -0.000000000000000000, -1.000000000000000000, -0.000000000000000000 ) ) ;
#16 = FACE_OUTER_BOUND ( 'NONE', #102, .T. ) ;
#17 = ADVANCED_FACE ( 'NONE', ( #234 ), #267, .T. ) ;
#18 = LINE ( 'NONE', #279, #332 ) ;
#19 = APPLICATION_CONTEXT ( 'automotive_design' ) ;
#20 = CLOSED_SHELL ( 'NONE', ( #145, #17, #329, #159, #118 ) ) ;
#21 =( GEOMETRIC_REPRESENTATION_CONTEXT ( 3 ) GLOBAL_UNCERTAINTY_ASSIGNED_CONTEXT ( ( #53 ) ) GLOBAL_UNIT_ASSIGNED_CONTEXT ( ( #334, #43, #296 ) ) REPRESENTATION_CONTEXT ( 'NONE', 'WORKASPACE' ) );
#22 = AXIS2_PLACEMENT_3D ( 'NONE', #224, #1, #312 ) ;
#23 =( CONVERSION_BASED_UNIT ( 'INCH', #255 ) LENGTH_UNIT ( ) NAMED_UNIT ( #190 ) );
#24 = CARTESIAN_POINT ( 'NONE',  ( 0.2499999999999999167, 0.6250000000000000000, 3.061616997868379936E-17 ) ) ;
#25 = LENGTH_MEASURE_WITH_UNIT ( LENGTH_MEASURE( 0.02539999999999999897 ), #189 );
#26 = DIRECTION ( 'NONE',  ( -1.000000000000000000, 0.000000000000000000, 0.000000000000000000 ) ) ;
#27 = CIRCLE ( 'NONE', #343, 0.2500000000000000000 ) ;
#28 = MECHANICAL_DESIGN_GEOMETRIC_PRESENTATION_REPRESENTATION (  '', ( #96 ), #298 ) ;
#29 = FACE_OUTER_BOUND ( 'NONE', #49, .T. ) ;
#30 =( NAMED_UNIT ( * ) SI_UNIT ( $, .STERADIAN. ) SOLID_ANGLE_UNIT ( ) );
#31 = ORIENTED_EDGE ( 'NONE', *, *, #94, .T. ) ;
#32 = UNCERTAINTY_MEASURE_WITH_UNIT (LENGTH_MEASURE( 1.000000000000000082E-05 ), #23, 'distance_accuracy_value', 'NONE');
#33 = DIRECTION ( 'NONE',  ( -1.205004597867860846E-16, 1.000000000000000000, -0.000000000000000000 ) ) ;
#34 = ADVANCED_FACE ( 'NONE', ( #178 ), #44, .T. ) ;
#35 = ORIENTED_EDGE ( 'NONE', *, *, #177, .F. ) ;
#36 = ORIENTED_EDGE ( 'NONE', *, *, #205, .T. ) ;
#37 = PRESENTATION_LAYER_ASSIGNMENT (  '', '', ( #251 ) ) ;
#38 = COLOUR_RGB ( '',1.000000000000000000, 0.000000000000000000, 0.000000000000000000 ) ;
#39 = ORIENTED_EDGE ( 'NONE', *, *, #87, .T. ) ;
#40 = CARTESIAN_POINT ( 'NONE',  ( 1.224646799147353207E-16, 2.500000000000000000, 0.000000000000000000 ) ) ;
#41 = FACE_OUTER_BOUND ( 'NONE', #106, .T. ) ;
#42 = UNCERTAINTY_MEASURE_WITH_UNIT (LENGTH_MEASURE( 1.000000000000000082E-05 ), #109, 'distance_accuracy_value', 'NONE');
#43 =( NAMED_UNIT ( * ) PLANE_ANGLE_UNIT ( ) SI_UNIT ( $, .RADIAN. ) );
#44 = CYLINDRICAL_SURFACE ( 'NONE', #112, 0.2499999999999996947 ) ;
#45 = DIRECTION ( 'NONE',  ( -0.000000000000000000, -1.000000000000000000, -0.000000000000000000 ) ) ;
#46 = DIRECTION ( 'NONE',  ( 1.000000000000000000, 1.205004597867860846E-16, 0.000000000000000000 ) ) ;
#47 = SURFACE_STYLE_FILL_AREA ( #115 ) ;
#48 = DIRECTION ( 'NONE',  ( 0.000000000000000000, 0.000000000000000000, 1.000000000000000000 ) ) ;
#49 = EDGE_LOOP ( 'NONE', ( #172, #104, #31, #368, #295 ) ) ;
#50 = CARTESIAN_POINT ( 'NONE',  ( 0.000000000000000000, 0.2500000000000000000, 0.000000000000000000 ) ) ;
#51 = COLOUR_RGB ( '',1.000000000000000000, 0.000000000000000000, 0.000000000000000000 ) ;
#52 = CARTESIAN_POINT ( 'NONE',  ( 3.061616997868382402E-17, 0.6250000000000000000, 0.2499999999999999167 ) ) ;
#53 = UNCERTAINTY_MEASURE_WITH_UNIT (LENGTH_MEASURE( 1.000000000000000082E-05 ), #334, 'distance_accuracy_value', 'NONE');
#54 = DIRECTION ( 'NONE',  ( 0.000000000000000000, 1.000000000000000000, 0.000000000000000000 ) ) ;
#55 = FILL_AREA_STYLE ('',( #287 ) ) ;
#56 = COLOUR_RGB ( '',0.7921568627450980005, 0.8196078431372548767, 0.9333333333333333481 ) ;
#57 = ORIENTED_EDGE ( 'NONE', *, *, #241, .T. ) ;
#58 =( NAMED_UNIT ( * ) PLANE_ANGLE_UNIT ( ) SI_UNIT ( $, .RADIAN. ) );
#59 = CARTESIAN_POINT ( 'NONE',  ( -1.530808498934191509E-17, 0.000000000000000000, 0.000000000000000000 ) ) ;
#60 = DIRECTION ( 'NONE',  ( 1.000000000000000000, 0.000000000000000000, 0.000000000000000000 ) ) ;
#61 = COLOUR_RGB ( '',1.000000000000000000, 0.000000000000000000, 0.000000000000000000 ) ;
#62 = COLOUR_RGB ( '',0.7921568627450980005, 0.8196078431372548767, 0.9333333333333333481 ) ;
#63 = DIMENSIONAL_EXPONENTS ( 1.000000000000000000, 0.000000000000000000, 0.000000000000000000, 0.000000000000000000, 0.000000000000000000, 0.000000000000000000, 0.000000000000000000 ) ;
#64 = ADVANCED_FACE ( 'NONE', ( #16 ), #333, .F. ) ;
#65 = CARTESIAN_POINT ( 'NONE',  ( 0.000000000000000000, 0.000000000000000000, 0.000000000000000000 ) ) ;
#66 = ORIENTED_EDGE ( 'NONE', *, *, #10, .F. ) ;
#67 = UNCERTAINTY_MEASURE_WITH_UNIT (LENGTH_MEASURE( 1.000000000000000082E-05 ), #285, 'distance_accuracy_value', 'NONE');
#68 = SHAPE_DEFINITION_REPRESENTATION ( #90, #183 ) ;
#69 = DIRECTION ( 'NONE',  ( -1.205004597867860846E-16, 1.000000000000000000, -0.000000000000000000 ) ) ;
#70 = ORIENTED_EDGE ( 'NONE', *, *, #355, .T. ) ;
#71 = SURFACE_STYLE_USAGE ( .BOTH. , #272 ) ;
#72 = ORIENTED_EDGE ( 'NONE', *, *, #305, .F. ) ;
#73 = SURFACE_SIDE_STYLE ('',( #362 ) ) ;
#74 = DIRECTION ( 'NONE',  ( -1.000000000000000000, 0.000000000000000000, 0.000000000000000000 ) ) ;
#75 = VERTEX_POINT ( 'NONE', #273 ) ;
#76 = EDGE_CURVE ( 'NONE', #327, #354, #213, .T. ) ;
#77 = FILL_AREA_STYLE ('',( #357 ) ) ;
#78 = CARTESIAN_POINT ( 'NONE',  ( 1.224646799147353207E-16, 2.500000000000000000, 0.000000000000000000 ) ) ;
#79 = PRODUCT_DEFINITION ( 'UNKNOWN', '', #155, #303 ) ;
#80 = PRESENTATION_STYLE_ASSIGNMENT (( #369 ) ) ;
#81 = CARTESIAN_POINT ( 'NONE',  ( -3.061616997868383018E-17, 0.2500000000000000000, 0.000000000000000000 ) ) ;
#82 = DIRECTION ( 'NONE',  ( -1.205004597867860846E-16, 1.000000000000000000, -0.000000000000000000 ) ) ;
#83 = DIRECTION ( 'NONE',  ( 0.000000000000000000, 0.000000000000000000, -1.000000000000000000 ) ) ;
#84 =( LENGTH_UNIT ( ) NAMED_UNIT ( * ) SI_UNIT ( $, .METRE. ) );
#85 =( GEOMETRIC_REPRESENTATION_CONTEXT ( 3 ) GLOBAL_UNCERTAINTY_ASSIGNED_CONTEXT ( ( #239 ) ) GLOBAL_UNIT_ASSIGNED_CONTEXT ( ( #147, #58, #30 ) ) REPRESENTATION_CONTEXT ( 'NONE', 'WORKASPACE' ) );
#86 = AXIS2_PLACEMENT_3D ( 'NONE', #264, #315, #3 ) ;
#87 = EDGE_CURVE ( 'NONE', #75, #354, #27, .T. ) ;
#88 = PRESENTATION_STYLE_ASSIGNMENT (( #366 ) ) ;
#89 =( LENGTH_UNIT ( ) NAMED_UNIT ( * ) SI_UNIT ( $, .METRE. ) );
#90 = PRODUCT_DEFINITION_SHAPE ( 'NONE', 'NONE',  #79 ) ;
#91 = DIRECTION ( 'NONE',  ( -0.000000000000000000, -1.000000000000000000, -0.000000000000000000 ) ) ;
#92 = FACE_OUTER_BOUND ( 'NONE', #330, .T. ) ;
#93 = SURFACE_STYLE_FILL_AREA ( #55 ) ;
#94 = EDGE_CURVE ( 'NONE', #232, #166, #154, .T. ) ;
#95 = AXIS2_PLACEMENT_3D ( 'NONE', #278, #335, #46 ) ;
#96 = STYLED_ITEM ( 'NONE', ( #196 ), #329 ) ;
#97 = MECHANICAL_DESIGN_GEOMETRIC_PRESENTATION_REPRESENTATION (  '', ( #228 ), #266 ) ;
#98 = CARTESIAN_POINT ( 'NONE',  ( 1.224646799147353207E-16, 2.500000000000000000, 0.000000000000000000 ) ) ;
#99 = FILL_AREA_STYLE_COLOUR ( '', #38 ) ;
#100 = LENGTH_MEASURE_WITH_UNIT ( LENGTH_MEASURE( 0.02539999999999999897 ), #199 );
#101 = LENGTH_MEASURE_WITH_UNIT ( LENGTH_MEASURE( 0.02539999999999999897 ), #197 );
#102 = EDGE_LOOP ( 'NONE', ( #356, #243 ) ) ;
#103 = ORIENTED_EDGE ( 'NONE', *, *, #87, .F. ) ;
#104 = ORIENTED_EDGE ( 'NONE', *, *, #263, .T. ) ;
#105 = DIRECTION ( 'NONE',  ( -0.000000000000000000, -1.000000000000000000, -0.000000000000000000 ) ) ;
#106 = EDGE_LOOP ( 'NONE', ( #72, #215 ) ) ;
#107 = DIRECTION ( 'NONE',  ( 1.000000000000000000, 0.000000000000000000, 0.000000000000000000 ) ) ;
#108 = CIRCLE ( 'NONE', #179, 0.2500000000000000000 ) ;
#109 =( CONVERSION_BASED_UNIT ( 'INCH', #135 ) LENGTH_UNIT ( ) NAMED_UNIT ( #347 ) );
#110 = FACE_OUTER_BOUND ( 'NONE', #229, .T. ) ;
#111 = CARTESIAN_POINT ( 'NONE',  ( 3.061616997868382402E-17, 0.000000000000000000, 0.2499999999999999722 ) ) ;
#112 = AXIS2_PLACEMENT_3D ( 'NONE', #78, #247, #74 ) ;
#113 = CIRCLE ( 'NONE', #22, 0.2499999999999995559 ) ;
#114 =( LENGTH_UNIT ( ) NAMED_UNIT ( * ) SI_UNIT ( $, .METRE. ) );
#115 = FILL_AREA_STYLE ('',( #342 ) ) ;
#116 = STYLED_ITEM ( 'NONE', ( #88 ), #195 ) ;
#117 =( NAMED_UNIT ( * ) SI_UNIT ( $, .STERADIAN. ) SOLID_ANGLE_UNIT ( ) );
#118 = ADVANCED_FACE ( 'NONE', ( #216 ), #340, .T. ) ;
#119 =( GEOMETRIC_REPRESENTATION_CONTEXT ( 3 ) GLOBAL_UNCERTAINTY_ASSIGNED_CONTEXT ( ( #121 ) ) GLOBAL_UNIT_ASSIGNED_CONTEXT ( ( #148, #146, #8 ) ) REPRESENTATION_CONTEXT ( 'NONE', 'WORKASPACE' ) );
#120 =( NAMED_UNIT ( * ) PLANE_ANGLE_UNIT ( ) SI_UNIT ( $, .RADIAN. ) );
#121 = UNCERTAINTY_MEASURE_WITH_UNIT (LENGTH_MEASURE( 1.000000000000000082E-05 ), #148, 'distance_accuracy_value', 'NONE');
#122 = EDGE_LOOP ( 'NONE', ( #36, #70, #235, #39 ) ) ;
#123 = PRESENTATION_LAYER_ASSIGNMENT (  '', '', ( #228 ) ) ;
#124 = PRODUCT_CONTEXT ( 'NONE', #319, 'mechanical' ) ;
#125 = FILL_AREA_STYLE ('',( #99 ) ) ;
#126 = UNCERTAINTY_MEASURE_WITH_UNIT (LENGTH_MEASURE( 1.000000000000000082E-05 ), #187, 'distance_accuracy_value', 'NONE');
#127 = DIRECTION ( 'NONE',  ( 1.000000000000000000, 0.000000000000000000, 0.000000000000000000 ) ) ;
#128 = ORIENTED_EDGE ( 'NONE', *, *, #225, .F. ) ;
#129 = DIRECTION ( 'NONE',  ( -0.000000000000000000, -1.000000000000000000, -0.000000000000000000 ) ) ;
#130 = DIRECTION ( 'NONE',  ( 0.000000000000000000, 0.000000000000000000, -1.000000000000000000 ) ) ;
#131 = PLANE ( 'NONE',  #297 ) ;
#132 = DIRECTION ( 'NONE',  ( -1.000000000000000000, -1.205004597867860846E-16, 0.000000000000000000 ) ) ;
#133 = DIRECTION ( 'NONE',  ( 0.000000000000000000, 0.000000000000000000, -1.000000000000000000 ) ) ;
#134 = PRODUCT ( '56497', '56497', '', ( #124 ) ) ;
#135 = LENGTH_MEASURE_WITH_UNIT ( LENGTH_MEASURE( 0.02539999999999999897 ), #158 );
#136 = COLOUR_RGB ( '',1.000000000000000000, 0.000000000000000000, 0.000000000000000000 ) ;
#137 = SURFACE_SIDE_STYLE ('',( #47 ) ) ;
#138 = AXIS2_PLACEMENT_3D ( 'NONE', #173, #15, #133 ) ;
#139 = PRESENTATION_STYLE_ASSIGNMENT (( #281 ) ) ;
#140 = PLANE ( 'NONE',  #160 ) ;
#141 = VECTOR ( 'NONE', #45, 39.37007874015748143 ) ;
#142 = ADVANCED_FACE ( 'NONE', ( #41 ), #131, .F. ) ;
#143 = DIRECTION ( 'NONE',  ( -1.205004597867860846E-16, 1.000000000000000000, -0.000000000000000000 ) ) ;
#144 = PRESENTATION_LAYER_ASSIGNMENT (  '', '', ( #337 ) ) ;
#145 = ADVANCED_FACE ( 'NONE', ( #245 ), #326, .T. ) ;
#146 =( NAMED_UNIT ( * ) PLANE_ANGLE_UNIT ( ) SI_UNIT ( $, .RADIAN. ) );
#147 =( CONVERSION_BASED_UNIT ( 'INCH', #101 ) LENGTH_UNIT ( ) NAMED_UNIT ( #325 ) );
#148 =( CONVERSION_BASED_UNIT ( 'INCH', #100 ) LENGTH_UNIT ( ) NAMED_UNIT ( #9 ) );
#149 = DIRECTION ( 'NONE',  ( 0.000000000000000000, 0.000000000000000000, -1.000000000000000000 ) ) ;
#150 = PRESENTATION_LAYER_ASSIGNMENT (  '', '', ( #96 ) ) ;
#151 = DIRECTION ( 'NONE',  ( -1.205004597867860846E-16, 1.000000000000000000, -0.000000000000000000 ) ) ;
#152 = FILL_AREA_STYLE_COLOUR ( '', #56 ) ;
#153 = ORIENTED_EDGE ( 'NONE', *, *, #305, .T. ) ;
#154 = LINE ( 'NONE', #308, #141 ) ;
#155 = PRODUCT_DEFINITION_FORMATION_WITH_SPECIFIED_SOURCE ( 'ANY', '', #134, .NOT_KNOWN. ) ;
#156 =( LENGTH_UNIT ( ) NAMED_UNIT ( * ) SI_UNIT ( $, .METRE. ) );
#157 = EDGE_CURVE ( 'NONE', #352, #248, #367, .T. ) ;
#158 =( LENGTH_UNIT ( ) NAMED_UNIT ( * ) SI_UNIT ( $, .METRE. ) );
#159 = ADVANCED_FACE ( 'NONE', ( #29 ), #233, .T. ) ;
#160 = AXIS2_PLACEMENT_3D ( 'NONE', #5, #54, #165 ) ;
#161 = DIRECTION ( 'NONE',  ( 0.000000000000000000, 0.000000000000000000, -1.000000000000000000 ) ) ;
#162 = CARTESIAN_POINT ( 'NONE',  ( 3.484030420149592539E-16, 0.6250000000000000000, 0.000000000000000000 ) ) ;
#163 = MECHANICAL_DESIGN_GEOMETRIC_PRESENTATION_REPRESENTATION (  '', ( #337 ), #265 ) ;
#164 = DIMENSIONAL_EXPONENTS ( 1.000000000000000000, 0.000000000000000000, 0.000000000000000000, 0.000000000000000000, 0.000000000000000000, 0.000000000000000000, 0.000000000000000000 ) ;
#165 = DIRECTION ( 'NONE',  ( 0.000000000000000000, -0.000000000000000000, 1.000000000000000000 ) ) ;
#166 = VERTEX_POINT ( 'NONE', #170 ) ;
#167 = EDGE_CURVE ( 'NONE', #232, #327, #270, .T. ) ;
#168 = CARTESIAN_POINT ( 'NONE',  ( -0.2500000000000000000, 0.2500000000000000000, 3.061616997868382402E-17 ) ) ;
#169 = ORIENTED_EDGE ( 'NONE', *, *, #256, .T. ) ;
#170 = CARTESIAN_POINT ( 'NONE',  ( 0.000000000000000000, 0.2500000000000000000, -0.2500000000000000000 ) ) ;
#171 = ORIENTED_EDGE ( 'NONE', *, *, #256, .F. ) ;
#172 = ORIENTED_EDGE ( 'NONE', *, *, #76, .F. ) ;
#173 = CARTESIAN_POINT ( 'NONE',  ( 0.000000000000000000, 0.000000000000000000, 0.000000000000000000 ) ) ;
#174 = CARTESIAN_POINT ( 'NONE',  ( 0.000000000000000000, 0.2500000000000000000, 0.000000000000000000 ) ) ;
#175 = SURFACE_STYLE_FILL_AREA ( #77 ) ;
#176 = FILL_AREA_STYLE ('',( #304 ) ) ;
#177 = EDGE_CURVE ( 'NONE', #7, #301, #338, .T. ) ;
#178 = FACE_OUTER_BOUND ( 'NONE', #206, .T. ) ;
#179 = AXIS2_PLACEMENT_3D ( 'NONE', #50, #253, #83 ) ;
#180 = LENGTH_MEASURE_WITH_UNIT ( LENGTH_MEASURE( 0.02539999999999999897 ), #156 );
#181 = SURFACE_SIDE_STYLE ('',( #237 ) ) ;
#182 = DIRECTION ( 'NONE',  ( -1.000000000000000000, 0.000000000000000000, 0.000000000000000000 ) ) ;
#183 = ADVANCED_BREP_SHAPE_REPRESENTATION ( '56497', ( #195, #201, #283 ), #11 ) ;
#184 = STYLED_ITEM ( 'NONE', ( #277 ), #159 ) ;
#185 = CARTESIAN_POINT ( 'NONE',  ( -3.061616997868383018E-17, 0.2500000000000000000, 0.000000000000000000 ) ) ;
#186 = AXIS2_PLACEMENT_3D ( 'NONE', #302, #129, #220 ) ;
#187 =( CONVERSION_BASED_UNIT ( 'INCH', #373 ) LENGTH_UNIT ( ) NAMED_UNIT ( #63 ) );
#188 =( NAMED_UNIT ( * ) SI_UNIT ( $, .STERADIAN. ) SOLID_ANGLE_UNIT ( ) );
#189 =( LENGTH_UNIT ( ) NAMED_UNIT ( * ) SI_UNIT ( $, .METRE. ) );
#190 = DIMENSIONAL_EXPONENTS ( 1.000000000000000000, 0.000000000000000000, 0.000000000000000000, 0.000000000000000000, 0.000000000000000000, 0.000000000000000000, 0.000000000000000000 ) ;
#191 = CARTESIAN_POINT ( 'NONE',  ( 0.000000000000000000, 0.000000000000000000, 0.000000000000000000 ) ) ;
#192 = CIRCLE ( 'NONE', #275, 0.2500000000000000000 ) ;
#193 = SURFACE_SIDE_STYLE ('',( #93 ) ) ;
#194 = AXIS2_PLACEMENT_3D ( 'NONE', #185, #161, #182 ) ;
#195 = MANIFOLD_SOLID_BREP ( 'Revolve - Cutting Edge', #20 ) ;
#196 = PRESENTATION_STYLE_ASSIGNMENT (( #353 ) ) ;
#197 =( LENGTH_UNIT ( ) NAMED_UNIT ( * ) SI_UNIT ( $, .METRE. ) );
#198 = PRODUCT_RELATED_PRODUCT_CATEGORY ( 'part', '', ( #134 ) ) ;
#199 =( LENGTH_UNIT ( ) NAMED_UNIT ( * ) SI_UNIT ( $, .METRE. ) );
#200 = ORIENTED_EDGE ( 'NONE', *, *, #6, .T. ) ;
#201 = MANIFOLD_SOLID_BREP ( 'Revolve - Tool Body (Straight Shanked)', #211 ) ;
#202 = CARTESIAN_POINT ( 'NONE',  ( -3.061616997868383018E-17, 0.2500000000000000000, 0.000000000000000000 ) ) ;
#203 = AXIS2_PLACEMENT_3D ( 'NONE', #162, #69, #292 ) ;
#204 =( GEOMETRIC_REPRESENTATION_CONTEXT ( 3 ) GLOBAL_UNCERTAINTY_ASSIGNED_CONTEXT ( ( #126 ) ) GLOBAL_UNIT_ASSIGNED_CONTEXT ( ( #187, #284, #341 ) ) REPRESENTATION_CONTEXT ( 'NONE', 'WORKASPACE' ) );
#205 = EDGE_CURVE ( 'NONE', #354, #12, #108, .T. ) ;
#206 = EDGE_LOOP ( 'NONE', ( #171, #360, #293, #66 ) ) ;
#207 = ORIENTED_EDGE ( 'NONE', *, *, #263, .F. ) ;
#208 = ORIENTED_EDGE ( 'NONE', *, *, #167, .T. ) ;
#209 = ORIENTED_EDGE ( 'NONE', *, *, #214, .F. ) ;
#210 = DIRECTION ( 'NONE',  ( 0.000000000000000000, 0.000000000000000000, -1.000000000000000000 ) ) ;
#211 = CLOSED_SHELL ( 'NONE', ( #372, #142, #34, #64 ) ) ;
#212 = AXIS2_PLACEMENT_3D ( 'NONE', #249, #218, #130 ) ;
#213 = LINE ( 'NONE', #111, #4 ) ;
#214 = EDGE_CURVE ( 'NONE', #166, #75, #300, .T. ) ;
#215 = ORIENTED_EDGE ( 'NONE', *, *, #157, .F. ) ;
#216 = FACE_OUTER_BOUND ( 'NONE', #364, .T. ) ;
#217 = AXIS2_PLACEMENT_3D ( 'NONE', #313, #91, #226 ) ;
#218 = DIRECTION ( 'NONE',  ( -0.000000000000000000, -1.000000000000000000, -0.000000000000000000 ) ) ;
#219 = PRESENTATION_STYLE_ASSIGNMENT (( #346 ) ) ;
#220 = DIRECTION ( 'NONE',  ( 0.000000000000000000, 0.000000000000000000, -1.000000000000000000 ) ) ;
#221 = CARTESIAN_POINT ( 'NONE',  ( 0.000000000000000000, 0.6250000000000000000, -0.2499999999999999167 ) ) ;
#222 =( NAMED_UNIT ( * ) PLANE_ANGLE_UNIT ( ) SI_UNIT ( $, .RADIAN. ) );
#223 = AXIS2_PLACEMENT_3D ( 'NONE', #40, #151, #271 ) ;
#224 = CARTESIAN_POINT ( 'NONE',  ( 3.484030420149592539E-16, 0.6250000000000000000, 0.000000000000000000 ) ) ;
#225 = EDGE_CURVE ( 'NONE', #248, #7, #254, .T. ) ;
#226 = DIRECTION ( 'NONE',  ( 0.000000000000000000, 0.000000000000000000, -1.000000000000000000 ) ) ;
#227 = FILL_AREA_STYLE ('',( #318 ) ) ;
#228 = STYLED_ITEM ( 'NONE', ( #219 ), #201 ) ;
#229 = EDGE_LOOP ( 'NONE', ( #268, #207 ) ) ;
#230 = SURFACE_SIDE_STYLE ('',( #289 ) ) ;
#231 = ORIENTED_EDGE ( 'NONE', *, *, #76, .T. ) ;
#232 = VERTEX_POINT ( 'NONE', #221 ) ;
#233 = CYLINDRICAL_SURFACE ( 'NONE', #138, 0.2499999999999999722 ) ;
#234 = FACE_OUTER_BOUND ( 'NONE', #328, .T. ) ;
#235 = ORIENTED_EDGE ( 'NONE', *, *, #241, .F. ) ;
#236 = FILL_AREA_STYLE ('',( #152 ) ) ;
#237 = SURFACE_STYLE_FILL_AREA ( #176 ) ;
#238 = ORIENTED_EDGE ( 'NONE', *, *, #214, .T. ) ;
#239 = UNCERTAINTY_MEASURE_WITH_UNIT (LENGTH_MEASURE( 1.000000000000000082E-05 ), #147, 'distance_accuracy_value', 'NONE');
#240 = DIRECTION ( 'NONE',  ( -0.000000000000000000, -1.000000000000000000, -0.000000000000000000 ) ) ;
#241 = EDGE_CURVE ( 'NONE', #75, #358, #258, .T. ) ;
#242 = PRESENTATION_LAYER_ASSIGNMENT (  '', '', ( #184 ) ) ;
#243 = ORIENTED_EDGE ( 'NONE', *, *, #10, .T. ) ;
#244 = CIRCLE ( 'NONE', #86, 0.2500000000000000000 ) ;
#245 = FACE_OUTER_BOUND ( 'NONE', #122, .T. ) ;
#246 = SURFACE_STYLE_USAGE ( .BOTH. , #370 ) ;
#247 = DIRECTION ( 'NONE',  ( -1.205004597867860846E-16, 1.000000000000000000, -0.000000000000000000 ) ) ;
#248 = VERTEX_POINT ( 'NONE', #280 ) ;
#249 = CARTESIAN_POINT ( 'NONE',  ( 0.000000000000000000, 0.6250000000000000000, 0.000000000000000000 ) ) ;
#250 = MECHANICAL_DESIGN_GEOMETRIC_PRESENTATION_REPRESENTATION (  '', ( #251 ), #85 ) ;
#251 = STYLED_ITEM ( 'NONE', ( #299 ), #17 ) ;
#252 = MECHANICAL_DESIGN_GEOMETRIC_PRESENTATION_REPRESENTATION (  '', ( #116 ), #204 ) ;
#253 = DIRECTION ( 'NONE',  ( -0.000000000000000000, -1.000000000000000000, -0.000000000000000000 ) ) ;
#254 = LINE ( 'NONE', #345, #344 ) ;
#255 = LENGTH_MEASURE_WITH_UNIT ( LENGTH_MEASURE( 0.02539999999999999897 ), #89 );
#256 = EDGE_CURVE ( 'NONE', #352, #301, #18, .T. ) ;
#257 = CIRCLE ( 'NONE', #310, 0.2499999999999998057 ) ;
#258 = CIRCLE ( 'NONE', #194, 0.2500000000000000000 ) ;
#259 =( NAMED_UNIT ( * ) PLANE_ANGLE_UNIT ( ) SI_UNIT ( $, .RADIAN. ) );
#260 = ORIENTED_EDGE ( 'NONE', *, *, #94, .F. ) ;
#261 = APPLICATION_PROTOCOL_DEFINITION ( 'draft international standard', 'automotive_design', 1998, #319 ) ;
#262 = DIMENSIONAL_EXPONENTS ( 1.000000000000000000, 0.000000000000000000, 0.000000000000000000, 0.000000000000000000, 0.000000000000000000, 0.000000000000000000, 0.000000000000000000 ) ;
#263 = EDGE_CURVE ( 'NONE', #327, #232, #311, .T. ) ;
#264 = CARTESIAN_POINT ( 'NONE',  ( -3.061616997868383018E-17, 0.2500000000000000000, 0.000000000000000000 ) ) ;
#265 =( GEOMETRIC_REPRESENTATION_CONTEXT ( 3 ) GLOBAL_UNCERTAINTY_ASSIGNED_CONTEXT ( ( #42 ) ) GLOBAL_UNIT_ASSIGNED_CONTEXT ( ( #109, #371, #14 ) ) REPRESENTATION_CONTEXT ( 'NONE', 'WORKASPACE' ) );
#266 =( GEOMETRIC_REPRESENTATION_CONTEXT ( 3 ) GLOBAL_UNCERTAINTY_ASSIGNED_CONTEXT ( ( #67 ) ) GLOBAL_UNIT_ASSIGNED_CONTEXT ( ( #285, #222, #117 ) ) REPRESENTATION_CONTEXT ( 'NONE', 'WORKASPACE' ) );
#267 = CYLINDRICAL_SURFACE ( 'NONE', #306, 0.2499999999999999722 ) ;
#268 = ORIENTED_EDGE ( 'NONE', *, *, #167, .F. ) ;
#269 = DIRECTION ( 'NONE',  ( -0.000000000000000000, -1.000000000000000000, -0.000000000000000000 ) ) ;
#270 = CIRCLE ( 'NONE', #212, 0.2499999999999999167 ) ;
#271 = DIRECTION ( 'NONE',  ( -1.000000000000000000, 0.000000000000000000, 0.000000000000000000 ) ) ;
#272 = SURFACE_SIDE_STYLE ('',( #359 ) ) ;
#273 = CARTESIAN_POINT ( 'NONE',  ( 0.2500000000000000000, 0.2500000000000000000, 0.000000000000000000 ) ) ;
#274 = CARTESIAN_POINT ( 'NONE',  ( 3.484030420149592539E-16, 0.6250000000000000000, 0.000000000000000000 ) ) ;
#275 = AXIS2_PLACEMENT_3D ( 'NONE', #294, #105, #149 ) ;
#276 = AXIS2_PLACEMENT_3D ( 'NONE', #290, #143, #314 ) ;
#277 = PRESENTATION_STYLE_ASSIGNMENT (( #246 ) ) ;
#278 = CARTESIAN_POINT ( 'NONE',  ( 0.2499999999999999167, 2.500000000000000000, 0.000000000000000000 ) ) ;
#279 = CARTESIAN_POINT ( 'NONE',  ( 0.2499999999999998335, 2.500000000000000000, 3.061616997868379320E-17 ) ) ;
#280 = CARTESIAN_POINT ( 'NONE',  ( -0.2499999999999992228, 0.6250000000000000000, 0.000000000000000000 ) ) ;
#281 = SURFACE_STYLE_USAGE ( .BOTH. , #193 ) ;
#282 = MECHANICAL_DESIGN_GEOMETRIC_PRESENTATION_REPRESENTATION (  '', ( #324 ), #119 ) ;
#283 = AXIS2_PLACEMENT_3D ( 'NONE', #191, #365, #127 ) ;
#284 =( NAMED_UNIT ( * ) PLANE_ANGLE_UNIT ( ) SI_UNIT ( $, .RADIAN. ) );
#285 =( CONVERSION_BASED_UNIT ( 'INCH', #309 ) LENGTH_UNIT ( ) NAMED_UNIT ( #288 ) );
#286 =( NAMED_UNIT ( * ) SI_UNIT ( $, .STERADIAN. ) SOLID_ANGLE_UNIT ( ) );
#287 = FILL_AREA_STYLE_COLOUR ( '', #136 ) ;
#288 = DIMENSIONAL_EXPONENTS ( 1.000000000000000000, 0.000000000000000000, 0.000000000000000000, 0.000000000000000000, 0.000000000000000000, 0.000000000000000000, 0.000000000000000000 ) ;
#289 = SURFACE_STYLE_FILL_AREA ( #227 ) ;
#290 = CARTESIAN_POINT ( 'NONE',  ( 1.224646799147353207E-16, 2.500000000000000000, 0.000000000000000000 ) ) ;
#291 = MECHANICAL_DESIGN_GEOMETRIC_PRESENTATION_REPRESENTATION (  '', ( #184 ), #21 ) ;
#292 = DIRECTION ( 'NONE',  ( -1.000000000000000000, 0.000000000000000000, 0.000000000000000000 ) ) ;
#293 = ORIENTED_EDGE ( 'NONE', *, *, #225, .T. ) ;
#294 = CARTESIAN_POINT ( 'NONE',  ( 0.000000000000000000, 0.2500000000000000000, 0.000000000000000000 ) ) ;
#295 = ORIENTED_EDGE ( 'NONE', *, *, #205, .F. ) ;
#296 =( NAMED_UNIT ( * ) SI_UNIT ( $, .STERADIAN. ) SOLID_ANGLE_UNIT ( ) );
#297 = AXIS2_PLACEMENT_3D ( 'NONE', #274, #13, #132 ) ;
#298 =( GEOMETRIC_REPRESENTATION_CONTEXT ( 3 ) GLOBAL_UNCERTAINTY_ASSIGNED_CONTEXT ( ( #2 ) ) GLOBAL_UNIT_ASSIGNED_CONTEXT ( ( #349, #259, #286 ) ) REPRESENTATION_CONTEXT ( 'NONE', 'WORKASPACE' ) );
#299 = PRESENTATION_STYLE_ASSIGNMENT (( #71 ) ) ;
#300 = CIRCLE ( 'NONE', #217, 0.2500000000000000000 ) ;
#301 = VERTEX_POINT ( 'NONE', #350 ) ;
#302 = CARTESIAN_POINT ( 'NONE',  ( 0.000000000000000000, 0.6250000000000000000, 0.000000000000000000 ) ) ;
#303 = PRODUCT_DEFINITION_CONTEXT ( 'detailed design', #19, 'design' ) ;
#304 = FILL_AREA_STYLE_COLOUR ( '', #51 ) ;
#305 = EDGE_CURVE ( 'NONE', #248, #352, #113, .T. ) ;
#306 = AXIS2_PLACEMENT_3D ( 'NONE', #65, #269, #363 ) ;
#307 = PRESENTATION_LAYER_ASSIGNMENT (  '', '', ( #116 ) ) ;
#308 = CARTESIAN_POINT ( 'NONE',  ( 0.000000000000000000, 0.000000000000000000, -0.2499999999999999722 ) ) ;
#309 = LENGTH_MEASURE_WITH_UNIT ( LENGTH_MEASURE( 0.02539999999999999897 ), #84 );
#310 = AXIS2_PLACEMENT_3D ( 'NONE', #98, #33, #26 ) ;
#311 = CIRCLE ( 'NONE', #186, 0.2499999999999999167 ) ;
#312 = DIRECTION ( 'NONE',  ( -1.000000000000000000, 0.000000000000000000, 0.000000000000000000 ) ) ;
#313 = CARTESIAN_POINT ( 'NONE',  ( 0.000000000000000000, 0.2500000000000000000, 0.000000000000000000 ) ) ;
#314 = DIRECTION ( 'NONE',  ( -1.000000000000000000, 0.000000000000000000, 0.000000000000000000 ) ) ;
#315 = DIRECTION ( 'NONE',  ( 1.224646799147353207E-16, -0.000000000000000000, 1.000000000000000000 ) ) ;
#316 = AXIS2_PLACEMENT_3D ( 'NONE', #81, #48, #107 ) ;
#317 = COLOUR_RGB ( '',1.000000000000000000, 0.000000000000000000, 0.000000000000000000 ) ;
#318 = FILL_AREA_STYLE_COLOUR ( '', #317 ) ;
#319 = APPLICATION_CONTEXT ( 'automotive_design' ) ;
#320 = CYLINDRICAL_SURFACE ( 'NONE', #276, 0.2499999999999996947 ) ;
#321 = DIRECTION ( 'NONE',  ( 0.000000000000000000, 0.000000000000000000, 1.000000000000000000 ) ) ;
#322 = CARTESIAN_POINT ( 'NONE',  ( -0.2499999999999996669, 2.500000000000000000, 0.000000000000000000 ) ) ;
#323 = ORIENTED_EDGE ( 'NONE', *, *, #355, .F. ) ;
#324 = STYLED_ITEM ( 'NONE', ( #139 ), #145 ) ;
#325 = DIMENSIONAL_EXPONENTS ( 1.000000000000000000, 0.000000000000000000, 0.000000000000000000, 0.000000000000000000, 0.000000000000000000, 0.000000000000000000, 0.000000000000000000 ) ;
#326 = SPHERICAL_SURFACE ( 'NONE', #331, 0.2500000000000000000 ) ;
#327 = VERTEX_POINT ( 'NONE', #52 ) ;
#328 = EDGE_LOOP ( 'NONE', ( #208, #231, #103, #209, #260 ) ) ;
#329 = ADVANCED_FACE ( 'NONE', ( #110 ), #140, .T. ) ;
#330 = EDGE_LOOP ( 'NONE', ( #153, #169, #35, #128 ) ) ;
#331 = AXIS2_PLACEMENT_3D ( 'NONE', #202, #321, #60 ) ;
#332 = VECTOR ( 'NONE', #82, 39.37007874015748143 ) ;
#333 = PLANE ( 'NONE',  #95 ) ;
#334 =( CONVERSION_BASED_UNIT ( 'INCH', #180 ) LENGTH_UNIT ( ) NAMED_UNIT ( #262 ) );
#335 = DIRECTION ( 'NONE',  ( 1.205004597867860846E-16, -1.000000000000000000, 0.000000000000000000 ) ) ;
#336 = DIRECTION ( 'NONE',  ( -0.000000000000000000, -1.000000000000000000, -0.000000000000000000 ) ) ;
#337 = STYLED_ITEM ( 'NONE', ( #80 ), #118 ) ;
#338 = CIRCLE ( 'NONE', #223, 0.2499999999999998057 ) ;
#339 = DIRECTION ( 'NONE',  ( -1.205004597867860846E-16, 1.000000000000000000, -0.000000000000000000 ) ) ;
#340 = SPHERICAL_SURFACE ( 'NONE', #316, 0.2500000000000000000 ) ;
#341 =( NAMED_UNIT ( * ) SI_UNIT ( $, .STERADIAN. ) SOLID_ANGLE_UNIT ( ) );
#342 = FILL_AREA_STYLE_COLOUR ( '', #62 ) ;
#343 = AXIS2_PLACEMENT_3D ( 'NONE', #174, #240, #210 ) ;
#344 = VECTOR ( 'NONE', #339, 39.37007874015748143 ) ;
#345 = CARTESIAN_POINT ( 'NONE',  ( -0.2499999999999995559, 2.500000000000000000, 0.000000000000000000 ) ) ;
#346 = SURFACE_STYLE_USAGE ( .BOTH. , #137 ) ;
#347 = DIMENSIONAL_EXPONENTS ( 1.000000000000000000, 0.000000000000000000, 0.000000000000000000, 0.000000000000000000, 0.000000000000000000, 0.000000000000000000, 0.000000000000000000 ) ;
#348 = CARTESIAN_POINT ( 'NONE',  ( 3.061616997868383634E-17, 0.2500000000000000000, 0.2500000000000000555 ) ) ;
#349 =( CONVERSION_BASED_UNIT ( 'INCH', #25 ) LENGTH_UNIT ( ) NAMED_UNIT ( #164 ) );
#350 = CARTESIAN_POINT ( 'NONE',  ( 0.2499999999999999167, 2.500000000000000000, 3.061616997868379936E-17 ) ) ;
#351 = PRESENTATION_LAYER_ASSIGNMENT (  '', '', ( #324 ) ) ;
#352 = VERTEX_POINT ( 'NONE', #24 ) ;
#353 = SURFACE_STYLE_USAGE ( .BOTH. , #230 ) ;
#354 = VERTEX_POINT ( 'NONE', #348 ) ;
#355 = EDGE_CURVE ( 'NONE', #12, #358, #244, .T. ) ;
#356 = ORIENTED_EDGE ( 'NONE', *, *, #177, .T. ) ;
#357 = FILL_AREA_STYLE_COLOUR ( '', #61 ) ;
#358 = VERTEX_POINT ( 'NONE', #59 ) ;
#359 = SURFACE_STYLE_FILL_AREA ( #125 ) ;
#360 = ORIENTED_EDGE ( 'NONE', *, *, #157, .T. ) ;
#361 = APPLICATION_PROTOCOL_DEFINITION ( 'draft international standard', 'automotive_design', 1998, #19 ) ;
#362 = SURFACE_STYLE_FILL_AREA ( #236 ) ;
#363 = DIRECTION ( 'NONE',  ( 0.000000000000000000, 0.000000000000000000, -1.000000000000000000 ) ) ;
#364 = EDGE_LOOP ( 'NONE', ( #323, #200, #238, #57 ) ) ;
#365 = DIRECTION ( 'NONE',  ( 0.000000000000000000, 0.000000000000000000, 1.000000000000000000 ) ) ;
#366 = SURFACE_STYLE_USAGE ( .BOTH. , #73 ) ;
#367 = CIRCLE ( 'NONE', #203, 0.2499999999999995559 ) ;
#368 = ORIENTED_EDGE ( 'NONE', *, *, #6, .F. ) ;
#369 = SURFACE_STYLE_USAGE ( .BOTH. , #181 ) ;
#370 = SURFACE_SIDE_STYLE ('',( #175 ) ) ;
#371 =( NAMED_UNIT ( * ) PLANE_ANGLE_UNIT ( ) SI_UNIT ( $, .RADIAN. ) );
#372 = ADVANCED_FACE ( 'NONE', ( #92 ), #320, .T. ) ;
#373 = LENGTH_MEASURE_WITH_UNIT ( LENGTH_MEASURE( 0.02539999999999999897 ), #114 );
ENDSEC;
END-ISO-10303-21;
