ISO-10303-21;
HEADER;
FILE_DESCRIPTION (( 'STEP AP214' ),
    '1' );
FILE_NAME ('Micro_BMRM-020-4X.STEP',
    '2021-09-03T14:36:29',
    ( '' ),
    ( '' ),
    'SwSTEP 2.0',
    'SolidWorks 2020',
    '' );
FILE_SCHEMA (( 'AUTOMOTIVE_DESIGN' ));
ENDSEC;

DATA;
#1 = ADVANCED_FACE ( 'NONE', ( #235 ), #98, .T. ) ;
#2 = CARTESIAN_POINT ( 'NONE',  ( 0.0000000000000000000, 0.0000000000000000000, 0.0000000000000000000 ) ) ;
#3 = ORIENTED_EDGE ( 'NONE', *, *, #243, .T. ) ;
#4 = DIMENSIONAL_EXPONENTS ( 1.000000000000000000, 0.0000000000000000000, 0.0000000000000000000, 0.0000000000000000000, 0.0000000000000000000, 0.0000000000000000000, 0.0000000000000000000 ) ;
#5 = EDGE_LOOP ( 'NONE', ( #82, #134, #143, #180 ) ) ;
#6 = ORIENTED_EDGE ( 'NONE', *, *, #266, .F. ) ;
#7 = LENGTH_MEASURE_WITH_UNIT ( LENGTH_MEASURE( 0.02539999999999999897 ), #57 );
#8 = PRODUCT_CONTEXT ( 'NONE', #303, 'mechanical' ) ;
#9 = VERTEX_POINT ( 'NONE', #284 ) ;
#10 = DIRECTION ( 'NONE',  ( 0.0000000000000000000, 0.0000000000000000000, -1.000000000000000000 ) ) ;
#11 = VERTEX_POINT ( 'NONE', #13 ) ;
#12 = ADVANCED_FACE ( 'NONE', ( #308 ), #259, .T. ) ;
#13 = CARTESIAN_POINT ( 'NONE',  ( 0.06374000000000018540, 8.724383797125754882E-18, 1.968503999999999809 ) ) ;
#14 = CARTESIAN_POINT ( 'NONE',  ( 2.892860668945878169E-17, 0.0000000000000000000, 0.2362200000000000133 ) ) ;
#15 = CIRCLE ( 'NONE', #72, 0.03933062999999999837 ) ;
#16 = EDGE_CURVE ( 'NONE', #159, #210, #140, .T. ) ;
#17 = COLOUR_RGB ( '',0.7921568627450980005, 0.8196078431372548767, 0.9333333333333333481 ) ;
#18 = SPHERICAL_SURFACE ( 'NONE', #281, 0.03933062999999999837 ) ;
#19 = DIRECTION ( 'NONE',  ( 0.0000000000000000000, 1.000000000000000000, 0.0000000000000000000 ) ) ;
#20 = CARTESIAN_POINT ( 'NONE',  ( 2.892860668945878169E-17, 0.0000000000000000000, 0.2362200000000000133 ) ) ;
#21 = AXIS2_PLACEMENT_3D ( 'NONE', #319, #244, #126 ) ;
#22 = DIRECTION ( 'NONE',  ( 1.000000000000000000, 0.0000000000000000000, 0.0000000000000000000 ) ) ;
#23 = CARTESIAN_POINT ( 'NONE',  ( -0.03933062999999997061, 7.229740955140570430E-18, 0.2362200000000000133 ) ) ;
#24 = CARTESIAN_POINT ( 'NONE',  ( -0.03933062999999998449, 0.0000000000000000000, 0.03933063000000000531 ) ) ;
#25 = EDGE_CURVE ( 'NONE', #280, #159, #15, .T. ) ;
#26 = CARTESIAN_POINT ( 'NONE',  ( 0.03933063000000000531, 4.816613013794885432E-18, 0.03933062999999998449 ) ) ;
#27 = AXIS2_PLACEMENT_3D ( 'NONE', #242, #152, #322 ) ;
#28 = STYLED_ITEM ( 'NONE', ( #51 ), #144 ) ;
#29 = CARTESIAN_POINT ( 'NONE',  ( 0.0000000000000000000, 0.0000000000000000000, 0.0000000000000000000 ) ) ;
#30 = CARTESIAN_POINT ( 'NONE',  ( 2.892860668945878169E-17, 0.0000000000000000000, 0.2362200000000000133 ) ) ;
#31 = CARTESIAN_POINT ( 'NONE',  ( 0.0000000000000000000, 0.0000000000000000000, 1.968503999999999809 ) ) ;
#32 = ORIENTED_EDGE ( 'NONE', *, *, #200, .F. ) ;
#33 = EDGE_CURVE ( 'NONE', #109, #108, #92, .T. ) ;
#34 = CARTESIAN_POINT ( 'NONE',  ( 0.0000000000000000000, 0.0000000000000000000, 1.953504000000000129 ) ) ;
#35 = ORIENTED_EDGE ( 'NONE', *, *, #200, .T. ) ;
#36 = AXIS2_PLACEMENT_3D ( 'NONE', #31, #314, #90 ) ;
#37 = AXIS2_PLACEMENT_3D ( 'NONE', #142, #222, #320 ) ;
#38 = EDGE_LOOP ( 'NONE', ( #227, #231, #59 ) ) ;
#39 = EDGE_CURVE ( 'NONE', #186, #109, #187, .T. ) ;
#40 = ORIENTED_EDGE ( 'NONE', *, *, #191, .T. ) ;
#41 = ORIENTED_EDGE ( 'NONE', *, *, #133, .F. ) ;
#42 = ADVANCED_FACE ( 'NONE', ( #114 ), #130, .T. ) ;
#43 = DIRECTION ( 'NONE',  ( 1.000000000000000000, 0.0000000000000000000, 0.0000000000000000000 ) ) ;
#44 = DIRECTION ( 'NONE',  ( 0.0000000000000000000, 0.0000000000000000000, -1.000000000000000000 ) ) ;
#45 = ORIENTED_EDGE ( 'NONE', *, *, #237, .T. ) ;
#46 = FACE_OUTER_BOUND ( 'NONE', #38, .T. ) ;
#47 = CARTESIAN_POINT ( 'NONE',  ( 4.816613013794885432E-18, 0.0000000000000000000, 0.03933062999999999837 ) ) ;
#48 = APPLICATION_CONTEXT ( 'automotive_design' ) ;
#49 =( NAMED_UNIT ( * ) SI_UNIT ( $, .STERADIAN. ) SOLID_ANGLE_UNIT ( ) );
#50 = FACE_OUTER_BOUND ( 'NONE', #160, .T. ) ;
#51 = PRESENTATION_STYLE_ASSIGNMENT (( #63 ) ) ;
#52 = CARTESIAN_POINT ( 'NONE',  ( 0.03933062999999999837, 4.816613013794885432E-18, -4.816613013794885432E-18 ) ) ;
#53 =( NAMED_UNIT ( * ) PLANE_ANGLE_UNIT ( ) SI_UNIT ( $, .RADIAN. ) );
#54 = FACE_OUTER_BOUND ( 'NONE', #304, .T. ) ;
#55 =( GEOMETRIC_REPRESENTATION_CONTEXT ( 3 ) GLOBAL_UNCERTAINTY_ASSIGNED_CONTEXT ( ( #153 ) ) GLOBAL_UNIT_ASSIGNED_CONTEXT ( ( #220, #53, #49 ) ) REPRESENTATION_CONTEXT ( 'NONE', 'WORKASPACE' ) );
#56 = EDGE_LOOP ( 'NONE', ( #232, #41, #274, #58 ) ) ;
#57 =( LENGTH_UNIT ( ) NAMED_UNIT ( * ) SI_UNIT ( $, .METRE. ) );
#58 = ORIENTED_EDGE ( 'NONE', *, *, #188, .F. ) ;
#59 = ORIENTED_EDGE ( 'NONE', *, *, #237, .F. ) ;
#60 = DIRECTION ( 'NONE',  ( 0.0000000000000000000, 0.0000000000000000000, 1.000000000000000000 ) ) ;
#61 = ORIENTED_EDGE ( 'NONE', *, *, #25, .F. ) ;
#62 = AXIS2_PLACEMENT_3D ( 'NONE', #312, #164, #262 ) ;
#63 = SURFACE_STYLE_USAGE ( .BOTH. , #184 ) ;
#64 = DIRECTION ( 'NONE',  ( 1.000000000000000000, 0.0000000000000000000, 0.0000000000000000000 ) ) ;
#65 = AXIS2_PLACEMENT_3D ( 'NONE', #219, #291, #123 ) ;
#66 = MECHANICAL_DESIGN_GEOMETRIC_PRESENTATION_REPRESENTATION (  '', ( #28 ), #55 ) ;
#67 = FACE_OUTER_BOUND ( 'NONE', #5, .T. ) ;
#68 =( NAMED_UNIT ( * ) PLANE_ANGLE_UNIT ( ) SI_UNIT ( $, .RADIAN. ) );
#69 = DIRECTION ( 'NONE',  ( 0.1736481776669314414, 0.0000000000000000000, 0.9848077530122077983 ) ) ;
#70 = PRODUCT_DEFINITION_FORMATION_WITH_SPECIFIED_SOURCE ( 'ANY', '', #132, .NOT_KNOWN. ) ;
#71 = DIRECTION ( 'NONE',  ( -1.000000000000000000, 0.0000000000000000000, 2.170579261049422102E-16 ) ) ;
#72 = AXIS2_PLACEMENT_3D ( 'NONE', #14, #288, #120 ) ;
#73 = CARTESIAN_POINT ( 'NONE',  ( 4.816613013794885432E-18, 0.0000000000000000000, 0.03933062999999999837 ) ) ;
#74 = PLANE ( 'NONE',  #257 ) ;
#75 = ADVANCED_FACE ( 'NONE', ( #192 ), #313, .T. ) ;
#76 = DIRECTION ( 'NONE',  ( -1.224646799147353207E-16, -0.0000000000000000000, -1.000000000000000000 ) ) ;
#77 = ORIENTED_EDGE ( 'NONE', *, *, #243, .F. ) ;
#78 = EDGE_CURVE ( 'NONE', #11, #203, #162, .T. ) ;
#79 = DIRECTION ( 'NONE',  ( 1.000000000000000000, 0.0000000000000000000, 0.0000000000000000000 ) ) ;
#80 = EDGE_LOOP ( 'NONE', ( #250, #129, #136, #32 ) ) ;
#81 = VECTOR ( 'NONE', #239, 39.37007874015748143 ) ;
#82 = ORIENTED_EDGE ( 'NONE', *, *, #321, .T. ) ;
#83 = ORIENTED_EDGE ( 'NONE', *, *, #133, .T. ) ;
#84 = CLOSED_SHELL ( 'NONE', ( #75, #283, #178, #42, #102, #298, #318, #12, #1, #295, #116 ) ) ;
#85 = SURFACE_STYLE_FILL_AREA ( #234 ) ;
#86 = VECTOR ( 'NONE', #69, 39.37007874015748143 ) ;
#87 = SURFACE_SIDE_STYLE ('',( #94 ) ) ;
#88 = AXIS2_PLACEMENT_3D ( 'NONE', #236, #215, #64 ) ;
#89 = CYLINDRICAL_SURFACE ( 'NONE', #106, 0.07874000000000000443 ) ;
#90 = DIRECTION ( 'NONE',  ( -1.000000000000000000, 0.0000000000000000000, 0.0000000000000000000 ) ) ;
#91 =( CONVERSION_BASED_UNIT ( 'INCH', #315 ) LENGTH_UNIT ( ) NAMED_UNIT ( #149 ) );
#92 = LINE ( 'NONE', #261, #81 ) ;
#93 = CARTESIAN_POINT ( 'NONE',  ( -0.03933062999999999837, 0.0000000000000000000, 4.816613013794885432E-18 ) ) ;
#94 = SURFACE_STYLE_FILL_AREA ( #217 ) ;
#95 = CIRCLE ( 'NONE', #37, 0.07874000000000000443 ) ;
#96 = DIRECTION ( 'NONE',  ( -0.7071067811865502373, 0.0000000000000000000, -0.7071067811865446862 ) ) ;
#97 = CARTESIAN_POINT ( 'NONE',  ( -0.06374000000000018540, 0.0000000000000000000, 1.968503999999999809 ) ) ;
#98 = CONICAL_SURFACE ( 'NONE', #185, 0.03933062999999999837, 0.1745329251994339470 ) ;
#99 =( LENGTH_UNIT ( ) NAMED_UNIT ( * ) SI_UNIT ( $, .METRE. ) );
#100 = VECTOR ( 'NONE', #189, 39.37007874015748854 ) ;
#101 = DIRECTION ( 'NONE',  ( 1.224646799147353207E-16, 0.0000000000000000000, 1.000000000000000000 ) ) ;
#102 = ADVANCED_FACE ( 'NONE', ( #67 ), #89, .T. ) ;
#103 = DIRECTION ( 'NONE',  ( -1.000000000000000000, 0.0000000000000000000, 1.224646799147352961E-16 ) ) ;
#104 = CIRCLE ( 'NONE', #21, 0.03933062999999999837 ) ;
#105 = EDGE_LOOP ( 'NONE', ( #83, #3 ) ) ;
#106 = AXIS2_PLACEMENT_3D ( 'NONE', #285, #139, #264 ) ;
#107 = ORIENTED_EDGE ( 'NONE', *, *, #112, .T. ) ;
#108 = VERTEX_POINT ( 'NONE', #317 ) ;
#109 = VERTEX_POINT ( 'NONE', #171 ) ;
#110 = ADVANCED_BREP_SHAPE_REPRESENTATION ( 'Micro_BMRM-020-4X', ( #144, #161 ), #212 ) ;
#111 = ORIENTED_EDGE ( 'NONE', *, *, #25, .T. ) ;
#112 = EDGE_CURVE ( 'NONE', #9, #210, #306, .T. ) ;
#113 = DIRECTION ( 'NONE',  ( -1.224646799147353207E-16, -0.0000000000000000000, -1.000000000000000000 ) ) ;
#114 = FACE_OUTER_BOUND ( 'NONE', #254, .T. ) ;
#115 = SURFACE_STYLE_USAGE ( .BOTH. , #87 ) ;
#116 = ADVANCED_FACE ( 'NONE', ( #46 ), #18, .T. ) ;
#117 = AXIS2_PLACEMENT_3D ( 'NONE', #292, #294, #22 ) ;
#118 = CARTESIAN_POINT ( 'NONE',  ( 4.816613013794885432E-18, 0.0000000000000000000, 0.03933062999999999837 ) ) ;
#119 = DIRECTION ( 'NONE',  ( 1.224646799147353207E-16, 0.0000000000000000000, 1.000000000000000000 ) ) ;
#120 = DIRECTION ( 'NONE',  ( -1.000000000000000000, 0.0000000000000000000, 0.0000000000000000000 ) ) ;
#121 = VECTOR ( 'NONE', #297, 39.37007874015748143 ) ;
#122 = CARTESIAN_POINT ( 'NONE',  ( 0.07874000000000004607, 9.642868896486264672E-18, 0.4597216436035863052 ) ) ;
#123 = DIRECTION ( 'NONE',  ( -1.000000000000000000, 0.0000000000000000000, 0.0000000000000000000 ) ) ;
#124 = CIRCLE ( 'NONE', #154, 0.03933062999999999837 ) ;
#125 = DIRECTION ( 'NONE',  ( -1.224646799147353207E-16, -0.0000000000000000000, -1.000000000000000000 ) ) ;
#126 = DIRECTION ( 'NONE',  ( 0.0000000000000000000, 0.0000000000000000000, -1.000000000000000000 ) ) ;
#127 = DIRECTION ( 'NONE',  ( -1.000000000000000000, 0.0000000000000000000, 1.224646799147352961E-16 ) ) ;
#128 = ORIENTED_EDGE ( 'NONE', *, *, #188, .T. ) ;
#129 = ORIENTED_EDGE ( 'NONE', *, *, #151, .T. ) ;
#130 = CONICAL_SURFACE ( 'NONE', #170, 0.06374000000000018540, 0.7853981633974522758 ) ;
#131 = ORIENTED_EDGE ( 'NONE', *, *, #290, .T. ) ;
#132 = PRODUCT ( 'Micro_BMRM-020-4X', 'Micro_BMRM-020-4X', '', ( #8 ) ) ;
#133 = EDGE_CURVE ( 'NONE', #186, #11, #195, .T. ) ;
#134 = ORIENTED_EDGE ( 'NONE', *, *, #258, .T. ) ;
#135 = STYLED_ITEM ( 'NONE', ( #181 ), #110 ) ;
#136 = ORIENTED_EDGE ( 'NONE', *, *, #150, .T. ) ;
#137 = PRODUCT_DEFINITION_SHAPE ( 'NONE', 'NONE',  #199 ) ;
#138 = VECTOR ( 'NONE', #145, 39.37007874015748143 ) ;
#139 = DIRECTION ( 'NONE',  ( -0.0000000000000000000, -0.0000000000000000000, -1.000000000000000000 ) ) ;
#140 = LINE ( 'NONE', #93, #241 ) ;
#141 = VECTOR ( 'NONE', #125, 39.37007874015748143 ) ;
#142 = CARTESIAN_POINT ( 'NONE',  ( 5.629966393378922948E-17, 0.0000000000000000000, 0.4597216436035863052 ) ) ;
#143 = ORIENTED_EDGE ( 'NONE', *, *, #150, .F. ) ;
#144 = MANIFOLD_SOLID_BREP ( 'Fillet1', #84 ) ;
#145 = DIRECTION ( 'NONE',  ( -0.1736481776669312194, 2.126576849575783625E-17, 0.9848077530122077983 ) ) ;
#146 = COLOUR_RGB ( '',0.7921568627450980005, 0.8196078431372548767, 0.9333333333333333481 ) ;
#147 = DIRECTION ( 'NONE',  ( -1.224646799147353207E-16, -0.0000000000000000000, -1.000000000000000000 ) ) ;
#148 = DIRECTION ( 'NONE',  ( 1.224646799147353207E-16, 0.0000000000000000000, 1.000000000000000000 ) ) ;
#149 = DIMENSIONAL_EXPONENTS ( 1.000000000000000000, 0.0000000000000000000, 0.0000000000000000000, 0.0000000000000000000, 0.0000000000000000000, 0.0000000000000000000, 0.0000000000000000000 ) ;
#150 = EDGE_CURVE ( 'NONE', #108, #208, #95, .T. ) ;
#151 = EDGE_CURVE ( 'NONE', #159, #108, #269, .T. ) ;
#152 = DIRECTION ( 'NONE',  ( 0.0000000000000000000, 0.0000000000000000000, 1.000000000000000000 ) ) ;
#153 = UNCERTAINTY_MEASURE_WITH_UNIT (LENGTH_MEASURE( 1.000000000000000082E-05 ), #220, 'distance_accuracy_value', 'NONE');
#154 = AXIS2_PLACEMENT_3D ( 'NONE', #173, #101, #71 ) ;
#155 = CARTESIAN_POINT ( 'NONE',  ( -0.03933062999999997061, 4.816613013794885432E-18, 0.2362200000000000133 ) ) ;
#156 = FACE_OUTER_BOUND ( 'NONE', #202, .T. ) ;
#157 = ORIENTED_EDGE ( 'NONE', *, *, #151, .F. ) ;
#158 = DIRECTION ( 'NONE',  ( 0.0000000000000000000, 0.0000000000000000000, 1.000000000000000000 ) ) ;
#159 = VERTEX_POINT ( 'NONE', #23 ) ;
#160 = EDGE_LOOP ( 'NONE', ( #205, #40, #279, #302 ) ) ;
#161 = AXIS2_PLACEMENT_3D ( 'NONE', #29, #158, #79 ) ;
#162 = LINE ( 'NONE', #218, #100 ) ;
#163 = DIRECTION ( 'NONE',  ( 1.000000000000000000, 0.0000000000000000000, 0.0000000000000000000 ) ) ;
#164 = DIRECTION ( 'NONE',  ( 0.0000000000000000000, 0.0000000000000000000, -1.000000000000000000 ) ) ;
#165 = DIRECTION ( 'NONE',  ( 1.000000000000000000, 0.0000000000000000000, 0.0000000000000000000 ) ) ;
#166 =( LENGTH_UNIT ( ) NAMED_UNIT ( * ) SI_UNIT ( $, .METRE. ) );
#167 = DIRECTION ( 'NONE',  ( 0.0000000000000000000, 1.000000000000000000, 0.0000000000000000000 ) ) ;
#168 = CIRCLE ( 'NONE', #65, 0.03933062999999999837 ) ;
#169 = APPLICATION_PROTOCOL_DEFINITION ( 'draft international standard', 'automotive_design', 1998, #303 ) ;
#170 = AXIS2_PLACEMENT_3D ( 'NONE', #240, #44, #213 ) ;
#171 = CARTESIAN_POINT ( 'NONE',  ( -0.07874000000000000443, 0.0000000000000000000, 1.953504000000000129 ) ) ;
#172 = CYLINDRICAL_SURFACE ( 'NONE', #316, 0.03933062999999999837 ) ;
#173 = CARTESIAN_POINT ( 'NONE',  ( 4.816613013794885432E-18, 0.0000000000000000000, 0.03933062999999999837 ) ) ;
#174 = DIRECTION ( 'NONE',  ( 1.000000000000000000, 0.0000000000000000000, 0.0000000000000000000 ) ) ;
#175 = FACE_OUTER_BOUND ( 'NONE', #80, .T. ) ;
#176 = VECTOR ( 'NONE', #96, 39.37007874015748854 ) ;
#177 = DIRECTION ( 'NONE',  ( 1.000000000000000000, 0.0000000000000000000, 0.0000000000000000000 ) ) ;
#178 = ADVANCED_FACE ( 'NONE', ( #175 ), #214, .T. ) ;
#179 = ORIENTED_EDGE ( 'NONE', *, *, #16, .T. ) ;
#180 = ORIENTED_EDGE ( 'NONE', *, *, #33, .F. ) ;
#181 = PRESENTATION_STYLE_ASSIGNMENT (( #115 ) ) ;
#182 = ORIENTED_EDGE ( 'NONE', *, *, #39, .F. ) ;
#183 = ORIENTED_EDGE ( 'NONE', *, *, #321, .F. ) ;
#184 = SURFACE_SIDE_STYLE ('',( #85 ) ) ;
#185 = AXIS2_PLACEMENT_3D ( 'NONE', #20, #119, #163 ) ;
#186 = VERTEX_POINT ( 'NONE', #97 ) ;
#187 = LINE ( 'NONE', #265, #176 ) ;
#188 = EDGE_CURVE ( 'NONE', #203, #109, #229, .T. ) ;
#189 = DIRECTION ( 'NONE',  ( 0.7071067811865502373, 8.659560562354966138E-17, -0.7071067811865446862 ) ) ;
#190 = PRODUCT_RELATED_PRODUCT_CATEGORY ( 'part', '', ( #132 ) ) ;
#191 = EDGE_CURVE ( 'NONE', #280, #255, #198, .T. ) ;
#192 = FACE_OUTER_BOUND ( 'NONE', #230, .T. ) ;
#193 = CARTESIAN_POINT ( 'NONE',  ( 0.0000000000000000000, 0.0000000000000000000, 0.0000000000000000000 ) ) ;
#194 =( NAMED_UNIT ( * ) SI_UNIT ( $, .STERADIAN. ) SOLID_ANGLE_UNIT ( ) );
#195 = CIRCLE ( 'NONE', #88, 0.06374000000000018540 ) ;
#196 =( NAMED_UNIT ( * ) PLANE_ANGLE_UNIT ( ) SI_UNIT ( $, .RADIAN. ) );
#197 = CARTESIAN_POINT ( 'NONE',  ( 0.07874000000000000443, 9.642868896486258509E-18, 1.968503999999999809 ) ) ;
#198 = LINE ( 'NONE', #52, #141 ) ;
#199 = PRODUCT_DEFINITION ( 'UNKNOWN', '', #70, #224 ) ;
#200 = EDGE_CURVE ( 'NONE', #280, #208, #221, .T. ) ;
#201 = AXIS2_PLACEMENT_3D ( 'NONE', #2, #273, #103 ) ;
#202 = EDGE_LOOP ( 'NONE', ( #216, #128, #305, #275 ) ) ;
#203 = VERTEX_POINT ( 'NONE', #247 ) ;
#204 = UNCERTAINTY_MEASURE_WITH_UNIT (LENGTH_MEASURE( 1.000000000000000082E-05 ), #91, 'distance_accuracy_value', 'NONE');
#205 = ORIENTED_EDGE ( 'NONE', *, *, #246, .T. ) ;
#206 =( CONVERSION_BASED_UNIT ( 'INCH', #7 ) LENGTH_UNIT ( ) NAMED_UNIT ( #4 ) );
#207 = CIRCLE ( 'NONE', #245, 0.03933062999999999837 ) ;
#208 = VERTEX_POINT ( 'NONE', #122 ) ;
#209 = PRESENTATION_LAYER_ASSIGNMENT (  '', '', ( #28 ) ) ;
#210 = VERTEX_POINT ( 'NONE', #24 ) ;
#211 = DIRECTION ( 'NONE',  ( 1.224646799147353207E-16, 1.000000000000000000, -0.0000000000000000000 ) ) ;
#212 =( GEOMETRIC_REPRESENTATION_CONTEXT ( 3 ) GLOBAL_UNCERTAINTY_ASSIGNED_CONTEXT ( ( #204 ) ) GLOBAL_UNIT_ASSIGNED_CONTEXT ( ( #91, #68, #238 ) ) REPRESENTATION_CONTEXT ( 'NONE', 'WORKASPACE' ) );
#213 = DIRECTION ( 'NONE',  ( -1.000000000000000000, 0.0000000000000000000, 0.0000000000000000000 ) ) ;
#214 = CONICAL_SURFACE ( 'NONE', #253, 0.03933062999999999837, 0.1745329251994339470 ) ;
#215 = DIRECTION ( 'NONE',  ( 0.0000000000000000000, 0.0000000000000000000, 1.000000000000000000 ) ) ;
#216 = ORIENTED_EDGE ( 'NONE', *, *, #258, .F. ) ;
#217 = FILL_AREA_STYLE ('',( #286 ) ) ;
#218 = CARTESIAN_POINT ( 'NONE',  ( 0.06374000000000018540, 7.805898697765251255E-18, 1.968503999999999809 ) ) ;
#219 = CARTESIAN_POINT ( 'NONE',  ( 2.892860668945878169E-17, 0.0000000000000000000, 0.2362200000000000133 ) ) ;
#220 =( CONVERSION_BASED_UNIT ( 'INCH', #323 ) LENGTH_UNIT ( ) NAMED_UNIT ( #296 ) );
#221 = LINE ( 'NONE', #270, #86 ) ;
#222 = DIRECTION ( 'NONE',  ( -1.224646799147353207E-16, -0.0000000000000000000, -1.000000000000000000 ) ) ;
#223 = FACE_OUTER_BOUND ( 'NONE', #105, .T. ) ;
#224 = PRODUCT_DEFINITION_CONTEXT ( 'detailed design', #48, 'design' ) ;
#225 = LINE ( 'NONE', #197, #121 ) ;
#226 = CYLINDRICAL_SURFACE ( 'NONE', #201, 0.03933062999999999837 ) ;
#227 = ORIENTED_EDGE ( 'NONE', *, *, #112, .F. ) ;
#228 = PRESENTATION_LAYER_ASSIGNMENT (  '', '', ( #135 ) ) ;
#229 = CIRCLE ( 'NONE', #117, 0.07874000000000000443 ) ;
#230 = EDGE_LOOP ( 'NONE', ( #256, #107, #6 ) ) ;
#231 = ORIENTED_EDGE ( 'NONE', *, *, #251, .T. ) ;
#232 = ORIENTED_EDGE ( 'NONE', *, *, #78, .F. ) ;
#233 = ORIENTED_EDGE ( 'NONE', *, *, #191, .F. ) ;
#234 = FILL_AREA_STYLE ('',( #260 ) ) ;
#235 = FACE_OUTER_BOUND ( 'NONE', #307, .T. ) ;
#236 = CARTESIAN_POINT ( 'NONE',  ( 0.0000000000000000000, 0.0000000000000000000, 1.968503999999999809 ) ) ;
#237 = EDGE_CURVE ( 'NONE', #210, #255, #124, .T. ) ;
#238 =( NAMED_UNIT ( * ) SI_UNIT ( $, .STERADIAN. ) SOLID_ANGLE_UNIT ( ) );
#239 = DIRECTION ( 'NONE',  ( -0.0000000000000000000, -0.0000000000000000000, -1.000000000000000000 ) ) ;
#240 = CARTESIAN_POINT ( 'NONE',  ( 0.0000000000000000000, 0.0000000000000000000, 1.968503999999999809 ) ) ;
#241 = VECTOR ( 'NONE', #113, 39.37007874015748143 ) ;
#242 = CARTESIAN_POINT ( 'NONE',  ( 0.0000000000000000000, 0.0000000000000000000, 1.968503999999999809 ) ) ;
#243 = EDGE_CURVE ( 'NONE', #11, #186, #263, .T. ) ;
#244 = DIRECTION ( 'NONE',  ( 0.0000000000000000000, -1.000000000000000000, 0.0000000000000000000 ) ) ;
#245 = AXIS2_PLACEMENT_3D ( 'NONE', #73, #271, #267 ) ;
#246 = EDGE_CURVE ( 'NONE', #159, #280, #168, .T. ) ;
#247 = CARTESIAN_POINT ( 'NONE',  ( 0.07874000000000000443, 9.642868896486258509E-18, 1.953504000000000129 ) ) ;
#248 = UNCERTAINTY_MEASURE_WITH_UNIT (LENGTH_MEASURE( 1.000000000000000082E-05 ), #206, 'distance_accuracy_value', 'NONE');
#249 = CYLINDRICAL_SURFACE ( 'NONE', #36, 0.07874000000000000443 ) ;
#250 = ORIENTED_EDGE ( 'NONE', *, *, #246, .F. ) ;
#251 = EDGE_CURVE ( 'NONE', #9, #255, #104, .T. ) ;
#252 = AXIS2_PLACEMENT_3D ( 'NONE', #34, #10, #165 ) ;
#253 = AXIS2_PLACEMENT_3D ( 'NONE', #30, #148, #174 ) ;
#254 = EDGE_LOOP ( 'NONE', ( #77, #278, #183, #182 ) ) ;
#255 = VERTEX_POINT ( 'NONE', #26 ) ;
#256 = ORIENTED_EDGE ( 'NONE', *, *, #251, .F. ) ;
#257 = AXIS2_PLACEMENT_3D ( 'NONE', #277, #60, #293 ) ;
#258 = EDGE_CURVE ( 'NONE', #203, #208, #225, .T. ) ;
#259 = CONICAL_SURFACE ( 'NONE', #62, 0.06374000000000018540, 0.7853981633974522758 ) ;
#260 = FILL_AREA_STYLE_COLOUR ( '', #146 ) ;
#261 = CARTESIAN_POINT ( 'NONE',  ( -0.07874000000000000443, 0.0000000000000000000, 1.968503999999999809 ) ) ;
#262 = DIRECTION ( 'NONE',  ( -1.000000000000000000, 0.0000000000000000000, 0.0000000000000000000 ) ) ;
#263 = CIRCLE ( 'NONE', #27, 0.06374000000000018540 ) ;
#264 = DIRECTION ( 'NONE',  ( -1.000000000000000000, 0.0000000000000000000, 0.0000000000000000000 ) ) ;
#265 = CARTESIAN_POINT ( 'NONE',  ( -0.06374000000000018540, 0.0000000000000000000, 1.968503999999999809 ) ) ;
#266 = EDGE_CURVE ( 'NONE', #255, #210, #207, .T. ) ;
#267 = DIRECTION ( 'NONE',  ( -1.000000000000000000, 0.0000000000000000000, 2.170579261049422102E-16 ) ) ;
#268 = MECHANICAL_DESIGN_GEOMETRIC_PRESENTATION_REPRESENTATION (  '', ( #135 ), #300 ) ;
#269 = LINE ( 'NONE', #155, #138 ) ;
#270 = CARTESIAN_POINT ( 'NONE',  ( 0.03933063000000001919, 0.0000000000000000000, 0.2362200000000000133 ) ) ;
#271 = DIRECTION ( 'NONE',  ( 1.224646799147353207E-16, 0.0000000000000000000, 1.000000000000000000 ) ) ;
#272 = AXIS2_PLACEMENT_3D ( 'NONE', #47, #211, #289 ) ;
#273 = DIRECTION ( 'NONE',  ( -1.224646799147353207E-16, -0.0000000000000000000, -1.000000000000000000 ) ) ;
#274 = ORIENTED_EDGE ( 'NONE', *, *, #39, .T. ) ;
#275 = ORIENTED_EDGE ( 'NONE', *, *, #290, .F. ) ;
#276 = AXIS2_PLACEMENT_3D ( 'NONE', #299, #76, #177 ) ;
#277 = CARTESIAN_POINT ( 'NONE',  ( 0.0000000000000000000, 0.0000000000000000000, 1.968503999999999809 ) ) ;
#278 = ORIENTED_EDGE ( 'NONE', *, *, #78, .T. ) ;
#279 = ORIENTED_EDGE ( 'NONE', *, *, #266, .T. ) ;
#280 = VERTEX_POINT ( 'NONE', #325 ) ;
#281 = AXIS2_PLACEMENT_3D ( 'NONE', #118, #167, #43 ) ;
#282 = CARTESIAN_POINT ( 'NONE',  ( 4.816613013794885432E-18, 0.0000000000000000000, 0.03933062999999999837 ) ) ;
#283 = ADVANCED_FACE ( 'NONE', ( #50 ), #172, .T. ) ;
#284 = CARTESIAN_POINT ( 'NONE',  ( 7.224919520692328148E-18, 0.0000000000000000000, 0.0000000000000000000 ) ) ;
#285 = CARTESIAN_POINT ( 'NONE',  ( 0.0000000000000000000, 0.0000000000000000000, 1.968503999999999809 ) ) ;
#286 = FILL_AREA_STYLE_COLOUR ( '', #17 ) ;
#287 = CIRCLE ( 'NONE', #252, 0.07874000000000000443 ) ;
#288 = DIRECTION ( 'NONE',  ( -1.224646799147353207E-16, -0.0000000000000000000, -1.000000000000000000 ) ) ;
#289 = DIRECTION ( 'NONE',  ( -1.000000000000000000, 1.224646799147352961E-16, 0.0000000000000000000 ) ) ;
#290 = EDGE_CURVE ( 'NONE', #208, #108, #309, .T. ) ;
#291 = DIRECTION ( 'NONE',  ( -1.224646799147353207E-16, -0.0000000000000000000, -1.000000000000000000 ) ) ;
#292 = CARTESIAN_POINT ( 'NONE',  ( 0.0000000000000000000, 0.0000000000000000000, 1.953504000000000129 ) ) ;
#293 = DIRECTION ( 'NONE',  ( 1.000000000000000000, 0.0000000000000000000, -0.0000000000000000000 ) ) ;
#294 = DIRECTION ( 'NONE',  ( 0.0000000000000000000, 0.0000000000000000000, -1.000000000000000000 ) ) ;
#295 = ADVANCED_FACE ( 'NONE', ( #54 ), #226, .T. ) ;
#296 = DIMENSIONAL_EXPONENTS ( 1.000000000000000000, 0.0000000000000000000, 0.0000000000000000000, 0.0000000000000000000, 0.0000000000000000000, 0.0000000000000000000, 0.0000000000000000000 ) ;
#297 = DIRECTION ( 'NONE',  ( -0.0000000000000000000, -0.0000000000000000000, -1.000000000000000000 ) ) ;
#298 = ADVANCED_FACE ( 'NONE', ( #156 ), #249, .T. ) ;
#299 = CARTESIAN_POINT ( 'NONE',  ( 5.629966393378922948E-17, 0.0000000000000000000, 0.4597216436035863052 ) ) ;
#300 =( GEOMETRIC_REPRESENTATION_CONTEXT ( 3 ) GLOBAL_UNCERTAINTY_ASSIGNED_CONTEXT ( ( #248 ) ) GLOBAL_UNIT_ASSIGNED_CONTEXT ( ( #206, #196, #194 ) ) REPRESENTATION_CONTEXT ( 'NONE', 'WORKASPACE' ) );
#301 = SHAPE_DEFINITION_REPRESENTATION ( #137, #110 ) ;
#302 = ORIENTED_EDGE ( 'NONE', *, *, #16, .F. ) ;
#303 = APPLICATION_CONTEXT ( 'automotive_design' ) ;
#304 = EDGE_LOOP ( 'NONE', ( #233, #111, #179, #45 ) ) ;
#305 = ORIENTED_EDGE ( 'NONE', *, *, #33, .T. ) ;
#306 = CIRCLE ( 'NONE', #272, 0.03933062999999999837 ) ;
#307 = EDGE_LOOP ( 'NONE', ( #157, #61, #35, #131 ) ) ;
#308 = FACE_OUTER_BOUND ( 'NONE', #56, .T. ) ;
#309 = CIRCLE ( 'NONE', #276, 0.07874000000000000443 ) ;
#310 = AXIS2_PLACEMENT_3D ( 'NONE', #282, #19, #311 ) ;
#311 = DIRECTION ( 'NONE',  ( 1.000000000000000000, 0.0000000000000000000, 0.0000000000000000000 ) ) ;
#312 = CARTESIAN_POINT ( 'NONE',  ( 0.0000000000000000000, 0.0000000000000000000, 1.968503999999999809 ) ) ;
#313 = SPHERICAL_SURFACE ( 'NONE', #310, 0.03933062999999999837 ) ;
#314 = DIRECTION ( 'NONE',  ( -0.0000000000000000000, -0.0000000000000000000, -1.000000000000000000 ) ) ;
#315 = LENGTH_MEASURE_WITH_UNIT ( LENGTH_MEASURE( 0.02539999999999999897 ), #166 );
#316 = AXIS2_PLACEMENT_3D ( 'NONE', #193, #147, #127 ) ;
#317 = CARTESIAN_POINT ( 'NONE',  ( -0.07873999999999994892, 0.0000000000000000000, 0.4597216436035863052 ) ) ;
#318 = ADVANCED_FACE ( 'NONE', ( #223 ), #74, .T. ) ;
#319 = CARTESIAN_POINT ( 'NONE',  ( 4.816613013794885432E-18, 0.0000000000000000000, 0.03933062999999999837 ) ) ;
#320 = DIRECTION ( 'NONE',  ( 1.000000000000000000, 0.0000000000000000000, 0.0000000000000000000 ) ) ;
#321 = EDGE_CURVE ( 'NONE', #109, #203, #287, .T. ) ;
#322 = DIRECTION ( 'NONE',  ( 1.000000000000000000, 0.0000000000000000000, 0.0000000000000000000 ) ) ;
#323 = LENGTH_MEASURE_WITH_UNIT ( LENGTH_MEASURE( 0.02539999999999999897 ), #99 );
#324 = APPLICATION_PROTOCOL_DEFINITION ( 'draft international standard', 'automotive_design', 1998, #48 ) ;
#325 = CARTESIAN_POINT ( 'NONE',  ( 0.03933063000000001919, 0.0000000000000000000, 0.2362200000000000133 ) ) ;
ENDSEC;
END-ISO-10303-21;
