ISO-10303-21;
HEADER;
FILE_DESCRIPTION (( 'STEP AP214' ),
    '1' );
FILE_NAME ('81714W.STEP',
    '2023-06-23T02:59:53',
    ( '' ),
    ( '' ),
    'SwSTEP 2.0',
    'SolidWorks 2023',
    '' );
FILE_SCHEMA (( 'AUTOMOTIVE_DESIGN' ));
ENDSEC;

DATA;
#1 = PRODUCT ( '81714W', '81714W', '', ( #41 ) ) ;
#2 = APPLICATION_CONTEXT ( 'automotive_design' ) ;
#3 =( LENGTH_UNIT ( ) NAMED_UNIT ( * ) SI_UNIT ( $, .METRE. ) );
#4 = DIMENSIONAL_EXPONENTS ( 1.000000000000000000, 0.000000000000000000, 0.000000000000000000, 0.000000000000000000, 0.000000000000000000, 0.000000000000000000, 0.000000000000000000 ) ;
#5 = DIRECTION ( 'NONE',  ( -1.000000000000000000, 0.000000000000000000, 0.000000000000000000 ) ) ;
#6 = CLOSED_SHELL ( 'NONE', ( #183, #114, #290, #155 ) ) ;
#7 = DIRECTION ( 'NONE',  ( 0.000000000000000000, 0.000000000000000000, -1.000000000000000000 ) ) ;
#8 = VERTEX_POINT ( 'NONE', #44 ) ;
#9 = SURFACE_SIDE_STYLE ('',( #271 ) ) ;
#10 =( CONVERSION_BASED_UNIT ( 'INCH', #103 ) LENGTH_UNIT ( ) NAMED_UNIT ( #4 ) );
#11 = EDGE_CURVE ( 'NONE', #18, #159, #209, .T. ) ;
#12 = ORIENTED_EDGE ( 'NONE', *, *, #20, .F. ) ;
#13 = UNCERTAINTY_MEASURE_WITH_UNIT (LENGTH_MEASURE( 1.000000000000000082E-05 ), #117, 'distance_accuracy_value', 'NONE');
#14 = DIRECTION ( 'NONE',  ( 3.498990854706726443E-17, 1.000000000000000000, -0.000000000000000000 ) ) ;
#15 =( GEOMETRIC_REPRESENTATION_CONTEXT ( 3 ) GLOBAL_UNCERTAINTY_ASSIGNED_CONTEXT ( ( #77 ) ) GLOBAL_UNIT_ASSIGNED_CONTEXT ( ( #23, #22, #27 ) ) REPRESENTATION_CONTEXT ( 'NONE', 'WORKASPACE' ) );
#16 =( GEOMETRIC_REPRESENTATION_CONTEXT ( 3 ) GLOBAL_UNCERTAINTY_ASSIGNED_CONTEXT ( ( #197 ) ) GLOBAL_UNIT_ASSIGNED_CONTEXT ( ( #34, #243, #164 ) ) REPRESENTATION_CONTEXT ( 'NONE', 'WORKASPACE' ) );
#17 =( CONVERSION_BASED_UNIT ( 'INCH', #156 ) LENGTH_UNIT ( ) NAMED_UNIT ( #166 ) );
#18 = VERTEX_POINT ( 'NONE', #192 ) ;
#19 = ORIENTED_EDGE ( 'NONE', *, *, #295, .F. ) ;
#20 = EDGE_CURVE ( 'NONE', #159, #64, #202, .T. ) ;
#21 = AXIS2_PLACEMENT_3D ( 'NONE', #280, #58, #288 ) ;
#22 =( NAMED_UNIT ( * ) PLANE_ANGLE_UNIT ( ) SI_UNIT ( $, .RADIAN. ) );
#23 =( CONVERSION_BASED_UNIT ( 'INCH', #67 ) LENGTH_UNIT ( ) NAMED_UNIT ( #73 ) );
#24 = FACE_OUTER_BOUND ( 'NONE', #287, .T. ) ;
#25 = ADVANCED_FACE ( 'NONE', ( #81 ), #178, .F. ) ;
#26 = APPLICATION_CONTEXT ( 'automotive_design' ) ;
#27 =( NAMED_UNIT ( * ) SI_UNIT ( $, .STERADIAN. ) SOLID_ANGLE_UNIT ( ) );
#28 = DIRECTION ( 'NONE',  ( 3.498990854706726443E-17, 1.000000000000000000, -0.000000000000000000 ) ) ;
#29 = SURFACE_STYLE_FILL_AREA ( #206 ) ;
#30 = CIRCLE ( 'NONE', #180, 0.1875000000000000278 ) ;
#31 = CARTESIAN_POINT ( 'NONE',  ( 6.123233995736772199E-17, 2.500000000000000000, 0.000000000000000000 ) ) ;
#32 = AXIS2_PLACEMENT_3D ( 'NONE', #221, #201, #89 ) ;
#33 = VECTOR ( 'NONE', #14, 39.37007874015748143 ) ;
#34 =( CONVERSION_BASED_UNIT ( 'INCH', #274 ) LENGTH_UNIT ( ) NAMED_UNIT ( #273 ) );
#35 = ORIENTED_EDGE ( 'NONE', *, *, #219, .F. ) ;
#36 = UNCERTAINTY_MEASURE_WITH_UNIT (LENGTH_MEASURE( 1.000000000000000082E-05 ), #223, 'distance_accuracy_value', 'NONE');
#37 = PRESENTATION_STYLE_ASSIGNMENT (( #256 ) ) ;
#38 = ORIENTED_EDGE ( 'NONE', *, *, #92, .F. ) ;
#39 = DIRECTION ( 'NONE',  ( 1.000000000000000000, 0.000000000000000000, 0.000000000000000000 ) ) ;
#40 = CARTESIAN_POINT ( 'NONE',  ( 6.123233995736772199E-17, 2.500000000000000000, 0.000000000000000000 ) ) ;
#41 = PRODUCT_CONTEXT ( 'NONE', #26, 'mechanical' ) ;
#42 = SURFACE_SIDE_STYLE ('',( #231 ) ) ;
#43 = ORIENTED_EDGE ( 'NONE', *, *, #162, .T. ) ;
#44 = CARTESIAN_POINT ( 'NONE',  ( 0.1875000000000000278, 2.500000000000000000, 2.296212748401287109E-17 ) ) ;
#45 = MECHANICAL_DESIGN_GEOMETRIC_PRESENTATION_REPRESENTATION (  '', ( #90 ), #304 ) ;
#46 = FILL_AREA_STYLE ('',( #182 ) ) ;
#47 = PRESENTATION_STYLE_ASSIGNMENT (( #49 ) ) ;
#48 = LENGTH_MEASURE_WITH_UNIT ( LENGTH_MEASURE( 0.02539999999999999897 ), #107 );
#49 = SURFACE_STYLE_USAGE ( .BOTH. , #145 ) ;
#50 = PRESENTATION_LAYER_ASSIGNMENT (  '', '', ( #148 ) ) ;
#51 = AXIS2_PLACEMENT_3D ( 'NONE', #220, #167, #279 ) ;
#52 = DIRECTION ( 'NONE',  ( -0.000000000000000000, -1.000000000000000000, -0.000000000000000000 ) ) ;
#53 = DIRECTION ( 'NONE',  ( 3.498990854706726443E-17, 1.000000000000000000, -0.000000000000000000 ) ) ;
#54 = SURFACE_STYLE_FILL_AREA ( #249 ) ;
#55 =( GEOMETRIC_REPRESENTATION_CONTEXT ( 3 ) GLOBAL_UNCERTAINTY_ASSIGNED_CONTEXT ( ( #36 ) ) GLOBAL_UNIT_ASSIGNED_CONTEXT ( ( #223, #195, #154 ) ) REPRESENTATION_CONTEXT ( 'NONE', 'WORKASPACE' ) );
#56 = ORIENTED_EDGE ( 'NONE', *, *, #92, .T. ) ;
#57 = FILL_AREA_STYLE_COLOUR ( '', #95 ) ;
#58 = DIRECTION ( 'NONE',  ( -3.498990854706726443E-17, -1.000000000000000000, 0.000000000000000000 ) ) ;
#59 = SURFACE_STYLE_FILL_AREA ( #296 ) ;
#60 = ORIENTED_EDGE ( 'NONE', *, *, #11, .T. ) ;
#61 = SURFACE_STYLE_USAGE ( .BOTH. , #42 ) ;
#62 = ORIENTED_EDGE ( 'NONE', *, *, #219, .T. ) ;
#63 = VECTOR ( 'NONE', #228, 39.37007874015748143 ) ;
#64 = VERTEX_POINT ( 'NONE', #196 ) ;
#65 =( LENGTH_UNIT ( ) NAMED_UNIT ( * ) SI_UNIT ( $, .METRE. ) );
#66 = DIRECTION ( 'NONE',  ( -1.000000000000000000, 0.000000000000000000, 0.000000000000000000 ) ) ;
#67 = LENGTH_MEASURE_WITH_UNIT ( LENGTH_MEASURE( 0.02539999999999999897 ), #239 );
#68 = CARTESIAN_POINT ( 'NONE',  ( 0.000000000000000000, 0.7500000000000001110, 0.000000000000000000 ) ) ;
#69 = DIRECTION ( 'NONE',  ( -0.000000000000000000, -1.000000000000000000, -0.000000000000000000 ) ) ;
#70 = DIRECTION ( 'NONE',  ( 0.000000000000000000, 1.000000000000000000, 0.000000000000000000 ) ) ;
#71 = AXIS2_PLACEMENT_3D ( 'NONE', #40, #157, #260 ) ;
#72 = ADVANCED_BREP_SHAPE_REPRESENTATION ( '81714W', ( #207, #308, #116 ), #16 ) ;
#73 = DIMENSIONAL_EXPONENTS ( 1.000000000000000000, 0.000000000000000000, 0.000000000000000000, 0.000000000000000000, 0.000000000000000000, 0.000000000000000000, 0.000000000000000000 ) ;
#74 = PRODUCT_DEFINITION_CONTEXT ( 'detailed design', #2, 'design' ) ;
#75 = CYLINDRICAL_SURFACE ( 'NONE', #71, 0.1874999999999999722 ) ;
#76 = EDGE_CURVE ( 'NONE', #151, #171, #269, .T. ) ;
#77 = UNCERTAINTY_MEASURE_WITH_UNIT (LENGTH_MEASURE( 1.000000000000000082E-05 ), #23, 'distance_accuracy_value', 'NONE');
#78 =( NAMED_UNIT ( * ) SI_UNIT ( $, .STERADIAN. ) SOLID_ANGLE_UNIT ( ) );
#79 = DIRECTION ( 'NONE',  ( 0.000000000000000000, 0.000000000000000000, -1.000000000000000000 ) ) ;
#80 = AXIS2_PLACEMENT_3D ( 'NONE', #297, #52, #246 ) ;
#81 = FACE_OUTER_BOUND ( 'NONE', #264, .T. ) ;
#82 = ORIENTED_EDGE ( 'NONE', *, *, #162, .F. ) ;
#83 = EDGE_CURVE ( 'NONE', #171, #129, #198, .T. ) ;
#84 = PRESENTATION_STYLE_ASSIGNMENT (( #61 ) ) ;
#85 = SHAPE_DEFINITION_REPRESENTATION ( #97, #72 ) ;
#86 = FACE_OUTER_BOUND ( 'NONE', #109, .T. ) ;
#87 = ORIENTED_EDGE ( 'NONE', *, *, #286, .F. ) ;
#88 =( NAMED_UNIT ( * ) SI_UNIT ( $, .STERADIAN. ) SOLID_ANGLE_UNIT ( ) );
#89 = DIRECTION ( 'NONE',  ( -1.000000000000000000, 0.000000000000000000, 0.000000000000000000 ) ) ;
#90 = STYLED_ITEM ( 'NONE', ( #99 ), #308 ) ;
#91 = CYLINDRICAL_SURFACE ( 'NONE', #276, 0.1874999999999999722 ) ;
#92 = EDGE_CURVE ( 'NONE', #106, #151, #179, .T. ) ;
#93 =( NAMED_UNIT ( * ) PLANE_ANGLE_UNIT ( ) SI_UNIT ( $, .RADIAN. ) );
#94 = PLANE ( 'NONE',  #203 ) ;
#95 = COLOUR_RGB ( '',1.000000000000000000, 0.000000000000000000, 0.000000000000000000 ) ;
#96 = CARTESIAN_POINT ( 'NONE',  ( 6.123233995736772199E-17, 2.500000000000000000, 0.000000000000000000 ) ) ;
#97 = PRODUCT_DEFINITION_SHAPE ( 'NONE', 'NONE',  #125 ) ;
#98 = PRESENTATION_STYLE_ASSIGNMENT (( #211 ) ) ;
#99 = PRESENTATION_STYLE_ASSIGNMENT (( #102 ) ) ;
#100 =( NAMED_UNIT ( * ) SI_UNIT ( $, .STERADIAN. ) SOLID_ANGLE_UNIT ( ) );
#101 = UNCERTAINTY_MEASURE_WITH_UNIT (LENGTH_MEASURE( 1.000000000000000082E-05 ), #10, 'distance_accuracy_value', 'NONE');
#102 = SURFACE_STYLE_USAGE ( .BOTH. , #9 ) ;
#103 = LENGTH_MEASURE_WITH_UNIT ( LENGTH_MEASURE( 0.02539999999999999897 ), #3 );
#104 = DIRECTION ( 'NONE',  ( 0.000000000000000000, 0.000000000000000000, 1.000000000000000000 ) ) ;
#105 = PRESENTATION_STYLE_ASSIGNMENT (( #253 ) ) ;
#106 = VERTEX_POINT ( 'NONE', #163 ) ;
#107 =( LENGTH_UNIT ( ) NAMED_UNIT ( * ) SI_UNIT ( $, .METRE. ) );
#108 = STYLED_ITEM ( 'NONE', ( #84 ), #290 ) ;
#109 = EDGE_LOOP ( 'NONE', ( #226, #275, #134, #176 ) ) ;
#110 = UNCERTAINTY_MEASURE_WITH_UNIT (LENGTH_MEASURE( 1.000000000000000082E-05 ), #17, 'distance_accuracy_value', 'NONE');
#111 = CARTESIAN_POINT ( 'NONE',  ( 0.000000000000000000, 0.000000000000000000, -0.1875000000000000278 ) ) ;
#112 = COLOUR_RGB ( '',0.7921568627450980005, 0.8196078431372548767, 0.9333333333333333481 ) ;
#113 = ORIENTED_EDGE ( 'NONE', *, *, #295, .T. ) ;
#114 = ADVANCED_FACE ( 'NONE', ( #306 ), #94, .T. ) ;
#115 = ORIENTED_EDGE ( 'NONE', *, *, #261, .F. ) ;
#116 = AXIS2_PLACEMENT_3D ( 'NONE', #218, #104, #39 ) ;
#117 =( CONVERSION_BASED_UNIT ( 'INCH', #135 ) LENGTH_UNIT ( ) NAMED_UNIT ( #248 ) );
#118 = FACE_OUTER_BOUND ( 'NONE', #133, .T. ) ;
#119 = CARTESIAN_POINT ( 'NONE',  ( 0.000000000000000000, 0.000000000000000000, 0.000000000000000000 ) ) ;
#120 = CARTESIAN_POINT ( 'NONE',  ( 0.000000000000000000, 0.000000000000000000, 0.000000000000000000 ) ) ;
#121 = AXIS2_PLACEMENT_3D ( 'NONE', #247, #53, #278 ) ;
#122 = SURFACE_SIDE_STYLE ('',( #29 ) ) ;
#123 =( LENGTH_UNIT ( ) NAMED_UNIT ( * ) SI_UNIT ( $, .METRE. ) );
#124 = FILL_AREA_STYLE_COLOUR ( '', #144 ) ;
#125 = PRODUCT_DEFINITION ( 'UNKNOWN', '', #138, #74 ) ;
#126 = APPLICATION_PROTOCOL_DEFINITION ( 'draft international standard', 'automotive_design', 1998, #26 ) ;
#127 = CYLINDRICAL_SURFACE ( 'NONE', #51, 0.1875000000000000278 ) ;
#128 = EDGE_LOOP ( 'NONE', ( #87, #60, #258, #299 ) ) ;
#129 = VERTEX_POINT ( 'NONE', #208 ) ;
#130 = LINE ( 'NONE', #111, #63 ) ;
#131 = ADVANCED_FACE ( 'NONE', ( #118 ), #91, .T. ) ;
#132 = PRESENTATION_LAYER_ASSIGNMENT (  '', '', ( #242 ) ) ;
#133 = EDGE_LOOP ( 'NONE', ( #43, #200, #19, #12 ) ) ;
#134 = ORIENTED_EDGE ( 'NONE', *, *, #261, .T. ) ;
#135 = LENGTH_MEASURE_WITH_UNIT ( LENGTH_MEASURE( 0.02539999999999999897 ), #65 );
#136 = FACE_OUTER_BOUND ( 'NONE', #303, .T. ) ;
#137 = PRESENTATION_LAYER_ASSIGNMENT (  '', '', ( #283 ) ) ;
#138 = PRODUCT_DEFINITION_FORMATION_WITH_SPECIFIED_SOURCE ( 'ANY', '', #1, .NOT_KNOWN. ) ;
#139 = CARTESIAN_POINT ( 'NONE',  ( 0.000000000000000000, 0.7500000000000001110, 0.000000000000000000 ) ) ;
#140 = CARTESIAN_POINT ( 'NONE',  ( 2.296212748401287726E-17, 0.000000000000000000, 0.1875000000000000278 ) ) ;
#141 = DIRECTION ( 'NONE',  ( 0.000000000000000000, 0.000000000000000000, -1.000000000000000000 ) ) ;
#142 = CARTESIAN_POINT ( 'NONE',  ( 0.000000000000000000, 0.000000000000000000, 0.000000000000000000 ) ) ;
#143 = VECTOR ( 'NONE', #298, 39.37007874015748143 ) ;
#144 = COLOUR_RGB ( '',0.7921568627450980005, 0.8196078431372548767, 0.9333333333333333481 ) ;
#145 = SURFACE_SIDE_STYLE ('',( #267 ) ) ;
#146 = DIRECTION ( 'NONE',  ( 0.000000000000000000, -1.000000000000000000, -0.000000000000000000 ) ) ;
#147 = DIMENSIONAL_EXPONENTS ( 1.000000000000000000, 0.000000000000000000, 0.000000000000000000, 0.000000000000000000, 0.000000000000000000, 0.000000000000000000, 0.000000000000000000 ) ;
#148 = STYLED_ITEM ( 'NONE', ( #47 ), #114 ) ;
#149 = AXIS2_PLACEMENT_3D ( 'NONE', #119, #222, #7 ) ;
#150 = SURFACE_SIDE_STYLE ('',( #54 ) ) ;
#151 = VERTEX_POINT ( 'NONE', #185 ) ;
#152 = SURFACE_SIDE_STYLE ('',( #59 ) ) ;
#153 = ORIENTED_EDGE ( 'NONE', *, *, #11, .F. ) ;
#154 =( NAMED_UNIT ( * ) SI_UNIT ( $, .STERADIAN. ) SOLID_ANGLE_UNIT ( ) );
#155 = ADVANCED_FACE ( 'NONE', ( #237 ), #240, .T. ) ;
#156 = LENGTH_MEASURE_WITH_UNIT ( LENGTH_MEASURE( 0.02539999999999999897 ), #177 );
#157 = DIRECTION ( 'NONE',  ( 3.498990854706726443E-17, 1.000000000000000000, -0.000000000000000000 ) ) ;
#158 = AXIS2_PLACEMENT_3D ( 'NONE', #305, #181, #238 ) ;
#159 = VERTEX_POINT ( 'NONE', #291 ) ;
#160 = CARTESIAN_POINT ( 'NONE',  ( 2.296212748401287726E-17, 0.000000000000000000, 0.1875000000000000278 ) ) ;
#161 = CLOSED_SHELL ( 'NONE', ( #131, #174, #236, #25 ) ) ;
#162 = EDGE_CURVE ( 'NONE', #159, #18, #30, .T. ) ;
#163 = CARTESIAN_POINT ( 'NONE',  ( 0.000000000000000000, 0.7500000000000001110, -0.1875000000000000278 ) ) ;
#164 =( NAMED_UNIT ( * ) SI_UNIT ( $, .STERADIAN. ) SOLID_ANGLE_UNIT ( ) );
#165 = DIRECTION ( 'NONE',  ( 0.000000000000000000, -0.000000000000000000, 1.000000000000000000 ) ) ;
#166 = DIMENSIONAL_EXPONENTS ( 1.000000000000000000, 0.000000000000000000, 0.000000000000000000, 0.000000000000000000, 0.000000000000000000, 0.000000000000000000, 0.000000000000000000 ) ;
#167 = DIRECTION ( 'NONE',  ( -0.000000000000000000, -1.000000000000000000, -0.000000000000000000 ) ) ;
#168 = CARTESIAN_POINT ( 'NONE',  ( -0.1874999999999999167, 2.500000000000000000, 0.000000000000000000 ) ) ;
#169 = AXIS2_PLACEMENT_3D ( 'NONE', #68, #187, #294 ) ;
#170 =( CONVERSION_BASED_UNIT ( 'INCH', #48 ) LENGTH_UNIT ( ) NAMED_UNIT ( #216 ) );
#171 = VERTEX_POINT ( 'NONE', #140 ) ;
#172 =( NAMED_UNIT ( * ) SI_UNIT ( $, .STERADIAN. ) SOLID_ANGLE_UNIT ( ) );
#173 = COLOUR_RGB ( '',1.000000000000000000, 0.000000000000000000, 0.000000000000000000 ) ;
#174 = ADVANCED_FACE ( 'NONE', ( #136 ), #235, .F. ) ;
#175 = CARTESIAN_POINT ( 'NONE',  ( 0.1875000000000000555, 2.500000000000000000, 2.296212748401286801E-17 ) ) ;
#176 = ORIENTED_EDGE ( 'NONE', *, *, #83, .F. ) ;
#177 =( LENGTH_UNIT ( ) NAMED_UNIT ( * ) SI_UNIT ( $, .METRE. ) );
#178 = PLANE ( 'NONE',  #21 ) ;
#179 = CIRCLE ( 'NONE', #169, 0.1875000000000000278 ) ;
#180 = AXIS2_PLACEMENT_3D ( 'NONE', #245, #28, #66 ) ;
#181 = DIRECTION ( 'NONE',  ( 3.498990854706726443E-17, 1.000000000000000000, -0.000000000000000000 ) ) ;
#182 = FILL_AREA_STYLE_COLOUR ( '', #173 ) ;
#183 = ADVANCED_FACE ( 'NONE', ( #24 ), #127, .T. ) ;
#184 =( GEOMETRIC_REPRESENTATION_CONTEXT ( 3 ) GLOBAL_UNCERTAINTY_ASSIGNED_CONTEXT ( ( #13 ) ) GLOBAL_UNIT_ASSIGNED_CONTEXT ( ( #117, #93, #172 ) ) REPRESENTATION_CONTEXT ( 'NONE', 'WORKASPACE' ) );
#185 = CARTESIAN_POINT ( 'NONE',  ( 2.296212748401287726E-17, 0.7500000000000001110, 0.1875000000000000278 ) ) ;
#186 = DIRECTION ( 'NONE',  ( 0.000000000000000000, 0.000000000000000000, -1.000000000000000000 ) ) ;
#187 = DIRECTION ( 'NONE',  ( -0.000000000000000000, -1.000000000000000000, -0.000000000000000000 ) ) ;
#188 = AXIS2_PLACEMENT_3D ( 'NONE', #31, #214, #5 ) ;
#189 = FACE_OUTER_BOUND ( 'NONE', #128, .T. ) ;
#190 =( LENGTH_UNIT ( ) NAMED_UNIT ( * ) SI_UNIT ( $, .METRE. ) );
#191 = DIRECTION ( 'NONE',  ( -0.000000000000000000, -1.000000000000000000, -0.000000000000000000 ) ) ;
#192 = CARTESIAN_POINT ( 'NONE',  ( 0.1875000000000000278, 0.7499999999999998890, 2.296212748401287109E-17 ) ) ;
#193 = MECHANICAL_DESIGN_GEOMETRIC_PRESENTATION_REPRESENTATION (  '', ( #148 ), #15 ) ;
#194 = CIRCLE ( 'NONE', #80, 0.1875000000000000278 ) ;
#195 =( NAMED_UNIT ( * ) PLANE_ANGLE_UNIT ( ) SI_UNIT ( $, .RADIAN. ) );
#196 = CARTESIAN_POINT ( 'NONE',  ( -0.1874999999999998890, 2.500000000000000000, 0.000000000000000000 ) ) ;
#197 = UNCERTAINTY_MEASURE_WITH_UNIT (LENGTH_MEASURE( 1.000000000000000082E-05 ), #34, 'distance_accuracy_value', 'NONE');
#198 = CIRCLE ( 'NONE', #307, 0.1875000000000000278 ) ;
#199 = CYLINDRICAL_SURFACE ( 'NONE', #149, 0.1875000000000000278 ) ;
#200 = ORIENTED_EDGE ( 'NONE', *, *, #286, .T. ) ;
#201 = DIRECTION ( 'NONE',  ( 3.498990854706726443E-17, 1.000000000000000000, -0.000000000000000000 ) ) ;
#202 = LINE ( 'NONE', #168, #143 ) ;
#203 = AXIS2_PLACEMENT_3D ( 'NONE', #139, #70, #165 ) ;
#204 =( GEOMETRIC_REPRESENTATION_CONTEXT ( 3 ) GLOBAL_UNCERTAINTY_ASSIGNED_CONTEXT ( ( #101 ) ) GLOBAL_UNIT_ASSIGNED_CONTEXT ( ( #10, #281, #100 ) ) REPRESENTATION_CONTEXT ( 'NONE', 'WORKASPACE' ) );
#205 = EDGE_CURVE ( 'NONE', #151, #106, #234, .T. ) ;
#206 = FILL_AREA_STYLE ('',( #233 ) ) ;
#207 = MANIFOLD_SOLID_BREP ( 'Revolve - Cutting Edge', #6 ) ;
#208 = CARTESIAN_POINT ( 'NONE',  ( 0.000000000000000000, 0.000000000000000000, -0.1875000000000000278 ) ) ;
#209 = CIRCLE ( 'NONE', #32, 0.1875000000000000278 ) ;
#210 = MECHANICAL_DESIGN_GEOMETRIC_PRESENTATION_REPRESENTATION (  '', ( #309 ), #55 ) ;
#211 = SURFACE_STYLE_USAGE ( .BOTH. , #122 ) ;
#212 = FILL_AREA_STYLE ('',( #252 ) ) ;
#213 = LENGTH_MEASURE_WITH_UNIT ( LENGTH_MEASURE( 0.02539999999999999897 ), #190 );
#214 = DIRECTION ( 'NONE',  ( 3.498990854706726443E-17, 1.000000000000000000, -0.000000000000000000 ) ) ;
#215 = COLOUR_RGB ( '',1.000000000000000000, 0.000000000000000000, 0.000000000000000000 ) ;
#216 = DIMENSIONAL_EXPONENTS ( 1.000000000000000000, 0.000000000000000000, 0.000000000000000000, 0.000000000000000000, 0.000000000000000000, 0.000000000000000000, 0.000000000000000000 ) ;
#217 = PRESENTATION_LAYER_ASSIGNMENT (  '', '', ( #309 ) ) ;
#218 = CARTESIAN_POINT ( 'NONE',  ( 0.000000000000000000, 0.000000000000000000, 0.000000000000000000 ) ) ;
#219 = EDGE_CURVE ( 'NONE', #129, #171, #194, .T. ) ;
#220 = CARTESIAN_POINT ( 'NONE',  ( 0.000000000000000000, 0.000000000000000000, 0.000000000000000000 ) ) ;
#221 = CARTESIAN_POINT ( 'NONE',  ( 0.000000000000000000, 0.7499999999999998890, 0.000000000000000000 ) ) ;
#222 = DIRECTION ( 'NONE',  ( -0.000000000000000000, -1.000000000000000000, -0.000000000000000000 ) ) ;
#223 =( CONVERSION_BASED_UNIT ( 'INCH', #213 ) LENGTH_UNIT ( ) NAMED_UNIT ( #147 ) );
#224 = EDGE_LOOP ( 'NONE', ( #62, #232 ) ) ;
#225 = CIRCLE ( 'NONE', #121, 0.1874999999999999445 ) ;
#226 = ORIENTED_EDGE ( 'NONE', *, *, #76, .F. ) ;
#227 = EDGE_CURVE ( 'NONE', #8, #64, #263, .T. ) ;
#228 = DIRECTION ( 'NONE',  ( -0.000000000000000000, -1.000000000000000000, -0.000000000000000000 ) ) ;
#229 = AXIS2_PLACEMENT_3D ( 'NONE', #142, #146, #186 ) ;
#230 = APPLICATION_PROTOCOL_DEFINITION ( 'draft international standard', 'automotive_design', 1998, #2 ) ;
#231 = SURFACE_STYLE_FILL_AREA ( #285 ) ;
#232 = ORIENTED_EDGE ( 'NONE', *, *, #83, .T. ) ;
#233 = FILL_AREA_STYLE_COLOUR ( '', #215 ) ;
#234 = CIRCLE ( 'NONE', #277, 0.1875000000000000278 ) ;
#235 = PLANE ( 'NONE',  #158 ) ;
#236 = ADVANCED_FACE ( 'NONE', ( #189 ), #75, .T. ) ;
#237 = FACE_OUTER_BOUND ( 'NONE', #224, .T. ) ;
#238 = DIRECTION ( 'NONE',  ( -1.000000000000000000, 3.498990854706726443E-17, 0.000000000000000000 ) ) ;
#239 =( LENGTH_UNIT ( ) NAMED_UNIT ( * ) SI_UNIT ( $, .METRE. ) );
#240 = PLANE ( 'NONE',  #229 ) ;
#241 = VECTOR ( 'NONE', #244, 39.37007874015748143 ) ;
#242 = STYLED_ITEM ( 'NONE', ( #105 ), #183 ) ;
#243 =( NAMED_UNIT ( * ) PLANE_ANGLE_UNIT ( ) SI_UNIT ( $, .RADIAN. ) );
#244 = DIRECTION ( 'NONE',  ( -0.000000000000000000, -1.000000000000000000, -0.000000000000000000 ) ) ;
#245 = CARTESIAN_POINT ( 'NONE',  ( 0.000000000000000000, 0.7499999999999998890, 0.000000000000000000 ) ) ;
#246 = DIRECTION ( 'NONE',  ( 0.000000000000000000, 0.000000000000000000, -1.000000000000000000 ) ) ;
#247 = CARTESIAN_POINT ( 'NONE',  ( 6.123233995736772199E-17, 2.500000000000000000, 0.000000000000000000 ) ) ;
#248 = DIMENSIONAL_EXPONENTS ( 1.000000000000000000, 0.000000000000000000, 0.000000000000000000, 0.000000000000000000, 0.000000000000000000, 0.000000000000000000, 0.000000000000000000 ) ;
#249 = FILL_AREA_STYLE ('',( #57 ) ) ;
#250 = MECHANICAL_DESIGN_GEOMETRIC_PRESENTATION_REPRESENTATION (  '', ( #283 ), #184 ) ;
#251 =( GEOMETRIC_REPRESENTATION_CONTEXT ( 3 ) GLOBAL_UNCERTAINTY_ASSIGNED_CONTEXT ( ( #110 ) ) GLOBAL_UNIT_ASSIGNED_CONTEXT ( ( #17, #257, #88 ) ) REPRESENTATION_CONTEXT ( 'NONE', 'WORKASPACE' ) );
#252 = FILL_AREA_STYLE_COLOUR ( '', #112 ) ;
#253 = SURFACE_STYLE_USAGE ( .BOTH. , #150 ) ;
#254 = EDGE_LOOP ( 'NONE', ( #38, #262 ) ) ;
#255 =( NAMED_UNIT ( * ) PLANE_ANGLE_UNIT ( ) SI_UNIT ( $, .RADIAN. ) );
#256 = SURFACE_STYLE_USAGE ( .BOTH. , #152 ) ;
#257 =( NAMED_UNIT ( * ) PLANE_ANGLE_UNIT ( ) SI_UNIT ( $, .RADIAN. ) );
#258 = ORIENTED_EDGE ( 'NONE', *, *, #20, .T. ) ;
#259 = UNCERTAINTY_MEASURE_WITH_UNIT (LENGTH_MEASURE( 1.000000000000000082E-05 ), #170, 'distance_accuracy_value', 'NONE');
#260 = DIRECTION ( 'NONE',  ( -1.000000000000000000, 0.000000000000000000, 0.000000000000000000 ) ) ;
#261 = EDGE_CURVE ( 'NONE', #106, #129, #130, .T. ) ;
#262 = ORIENTED_EDGE ( 'NONE', *, *, #205, .F. ) ;
#263 = CIRCLE ( 'NONE', #188, 0.1874999999999999445 ) ;
#264 = EDGE_LOOP ( 'NONE', ( #113, #302 ) ) ;
#265 = DIRECTION ( 'NONE',  ( -1.000000000000000000, 0.000000000000000000, 0.000000000000000000 ) ) ;
#266 = MECHANICAL_DESIGN_GEOMETRIC_PRESENTATION_REPRESENTATION (  '', ( #108 ), #251 ) ;
#267 = SURFACE_STYLE_FILL_AREA ( #46 ) ;
#268 = PRODUCT_RELATED_PRODUCT_CATEGORY ( 'part', '', ( #1 ) ) ;
#269 = LINE ( 'NONE', #160, #241 ) ;
#270 = PRESENTATION_LAYER_ASSIGNMENT (  '', '', ( #90 ) ) ;
#271 = SURFACE_STYLE_FILL_AREA ( #212 ) ;
#272 = CARTESIAN_POINT ( 'NONE',  ( 0.000000000000000000, 0.7500000000000001110, 0.000000000000000000 ) ) ;
#273 = DIMENSIONAL_EXPONENTS ( 1.000000000000000000, 0.000000000000000000, 0.000000000000000000, 0.000000000000000000, 0.000000000000000000, 0.000000000000000000, 0.000000000000000000 ) ;
#274 = LENGTH_MEASURE_WITH_UNIT ( LENGTH_MEASURE( 0.02539999999999999897 ), #123 );
#275 = ORIENTED_EDGE ( 'NONE', *, *, #205, .T. ) ;
#276 = AXIS2_PLACEMENT_3D ( 'NONE', #96, #292, #265 ) ;
#277 = AXIS2_PLACEMENT_3D ( 'NONE', #272, #191, #79 ) ;
#278 = DIRECTION ( 'NONE',  ( -1.000000000000000000, 0.000000000000000000, 0.000000000000000000 ) ) ;
#279 = DIRECTION ( 'NONE',  ( 0.000000000000000000, 0.000000000000000000, -1.000000000000000000 ) ) ;
#280 = CARTESIAN_POINT ( 'NONE',  ( 0.1875000000000000278, 2.500000000000000000, 0.000000000000000000 ) ) ;
#281 =( NAMED_UNIT ( * ) PLANE_ANGLE_UNIT ( ) SI_UNIT ( $, .RADIAN. ) );
#282 = ORIENTED_EDGE ( 'NONE', *, *, #76, .T. ) ;
#283 = STYLED_ITEM ( 'NONE', ( #98 ), #155 ) ;
#284 = PRESENTATION_LAYER_ASSIGNMENT (  '', '', ( #108 ) ) ;
#285 = FILL_AREA_STYLE ('',( #301 ) ) ;
#286 = EDGE_CURVE ( 'NONE', #18, #8, #300, .T. ) ;
#287 = EDGE_LOOP ( 'NONE', ( #56, #282, #35, #115 ) ) ;
#288 = DIRECTION ( 'NONE',  ( 1.000000000000000000, -3.498990854706726443E-17, 0.000000000000000000 ) ) ;
#289 = MECHANICAL_DESIGN_GEOMETRIC_PRESENTATION_REPRESENTATION (  '', ( #242 ), #204 ) ;
#290 = ADVANCED_FACE ( 'NONE', ( #86 ), #199, .T. ) ;
#291 = CARTESIAN_POINT ( 'NONE',  ( -0.1875000000000000278, 0.7499999999999998890, 0.000000000000000000 ) ) ;
#292 = DIRECTION ( 'NONE',  ( 3.498990854706726443E-17, 1.000000000000000000, -0.000000000000000000 ) ) ;
#293 = COLOUR_RGB ( '',1.000000000000000000, 0.000000000000000000, 0.000000000000000000 ) ;
#294 = DIRECTION ( 'NONE',  ( 0.000000000000000000, 0.000000000000000000, -1.000000000000000000 ) ) ;
#295 = EDGE_CURVE ( 'NONE', #64, #8, #225, .T. ) ;
#296 = FILL_AREA_STYLE ('',( #124 ) ) ;
#297 = CARTESIAN_POINT ( 'NONE',  ( 0.000000000000000000, 0.000000000000000000, 0.000000000000000000 ) ) ;
#298 = DIRECTION ( 'NONE',  ( 3.498990854706726443E-17, 1.000000000000000000, -0.000000000000000000 ) ) ;
#299 = ORIENTED_EDGE ( 'NONE', *, *, #227, .F. ) ;
#300 = LINE ( 'NONE', #175, #33 ) ;
#301 = FILL_AREA_STYLE_COLOUR ( '', #293 ) ;
#302 = ORIENTED_EDGE ( 'NONE', *, *, #227, .T. ) ;
#303 = EDGE_LOOP ( 'NONE', ( #82, #153 ) ) ;
#304 =( GEOMETRIC_REPRESENTATION_CONTEXT ( 3 ) GLOBAL_UNCERTAINTY_ASSIGNED_CONTEXT ( ( #259 ) ) GLOBAL_UNIT_ASSIGNED_CONTEXT ( ( #170, #255, #78 ) ) REPRESENTATION_CONTEXT ( 'NONE', 'WORKASPACE' ) );
#305 = CARTESIAN_POINT ( 'NONE',  ( 1.147775343873872857E-34, 0.7500000000000001110, 0.000000000000000000 ) ) ;
#306 = FACE_OUTER_BOUND ( 'NONE', #254, .T. ) ;
#307 = AXIS2_PLACEMENT_3D ( 'NONE', #120, #69, #141 ) ;
#308 = MANIFOLD_SOLID_BREP ( 'Revolve - Tool Body (Straight Shanked)', #161 ) ;
#309 = STYLED_ITEM ( 'NONE', ( #37 ), #207 ) ;
ENDSEC;
END-ISO-10303-21;
