ISO-10303-21;
HEADER;
FILE_DESCRIPTION (( 'STEP AP214' ),
    '1' );
FILE_NAME ('Micro_GEC-625-2-090.STEP',
    '2021-09-03T17:26:25',
    ( '' ),
    ( '' ),
    'SwSTEP 2.0',
    'SolidWorks 2020',
    '' );
FILE_SCHEMA (( 'AUTOMOTIVE_DESIGN' ));
ENDSEC;

DATA;
#1 = DIRECTION ( 'NONE',  ( 0.7071067811865346942, 8.659560562354773853E-17, -0.7071067811865603403 ) ) ;
#2 = AXIS2_PLACEMENT_3D ( 'NONE', #240, #299, #235 ) ;
#3 = ORIENTED_EDGE ( 'NONE', *, *, #262, .F. ) ;
#4 = CIRCLE ( 'NONE', #47, 0.2221874999999998990 ) ;
#5 = ORIENTED_EDGE ( 'NONE', *, *, #227, .T. ) ;
#6 = EDGE_LOOP ( 'NONE', ( #191, #213, #157, #181 ) ) ;
#7 = DIRECTION ( 'NONE',  ( 1.000000000000000000, 0.0000000000000000000, 0.0000000000000000000 ) ) ;
#8 = ADVANCED_FACE ( 'NONE', ( #53 ), #151, .T. ) ;
#9 = AXIS2_PLACEMENT_3D ( 'NONE', #203, #205, #21 ) ;
#10 = DIRECTION ( 'NONE',  ( 1.224646799147353207E-16, 0.0000000000000000000, 1.000000000000000000 ) ) ;
#11 = EDGE_LOOP ( 'NONE', ( #31, #253, #54, #256 ) ) ;
#12 = AXIS2_PLACEMENT_3D ( 'NONE', #90, #168, #150 ) ;
#13 = VERTEX_POINT ( 'NONE', #215 ) ;
#14 =( NAMED_UNIT ( * ) SI_UNIT ( $, .STERADIAN. ) SOLID_ANGLE_UNIT ( ) );
#15 = CARTESIAN_POINT ( 'NONE',  ( -0.3121874999999997846, 3.823194226088142147E-17, 1.250000000000000000 ) ) ;
#16 = ADVANCED_FACE ( 'NONE', ( #279 ), #146, .T. ) ;
#17 = ORIENTED_EDGE ( 'NONE', *, *, #49, .F. ) ;
#18 = LINE ( 'NONE', #15, #175 ) ;
#19 = CIRCLE ( 'NONE', #216, 0.3121874999999998956 ) ;
#20 = ORIENTED_EDGE ( 'NONE', *, *, #106, .F. ) ;
#21 = DIRECTION ( 'NONE',  ( -1.000000000000000000, 0.0000000000000000000, 0.0000000000000000000 ) ) ;
#22 = EDGE_CURVE ( 'NONE', #73, #107, #40, .T. ) ;
#23 = FILL_AREA_STYLE_COLOUR ( '', #206 ) ;
#24 = CYLINDRICAL_SURFACE ( 'NONE', #9, 0.3125000000000000000 ) ;
#25 = ORIENTED_EDGE ( 'NONE', *, *, #83, .F. ) ;
#26 = SURFACE_SIDE_STYLE ('',( #269 ) ) ;
#27 = ORIENTED_EDGE ( 'NONE', *, *, #41, .T. ) ;
#28 = AXIS2_PLACEMENT_3D ( 'NONE', #143, #288, #254 ) ;
#29 = CIRCLE ( 'NONE', #115, 0.3125000000000000000 ) ;
#30 = CARTESIAN_POINT ( 'NONE',  ( 0.2975000000000003197, 3.735172737399428256E-17, 3.500000000000000000 ) ) ;
#31 = ORIENTED_EDGE ( 'NONE', *, *, #193, .F. ) ;
#32 = DIRECTION ( 'NONE',  ( 1.000000000000000000, 0.0000000000000000000, 0.0000000000000000000 ) ) ;
#33 = EDGE_LOOP ( 'NONE', ( #159, #27 ) ) ;
#34 = DIRECTION ( 'NONE',  ( -1.224646799147353207E-16, -0.0000000000000000000, -1.000000000000000000 ) ) ;
#35 = CIRCLE ( 'NONE', #234, 0.3121874999999998956 ) ;
#36 = FACE_OUTER_BOUND ( 'NONE', #182, .T. ) ;
#37 = DIRECTION ( 'NONE',  ( 0.0000000000000000000, -1.000000000000000000, 0.0000000000000000000 ) ) ;
#38 = EDGE_CURVE ( 'NONE', #137, #107, #18, .T. ) ;
#39 = ORIENTED_EDGE ( 'NONE', *, *, #193, .T. ) ;
#40 = LINE ( 'NONE', #166, #94 ) ;
#41 = EDGE_CURVE ( 'NONE', #305, #13, #248, .T. ) ;
#42 = CARTESIAN_POINT ( 'NONE',  ( 0.2221874999999998990, 0.0000000000000000000, 0.0000000000000000000 ) ) ;
#43 = CARTESIAN_POINT ( 'NONE',  ( 1.530808498934191571E-16, 0.0000000000000000000, 1.250000000000000000 ) ) ;
#44 = SURFACE_STYLE_USAGE ( .BOTH. , #342 ) ;
#45 = SHAPE_DEFINITION_REPRESENTATION ( #312, #197 ) ;
#46 = PRODUCT ( 'Micro_GEC-625-2-090', 'Micro_GEC-625-2-090', '', ( #170 ) ) ;
#47 = AXIS2_PLACEMENT_3D ( 'NONE', #55, #59, #307 ) ;
#48 =( CONVERSION_BASED_UNIT ( 'INCH', #103 ) LENGTH_UNIT ( ) NAMED_UNIT ( #286 ) );
#49 = EDGE_CURVE ( 'NONE', #71, #87, #196, .T. ) ;
#50 = FACE_OUTER_BOUND ( 'NONE', #33, .T. ) ;
#51 = SURFACE_STYLE_USAGE ( .BOTH. , #26 ) ;
#52 = AXIS2_PLACEMENT_3D ( 'NONE', #321, #100, #95 ) ;
#53 = FACE_OUTER_BOUND ( 'NONE', #6, .T. ) ;
#54 = ORIENTED_EDGE ( 'NONE', *, *, #336, .T. ) ;
#55 = CARTESIAN_POINT ( 'NONE',  ( 1.102182119232617911E-17, 0.0000000000000000000, 0.0000000000000000000 ) ) ;
#56 = ORIENTED_EDGE ( 'NONE', *, *, #306, .F. ) ;
#57 = CARTESIAN_POINT ( 'NONE',  ( 1.102182119232617911E-17, 0.0000000000000000000, 0.08999999999999999667 ) ) ;
#58 = TOROIDAL_SURFACE ( 'NONE', #12, 0.2221874999999998990, 0.08999999999999999667 ) ;
#59 = DIRECTION ( 'NONE',  ( -0.0000000000000000000, -0.0000000000000000000, -1.000000000000000000 ) ) ;
#60 = ORIENTED_EDGE ( 'NONE', *, *, #117, .T. ) ;
#61 = FACE_OUTER_BOUND ( 'NONE', #326, .T. ) ;
#62 = CARTESIAN_POINT ( 'NONE',  ( 0.3125000000000001665, 3.827021247335480159E-17, 1.251772275568631132 ) ) ;
#63 = AXIS2_PLACEMENT_3D ( 'NONE', #65, #123, #127 ) ;
#64 = DIRECTION ( 'NONE',  ( 0.0000000000000000000, 0.0000000000000000000, -1.000000000000000000 ) ) ;
#65 = CARTESIAN_POINT ( 'NONE',  ( 0.0000000000000000000, 0.0000000000000000000, 3.500000000000000000 ) ) ;
#66 = ORIENTED_EDGE ( 'NONE', *, *, #332, .F. ) ;
#67 = LENGTH_MEASURE_WITH_UNIT ( LENGTH_MEASURE( 0.02539999999999999897 ), #82 );
#68 = DIRECTION ( 'NONE',  ( 0.0000000000000000000, 0.0000000000000000000, -1.000000000000000000 ) ) ;
#69 = DIRECTION ( 'NONE',  ( -1.224646799147353207E-16, -0.0000000000000000000, -1.000000000000000000 ) ) ;
#70 = CARTESIAN_POINT ( 'NONE',  ( 0.2975000000000003197, 3.643324227463378817E-17, 3.500000000000000000 ) ) ;
#71 = VERTEX_POINT ( 'NONE', #42 ) ;
#72 = ADVANCED_FACE ( 'NONE', ( #218 ), #89, .T. ) ;
#73 = VERTEX_POINT ( 'NONE', #194 ) ;
#74 = AXIS2_PLACEMENT_3D ( 'NONE', #304, #252, #7 ) ;
#75 = CARTESIAN_POINT ( 'NONE',  ( -0.3121874999999997846, 3.825107736711810845E-17, 1.250000000000000000 ) ) ;
#76 = ORIENTED_EDGE ( 'NONE', *, *, #133, .F. ) ;
#77 = ORIENTED_EDGE ( 'NONE', *, *, #350, .T. ) ;
#78 = DIRECTION ( 'NONE',  ( 0.0000000000000000000, 0.0000000000000000000, 1.000000000000000000 ) ) ;
#79 = EDGE_LOOP ( 'NONE', ( #265, #335, #311, #228 ) ) ;
#80 = ADVANCED_FACE ( 'NONE', ( #120 ), #229, .T. ) ;
#81 = LINE ( 'NONE', #339, #250 ) ;
#82 =( LENGTH_UNIT ( ) NAMED_UNIT ( * ) SI_UNIT ( $, .METRE. ) );
#83 = EDGE_CURVE ( 'NONE', #73, #219, #139, .T. ) ;
#84 = FACE_OUTER_BOUND ( 'NONE', #238, .T. ) ;
#85 = CIRCLE ( 'NONE', #74, 0.3121874999999998956 ) ;
#86 = DIRECTION ( 'NONE',  ( 0.0000000000000000000, 0.0000000000000000000, 1.000000000000000000 ) ) ;
#87 = VERTEX_POINT ( 'NONE', #226 ) ;
#88 = DIRECTION ( 'NONE',  ( 1.000000000000000000, 0.0000000000000000000, 0.0000000000000000000 ) ) ;
#89 = CYLINDRICAL_SURFACE ( 'NONE', #297, 0.3121874999999998956 ) ;
#90 = CARTESIAN_POINT ( 'NONE',  ( 1.102182119232617911E-17, 0.0000000000000000000, 0.08999999999999999667 ) ) ;
#91 =( NAMED_UNIT ( * ) PLANE_ANGLE_UNIT ( ) SI_UNIT ( $, .RADIAN. ) );
#92 = STYLED_ITEM ( 'NONE', ( #130 ), #212 ) ;
#93 = DIRECTION ( 'NONE',  ( -0.1736481776669313026, 2.126576849575784549E-17, 0.9848077530122077983 ) ) ;
#94 = VECTOR ( 'NONE', #171, 39.37007874015748143 ) ;
#95 = DIRECTION ( 'NONE',  ( 1.000000000000000000, 0.0000000000000000000, -0.0000000000000000000 ) ) ;
#96 = STYLED_ITEM ( 'NONE', ( #345 ), #197 ) ;
#97 = ADVANCED_FACE ( 'NONE', ( #347 ), #58, .T. ) ;
#98 = ORIENTED_EDGE ( 'NONE', *, *, #22, .T. ) ;
#99 = DIRECTION ( 'NONE',  ( 1.000000000000000000, 0.0000000000000000000, -0.0000000000000000000 ) ) ;
#100 = DIRECTION ( 'NONE',  ( 0.0000000000000000000, 0.0000000000000000000, 1.000000000000000000 ) ) ;
#101 = ORIENTED_EDGE ( 'NONE', *, *, #41, .F. ) ;
#102 = VECTOR ( 'NONE', #162, 39.37007874015748143 ) ;
#103 = LENGTH_MEASURE_WITH_UNIT ( LENGTH_MEASURE( 0.02539999999999999897 ), #323 );
#104 = ORIENTED_EDGE ( 'NONE', *, *, #210, .F. ) ;
#105 = DIRECTION ( 'NONE',  ( -1.224646799147353207E-16, -0.0000000000000000000, -1.000000000000000000 ) ) ;
#106 = EDGE_CURVE ( 'NONE', #137, #116, #223, .T. ) ;
#107 = VERTEX_POINT ( 'NONE', #195 ) ;
#108 = LINE ( 'NONE', #142, #289 ) ;
#109 =( GEOMETRIC_REPRESENTATION_CONTEXT ( 3 ) GLOBAL_UNCERTAINTY_ASSIGNED_CONTEXT ( ( #282 ) ) GLOBAL_UNIT_ASSIGNED_CONTEXT ( ( #255, #314, #14 ) ) REPRESENTATION_CONTEXT ( 'NONE', 'WORKASPACE' ) );
#110 = DIRECTION ( 'NONE',  ( 1.000000000000000000, 0.0000000000000000000, 0.0000000000000000000 ) ) ;
#111 = DIRECTION ( 'NONE',  ( -1.224646799147353207E-16, -0.0000000000000000000, -1.000000000000000000 ) ) ;
#112 = FILL_AREA_STYLE ('',( #317 ) ) ;
#113 = ORIENTED_EDGE ( 'NONE', *, *, #236, .T. ) ;
#114 = CARTESIAN_POINT ( 'NONE',  ( 0.0000000000000000000, 0.0000000000000000000, 3.500000000000000000 ) ) ;
#115 = AXIS2_PLACEMENT_3D ( 'NONE', #251, #34, #138 ) ;
#116 = VERTEX_POINT ( 'NONE', #318 ) ;
#117 = EDGE_CURVE ( 'NONE', #116, #137, #35, .T. ) ;
#118 = DIRECTION ( 'NONE',  ( -1.000000000000000000, 0.0000000000000000000, 1.224646799147353207E-16 ) ) ;
#119 = ADVANCED_FACE ( 'NONE', ( #84 ), #188, .T. ) ;
#120 = FACE_OUTER_BOUND ( 'NONE', #274, .T. ) ;
#121 =( NAMED_UNIT ( * ) SI_UNIT ( $, .STERADIAN. ) SOLID_ANGLE_UNIT ( ) );
#122 = AXIS2_PLACEMENT_3D ( 'NONE', #209, #247, #280 ) ;
#123 = DIRECTION ( 'NONE',  ( -0.0000000000000000000, -0.0000000000000000000, -1.000000000000000000 ) ) ;
#124 = AXIS2_PLACEMENT_3D ( 'NONE', #183, #243, #32 ) ;
#125 = UNCERTAINTY_MEASURE_WITH_UNIT (LENGTH_MEASURE( 1.000000000000000082E-05 ), #149, 'distance_accuracy_value', 'NONE');
#126 = ADVANCED_FACE ( 'NONE', ( #327 ), #232, .F. ) ;
#127 = DIRECTION ( 'NONE',  ( -1.000000000000000000, 0.0000000000000000000, 0.0000000000000000000 ) ) ;
#128 = CLOSED_SHELL ( 'NONE', ( #303, #80, #346, #293, #161, #119, #169, #16, #8, #72, #126, #97 ) ) ;
#129 = DIRECTION ( 'NONE',  ( 1.000000000000000000, 0.0000000000000000000, 0.0000000000000000000 ) ) ;
#130 = PRESENTATION_STYLE_ASSIGNMENT (( #51 ) ) ;
#131 = ORIENTED_EDGE ( 'NONE', *, *, #38, .T. ) ;
#132 = CONICAL_SURFACE ( 'NONE', #140, 0.3121874999999998956, 0.1745329251994340303 ) ;
#133 = EDGE_CURVE ( 'NONE', #219, #302, #237, .T. ) ;
#134 = CARTESIAN_POINT ( 'NONE',  ( 0.3125000000000000000, 3.827021247335478926E-17, 3.484999999999999432 ) ) ;
#135 = ORIENTED_EDGE ( 'NONE', *, *, #306, .T. ) ;
#136 = CARTESIAN_POINT ( 'NONE',  ( 0.0000000000000000000, 0.0000000000000000000, 3.500000000000000000 ) ) ;
#137 = VERTEX_POINT ( 'NONE', #75 ) ;
#138 = DIRECTION ( 'NONE',  ( 1.000000000000000000, 0.0000000000000000000, 0.0000000000000000000 ) ) ;
#139 = CIRCLE ( 'NONE', #180, 0.3125000000000000000 ) ;
#140 = AXIS2_PLACEMENT_3D ( 'NONE', #163, #10, #278 ) ;
#141 = LINE ( 'NONE', #331, #102 ) ;
#142 = CARTESIAN_POINT ( 'NONE',  ( -0.3121874999999998956, 0.0000000000000000000, 3.823194226088142147E-17 ) ) ;
#143 = CARTESIAN_POINT ( 'NONE',  ( 0.0000000000000000000, 0.0000000000000000000, 0.0000000000000000000 ) ) ;
#144 = EDGE_LOOP ( 'NONE', ( #3, #60, #113, #204 ) ) ;
#145 = DIRECTION ( 'NONE',  ( -1.000000000000000000, 0.0000000000000000000, 0.0000000000000000000 ) ) ;
#146 = CONICAL_SURFACE ( 'NONE', #221, 0.2975000000000003197, 0.7853981633974300713 ) ;
#147 = PRESENTATION_LAYER_ASSIGNMENT (  '', '', ( #96 ) ) ;
#148 = DIRECTION ( 'NONE',  ( 1.000000000000000000, 0.0000000000000000000, 0.0000000000000000000 ) ) ;
#149 =( CONVERSION_BASED_UNIT ( 'INCH', #174 ) LENGTH_UNIT ( ) NAMED_UNIT ( #313 ) );
#150 = DIRECTION ( 'NONE',  ( 1.000000000000000000, 0.0000000000000000000, 0.0000000000000000000 ) ) ;
#151 = CONICAL_SURFACE ( 'NONE', #239, 0.3121874999999998956, 0.1745329251994340303 ) ;
#152 = VECTOR ( 'NONE', #105, 39.37007874015748143 ) ;
#153 = APPLICATION_CONTEXT ( 'automotive_design' ) ;
#154 = FACE_OUTER_BOUND ( 'NONE', #79, .T. ) ;
#155 = PRODUCT_DEFINITION ( 'UNKNOWN', '', #261, #324 ) ;
#156 =( NAMED_UNIT ( * ) SI_UNIT ( $, .STERADIAN. ) SOLID_ANGLE_UNIT ( ) );
#157 = ORIENTED_EDGE ( 'NONE', *, *, #275, .T. ) ;
#158 = DIRECTION ( 'NONE',  ( -0.0000000000000000000, -0.0000000000000000000, -1.000000000000000000 ) ) ;
#159 = ORIENTED_EDGE ( 'NONE', *, *, #316, .T. ) ;
#160 = CARTESIAN_POINT ( 'NONE',  ( 1.532978910536522803E-16, 0.0000000000000000000, 1.251772275568631132 ) ) ;
#161 = ADVANCED_FACE ( 'NONE', ( #154 ), #24, .T. ) ;
#162 = DIRECTION ( 'NONE',  ( -0.7071067811865346942, 0.0000000000000000000, -0.7071067811865603403 ) ) ;
#163 = CARTESIAN_POINT ( 'NONE',  ( 1.530808498934191571E-16, 0.0000000000000000000, 1.250000000000000000 ) ) ;
#164 = AXIS2_PLACEMENT_3D ( 'NONE', #217, #272, #276 ) ;
#165 = DIRECTION ( 'NONE',  ( 0.0000000000000000000, 0.0000000000000000000, 1.000000000000000000 ) ) ;
#166 = CARTESIAN_POINT ( 'NONE',  ( -0.3125000000000000000, 0.0000000000000000000, 3.500000000000000000 ) ) ;
#167 = ORIENTED_EDGE ( 'NONE', *, *, #210, .T. ) ;
#168 = DIRECTION ( 'NONE',  ( 0.0000000000000000000, 0.0000000000000000000, 1.000000000000000000 ) ) ;
#169 = ADVANCED_FACE ( 'NONE', ( #50 ), #177, .T. ) ;
#170 = PRODUCT_CONTEXT ( 'NONE', #153, 'mechanical' ) ;
#171 = DIRECTION ( 'NONE',  ( -0.0000000000000000000, -0.0000000000000000000, -1.000000000000000000 ) ) ;
#172 = DIMENSIONAL_EXPONENTS ( 1.000000000000000000, 0.0000000000000000000, 0.0000000000000000000, 0.0000000000000000000, 0.0000000000000000000, 0.0000000000000000000, 0.0000000000000000000 ) ;
#173 = AXIS2_PLACEMENT_3D ( 'NONE', #57, #78, #245 ) ;
#174 = LENGTH_MEASURE_WITH_UNIT ( LENGTH_MEASURE( 0.02539999999999999897 ), #287 );
#175 = VECTOR ( 'NONE', #93, 39.37007874015748143 ) ;
#176 = CIRCLE ( 'NONE', #164, 0.2975000000000003197 ) ;
#177 = PLANE ( 'NONE',  #329 ) ;
#178 = ORIENTED_EDGE ( 'NONE', *, *, #267, .F. ) ;
#179 = DIRECTION ( 'NONE',  ( 0.0000000000000000000, 0.0000000000000000000, 1.000000000000000000 ) ) ;
#180 = AXIS2_PLACEMENT_3D ( 'NONE', #310, #291, #148 ) ;
#181 = ORIENTED_EDGE ( 'NONE', *, *, #263, .T. ) ;
#182 = EDGE_LOOP ( 'NONE', ( #178, #167, #56, #17 ) ) ;
#183 = CARTESIAN_POINT ( 'NONE',  ( 0.0000000000000000000, 0.0000000000000000000, 3.484999999999999432 ) ) ;
#184 = MECHANICAL_DESIGN_GEOMETRIC_PRESENTATION_REPRESENTATION (  '', ( #96 ), #207 ) ;
#185 = EDGE_LOOP ( 'NONE', ( #104, #277, #242, #66 ) ) ;
#186 = CARTESIAN_POINT ( 'NONE',  ( 1.102182119232618065E-17, 0.0000000000000000000, 0.09000000000000001055 ) ) ;
#187 = DIRECTION ( 'NONE',  ( 0.1736481776669315247, 0.0000000000000000000, 0.9848077530122077983 ) ) ;
#188 = CYLINDRICAL_SURFACE ( 'NONE', #63, 0.3125000000000000000 ) ;
#189 = CIRCLE ( 'NONE', #124, 0.3125000000000000000 ) ;
#190 = DIRECTION ( 'NONE',  ( 1.000000000000000000, 0.0000000000000000000, 0.0000000000000000000 ) ) ;
#191 = ORIENTED_EDGE ( 'NONE', *, *, #38, .F. ) ;
#192 = CARTESIAN_POINT ( 'NONE',  ( 0.2221874999999998990, 0.0000000000000000000, 0.08999999999999999667 ) ) ;
#193 = EDGE_CURVE ( 'NONE', #305, #219, #295, .T. ) ;
#194 = CARTESIAN_POINT ( 'NONE',  ( -0.3125000000000000000, 0.0000000000000000000, 3.484999999999999432 ) ) ;
#195 = CARTESIAN_POINT ( 'NONE',  ( -0.3124999999999998890, 0.0000000000000000000, 1.251772275568631132 ) ) ;
#196 = CIRCLE ( 'NONE', #341, 0.08999999999999999667 ) ;
#197 = ADVANCED_BREP_SHAPE_REPRESENTATION ( 'Micro_GEC-625-2-090', ( #212, #273 ), #109 ) ;
#198 = SURFACE_STYLE_FILL_AREA ( #112 ) ;
#199 = CARTESIAN_POINT ( 'NONE',  ( 1.530808498934191571E-16, 0.0000000000000000000, 1.250000000000000000 ) ) ;
#200 = ORIENTED_EDGE ( 'NONE', *, *, #262, .T. ) ;
#201 = CARTESIAN_POINT ( 'NONE',  ( -0.2221874999999998990, 3.272103166471833807E-17, 0.0000000000000000000 ) ) ;
#202 = ORIENTED_EDGE ( 'NONE', *, *, #233, .T. ) ;
#203 = CARTESIAN_POINT ( 'NONE',  ( 0.0000000000000000000, 0.0000000000000000000, 3.500000000000000000 ) ) ;
#204 = ORIENTED_EDGE ( 'NONE', *, *, #332, .T. ) ;
#205 = DIRECTION ( 'NONE',  ( -0.0000000000000000000, -0.0000000000000000000, -1.000000000000000000 ) ) ;
#206 = COLOUR_RGB ( '',0.7921568627450980005, 0.8196078431372548767, 0.9333333333333333481 ) ;
#207 =( GEOMETRIC_REPRESENTATION_CONTEXT ( 3 ) GLOBAL_UNCERTAINTY_ASSIGNED_CONTEXT ( ( #125 ) ) GLOBAL_UNIT_ASSIGNED_CONTEXT ( ( #149, #91, #121 ) ) REPRESENTATION_CONTEXT ( 'NONE', 'WORKASPACE' ) );
#208 = ORIENTED_EDGE ( 'NONE', *, *, #267, .T. ) ;
#209 = CARTESIAN_POINT ( 'NONE',  ( 1.102182119232617911E-17, 0.0000000000000000000, 0.0000000000000000000 ) ) ;
#210 = EDGE_CURVE ( 'NONE', #211, #343, #257, .T. ) ;
#211 = VERTEX_POINT ( 'NONE', #201 ) ;
#212 = MANIFOLD_SOLID_BREP ( 'Fillet1', #128 ) ;
#213 = ORIENTED_EDGE ( 'NONE', *, *, #117, .F. ) ;
#214 = DIRECTION ( 'NONE',  ( -1.224646799147353207E-16, -0.0000000000000000000, -1.000000000000000000 ) ) ;
#215 = CARTESIAN_POINT ( 'NONE',  ( -0.2975000000000003197, 0.0000000000000000000, 3.500000000000000000 ) ) ;
#216 = AXIS2_PLACEMENT_3D ( 'NONE', #186, #165, #308 ) ;
#217 = CARTESIAN_POINT ( 'NONE',  ( 0.0000000000000000000, 0.0000000000000000000, 3.500000000000000000 ) ) ;
#218 = FACE_OUTER_BOUND ( 'NONE', #144, .T. ) ;
#219 = VERTEX_POINT ( 'NONE', #134 ) ;
#220 = DIRECTION ( 'NONE',  ( 0.0000000000000000000, 0.0000000000000000000, 1.000000000000000000 ) ) ;
#221 = AXIS2_PLACEMENT_3D ( 'NONE', #249, #68, #284 ) ;
#222 = VECTOR ( 'NONE', #158, 39.37007874015748143 ) ;
#223 = CIRCLE ( 'NONE', #349, 0.3121874999999998956 ) ;
#224 = UNCERTAINTY_MEASURE_WITH_UNIT (LENGTH_MEASURE( 1.000000000000000082E-05 ), #48, 'distance_accuracy_value', 'NONE');
#225 = CARTESIAN_POINT ( 'NONE',  ( 0.0000000000000000000, 0.0000000000000000000, 0.0000000000000000000 ) ) ;
#226 = CARTESIAN_POINT ( 'NONE',  ( 0.3121874999999998956, 3.823194226088142147E-17, 0.09000000000000001055 ) ) ;
#227 = EDGE_CURVE ( 'NONE', #71, #211, #4, .T. ) ;
#228 = ORIENTED_EDGE ( 'NONE', *, *, #22, .F. ) ;
#229 = CYLINDRICAL_SURFACE ( 'NONE', #28, 0.3121874999999998956 ) ;
#230 = CONICAL_SURFACE ( 'NONE', #344, 0.2975000000000003197, 0.7853981633974300713 ) ;
#231 = DIRECTION ( 'NONE',  ( 1.224646799147353207E-16, 0.0000000000000000000, 1.000000000000000000 ) ) ;
#232 = PLANE ( 'NONE',  #52 ) ;
#233 = EDGE_CURVE ( 'NONE', #219, #73, #189, .T. ) ;
#234 = AXIS2_PLACEMENT_3D ( 'NONE', #43, #69, #348 ) ;
#235 = DIRECTION ( 'NONE',  ( -1.000000000000000000, 1.224646799147353454E-16, 0.0000000000000000000 ) ) ;
#236 = EDGE_CURVE ( 'NONE', #137, #343, #108, .T. ) ;
#237 = LINE ( 'NONE', #300, #222 ) ;
#238 = EDGE_LOOP ( 'NONE', ( #76, #202, #98, #270 ) ) ;
#239 = AXIS2_PLACEMENT_3D ( 'NONE', #199, #231, #129 ) ;
#240 = CARTESIAN_POINT ( 'NONE',  ( -0.2221874999999998990, 2.721012106855524235E-17, 0.08999999999999999667 ) ) ;
#241 = TOROIDAL_SURFACE ( 'NONE', #173, 0.2221874999999998990, 0.08999999999999999667 ) ;
#242 = ORIENTED_EDGE ( 'NONE', *, *, #49, .T. ) ;
#243 = DIRECTION ( 'NONE',  ( 0.0000000000000000000, 0.0000000000000000000, -1.000000000000000000 ) ) ;
#244 = EDGE_LOOP ( 'NONE', ( #101, #39, #25, #328 ) ) ;
#245 = DIRECTION ( 'NONE',  ( 1.000000000000000000, 0.0000000000000000000, 0.0000000000000000000 ) ) ;
#246 = PRODUCT_RELATED_PRODUCT_CATEGORY ( 'part', '', ( #46 ) ) ;
#247 = DIRECTION ( 'NONE',  ( -0.0000000000000000000, -0.0000000000000000000, -1.000000000000000000 ) ) ;
#248 = CIRCLE ( 'NONE', #259, 0.2975000000000003197 ) ;
#249 = CARTESIAN_POINT ( 'NONE',  ( 0.0000000000000000000, 0.0000000000000000000, 3.500000000000000000 ) ) ;
#250 = VECTOR ( 'NONE', #187, 39.37007874015748143 ) ;
#251 = CARTESIAN_POINT ( 'NONE',  ( 1.532978910536522803E-16, 0.0000000000000000000, 1.251772275568631132 ) ) ;
#252 = DIRECTION ( 'NONE',  ( 0.0000000000000000000, 0.0000000000000000000, 1.000000000000000000 ) ) ;
#253 = ORIENTED_EDGE ( 'NONE', *, *, #316, .F. ) ;
#254 = DIRECTION ( 'NONE',  ( -1.000000000000000000, 0.0000000000000000000, 1.224646799147353207E-16 ) ) ;
#255 =( CONVERSION_BASED_UNIT ( 'INCH', #67 ) LENGTH_UNIT ( ) NAMED_UNIT ( #172 ) );
#256 = ORIENTED_EDGE ( 'NONE', *, *, #233, .F. ) ;
#257 = CIRCLE ( 'NONE', #2, 0.08999999999999999667 ) ;
#258 = EDGE_LOOP ( 'NONE', ( #5, #208 ) ) ;
#259 = AXIS2_PLACEMENT_3D ( 'NONE', #114, #220, #88 ) ;
#260 =( GEOMETRIC_REPRESENTATION_CONTEXT ( 3 ) GLOBAL_UNCERTAINTY_ASSIGNED_CONTEXT ( ( #224 ) ) GLOBAL_UNIT_ASSIGNED_CONTEXT ( ( #48, #266, #156 ) ) REPRESENTATION_CONTEXT ( 'NONE', 'WORKASPACE' ) );
#261 = PRODUCT_DEFINITION_FORMATION_WITH_SPECIFIED_SOURCE ( 'ANY', '', #46, .NOT_KNOWN. ) ;
#262 = EDGE_CURVE ( 'NONE', #116, #87, #338, .T. ) ;
#263 = EDGE_CURVE ( 'NONE', #302, #107, #264, .T. ) ;
#264 = CIRCLE ( 'NONE', #337, 0.3125000000000000000 ) ;
#265 = ORIENTED_EDGE ( 'NONE', *, *, #83, .T. ) ;
#266 =( NAMED_UNIT ( * ) PLANE_ANGLE_UNIT ( ) SI_UNIT ( $, .RADIAN. ) );
#267 = EDGE_CURVE ( 'NONE', #211, #71, #298, .T. ) ;
#268 = ORIENTED_EDGE ( 'NONE', *, *, #236, .F. ) ;
#269 = SURFACE_STYLE_FILL_AREA ( #322 ) ;
#270 = ORIENTED_EDGE ( 'NONE', *, *, #263, .F. ) ;
#271 = VECTOR ( 'NONE', #1, 39.37007874015748143 ) ;
#272 = DIRECTION ( 'NONE',  ( 0.0000000000000000000, 0.0000000000000000000, 1.000000000000000000 ) ) ;
#273 = AXIS2_PLACEMENT_3D ( 'NONE', #225, #86, #190 ) ;
#274 = EDGE_LOOP ( 'NONE', ( #333, #200, #135, #268 ) ) ;
#275 = EDGE_CURVE ( 'NONE', #116, #302, #81, .T. ) ;
#276 = DIRECTION ( 'NONE',  ( 1.000000000000000000, 0.0000000000000000000, 0.0000000000000000000 ) ) ;
#277 = ORIENTED_EDGE ( 'NONE', *, *, #227, .F. ) ;
#278 = DIRECTION ( 'NONE',  ( 1.000000000000000000, 0.0000000000000000000, 0.0000000000000000000 ) ) ;
#279 = FACE_OUTER_BOUND ( 'NONE', #11, .T. ) ;
#280 = DIRECTION ( 'NONE',  ( 1.000000000000000000, 0.0000000000000000000, 0.0000000000000000000 ) ) ;
#281 = PRESENTATION_LAYER_ASSIGNMENT (  '', '', ( #92 ) ) ;
#282 = UNCERTAINTY_MEASURE_WITH_UNIT (LENGTH_MEASURE( 1.000000000000000082E-05 ), #255, 'distance_accuracy_value', 'NONE');
#283 = CARTESIAN_POINT ( 'NONE',  ( -0.3121874999999998956, 0.0000000000000000000, 0.09000000000000001055 ) ) ;
#284 = DIRECTION ( 'NONE',  ( -1.000000000000000000, 0.0000000000000000000, 0.0000000000000000000 ) ) ;
#285 = CARTESIAN_POINT ( 'NONE',  ( 1.530808498934191571E-16, 0.0000000000000000000, 1.250000000000000000 ) ) ;
#286 = DIMENSIONAL_EXPONENTS ( 1.000000000000000000, 0.0000000000000000000, 0.0000000000000000000, 0.0000000000000000000, 0.0000000000000000000, 0.0000000000000000000, 0.0000000000000000000 ) ;
#287 =( LENGTH_UNIT ( ) NAMED_UNIT ( * ) SI_UNIT ( $, .METRE. ) );
#288 = DIRECTION ( 'NONE',  ( -1.224646799147353207E-16, -0.0000000000000000000, -1.000000000000000000 ) ) ;
#289 = VECTOR ( 'NONE', #214, 39.37007874015748143 ) ;
#290 = DIRECTION ( 'NONE',  ( 0.0000000000000000000, 0.0000000000000000000, -1.000000000000000000 ) ) ;
#291 = DIRECTION ( 'NONE',  ( 0.0000000000000000000, 0.0000000000000000000, -1.000000000000000000 ) ) ;
#292 = APPLICATION_PROTOCOL_DEFINITION ( 'draft international standard', 'automotive_design', 1998, #325 ) ;
#293 = ADVANCED_FACE ( 'NONE', ( #309 ), #230, .T. ) ;
#294 = MECHANICAL_DESIGN_GEOMETRIC_PRESENTATION_REPRESENTATION (  '', ( #92 ), #260 ) ;
#295 = LINE ( 'NONE', #70, #271 ) ;
#296 = CARTESIAN_POINT ( 'NONE',  ( 0.0000000000000000000, 0.0000000000000000000, 3.500000000000000000 ) ) ;
#297 = AXIS2_PLACEMENT_3D ( 'NONE', #340, #315, #118 ) ;
#298 = CIRCLE ( 'NONE', #122, 0.2221874999999998990 ) ;
#299 = DIRECTION ( 'NONE',  ( 1.224646799147353207E-16, 1.000000000000000000, -0.0000000000000000000 ) ) ;
#300 = CARTESIAN_POINT ( 'NONE',  ( 0.3125000000000000000, 3.827021247335478926E-17, 3.500000000000000000 ) ) ;
#301 = CARTESIAN_POINT ( 'NONE',  ( 0.3121874999999998956, 3.823194226088142147E-17, -3.823194226088142147E-17 ) ) ;
#302 = VERTEX_POINT ( 'NONE', #62 ) ;
#303 = ADVANCED_FACE ( 'NONE', ( #36 ), #241, .T. ) ;
#304 = CARTESIAN_POINT ( 'NONE',  ( 1.102182119232618065E-17, 0.0000000000000000000, 0.09000000000000001055 ) ) ;
#305 = VERTEX_POINT ( 'NONE', #30 ) ;
#306 = EDGE_CURVE ( 'NONE', #87, #343, #85, .T. ) ;
#307 = DIRECTION ( 'NONE',  ( 1.000000000000000000, 0.0000000000000000000, 0.0000000000000000000 ) ) ;
#308 = DIRECTION ( 'NONE',  ( 1.000000000000000000, 0.0000000000000000000, 0.0000000000000000000 ) ) ;
#309 = FACE_OUTER_BOUND ( 'NONE', #244, .T. ) ;
#310 = CARTESIAN_POINT ( 'NONE',  ( 0.0000000000000000000, 0.0000000000000000000, 3.484999999999999432 ) ) ;
#311 = ORIENTED_EDGE ( 'NONE', *, *, #350, .F. ) ;
#312 = PRODUCT_DEFINITION_SHAPE ( 'NONE', 'NONE',  #155 ) ;
#313 = DIMENSIONAL_EXPONENTS ( 1.000000000000000000, 0.0000000000000000000, 0.0000000000000000000, 0.0000000000000000000, 0.0000000000000000000, 0.0000000000000000000, 0.0000000000000000000 ) ;
#314 =( NAMED_UNIT ( * ) PLANE_ANGLE_UNIT ( ) SI_UNIT ( $, .RADIAN. ) );
#315 = DIRECTION ( 'NONE',  ( -1.224646799147353207E-16, -0.0000000000000000000, -1.000000000000000000 ) ) ;
#316 = EDGE_CURVE ( 'NONE', #13, #305, #176, .T. ) ;
#317 = FILL_AREA_STYLE_COLOUR ( '', #319 ) ;
#318 = CARTESIAN_POINT ( 'NONE',  ( 0.3121875000000000622, 0.0000000000000000000, 1.250000000000000000 ) ) ;
#319 = COLOUR_RGB ( '',0.7921568627450980005, 0.8196078431372548767, 0.9333333333333333481 ) ;
#320 = DIRECTION ( 'NONE',  ( -1.224646799147353207E-16, -0.0000000000000000000, -1.000000000000000000 ) ) ;
#321 = CARTESIAN_POINT ( 'NONE',  ( 0.0000000000000000000, 0.0000000000000000000, 0.0000000000000000000 ) ) ;
#322 = FILL_AREA_STYLE ('',( #23 ) ) ;
#323 =( LENGTH_UNIT ( ) NAMED_UNIT ( * ) SI_UNIT ( $, .METRE. ) );
#324 = PRODUCT_DEFINITION_CONTEXT ( 'detailed design', #325, 'design' ) ;
#325 = APPLICATION_CONTEXT ( 'automotive_design' ) ;
#326 = EDGE_LOOP ( 'NONE', ( #20, #131, #77, #330 ) ) ;
#327 = FACE_OUTER_BOUND ( 'NONE', #258, .T. ) ;
#328 = ORIENTED_EDGE ( 'NONE', *, *, #336, .F. ) ;
#329 = AXIS2_PLACEMENT_3D ( 'NONE', #296, #179, #99 ) ;
#330 = ORIENTED_EDGE ( 'NONE', *, *, #275, .F. ) ;
#331 = CARTESIAN_POINT ( 'NONE',  ( -0.2975000000000003197, 0.0000000000000000000, 3.500000000000000000 ) ) ;
#332 = EDGE_CURVE ( 'NONE', #343, #87, #19, .T. ) ;
#333 = ORIENTED_EDGE ( 'NONE', *, *, #106, .T. ) ;
#334 = DIRECTION ( 'NONE',  ( -1.000000000000000000, 0.0000000000000000000, 0.0000000000000000000 ) ) ;
#335 = ORIENTED_EDGE ( 'NONE', *, *, #133, .T. ) ;
#336 = EDGE_CURVE ( 'NONE', #13, #73, #141, .T. ) ;
#337 = AXIS2_PLACEMENT_3D ( 'NONE', #160, #111, #110 ) ;
#338 = LINE ( 'NONE', #301, #152 ) ;
#339 = CARTESIAN_POINT ( 'NONE',  ( 0.3121875000000000622, 0.0000000000000000000, 1.250000000000000000 ) ) ;
#340 = CARTESIAN_POINT ( 'NONE',  ( 0.0000000000000000000, 0.0000000000000000000, 0.0000000000000000000 ) ) ;
#341 = AXIS2_PLACEMENT_3D ( 'NONE', #192, #37, #290 ) ;
#342 = SURFACE_SIDE_STYLE ('',( #198 ) ) ;
#343 = VERTEX_POINT ( 'NONE', #283 ) ;
#344 = AXIS2_PLACEMENT_3D ( 'NONE', #136, #64, #334 ) ;
#345 = PRESENTATION_STYLE_ASSIGNMENT (( #44 ) ) ;
#346 = ADVANCED_FACE ( 'NONE', ( #61 ), #132, .T. ) ;
#347 = FACE_OUTER_BOUND ( 'NONE', #185, .T. ) ;
#348 = DIRECTION ( 'NONE',  ( -1.000000000000000000, 0.0000000000000000000, 0.0000000000000000000 ) ) ;
#349 = AXIS2_PLACEMENT_3D ( 'NONE', #285, #320, #145 ) ;
#350 = EDGE_CURVE ( 'NONE', #107, #302, #29, .T. ) ;
#351 = APPLICATION_PROTOCOL_DEFINITION ( 'draft international standard', 'automotive_design', 1998, #153 ) ;
ENDSEC;
END-ISO-10303-21;
