ISO-10303-21;
HEADER;
FILE_DESCRIPTION (( 'STEP AP214' ),
    '1' );
FILE_NAME ('Micro_BMR-031-2.STEP',
    '2021-09-03T14:03:58',
    ( '' ),
    ( '' ),
    'SwSTEP 2.0',
    'SolidWorks 2020',
    '' );
FILE_SCHEMA (( 'AUTOMOTIVE_DESIGN' ));
ENDSEC;

DATA;
#1 = CARTESIAN_POINT ( 'NONE',  ( 0.0000000000000000000, 0.0000000000000000000, 1.485000000000000764 ) ) ;
#2 = ADVANCED_FACE ( 'NONE', ( #230 ), #126, .T. ) ;
#3 = CIRCLE ( 'NONE', #207, 0.06250000000000002776 ) ;
#4 = ORIENTED_EDGE ( 'NONE', *, *, #154, .F. ) ;
#5 = SURFACE_STYLE_USAGE ( .BOTH. , #185 ) ;
#6 = DIRECTION ( 'NONE',  ( 1.000000000000000000, 0.0000000000000000000, 0.0000000000000000000 ) ) ;
#7 = EDGE_CURVE ( 'NONE', #157, #87, #3, .T. ) ;
#8 = APPLICATION_PROTOCOL_DEFINITION ( 'draft international standard', 'automotive_design', 1998, #319 ) ;
#9 = DIRECTION ( 'NONE',  ( 1.000000000000000000, 0.0000000000000000000, 0.0000000000000000000 ) ) ;
#10 = AXIS2_PLACEMENT_3D ( 'NONE', #103, #204, #300 ) ;
#11 = MECHANICAL_DESIGN_GEOMETRIC_PRESENTATION_REPRESENTATION (  '', ( #183 ), #46 ) ;
#12 = DIRECTION ( 'NONE',  ( -1.000000000000000000, 0.0000000000000000000, 0.0000000000000000000 ) ) ;
#13 = EDGE_CURVE ( 'NONE', #87, #157, #312, .T. ) ;
#14 = ORIENTED_EDGE ( 'NONE', *, *, #102, .F. ) ;
#15 = LINE ( 'NONE', #65, #150 ) ;
#16 = VERTEX_POINT ( 'NONE', #84 ) ;
#17 = DIRECTION ( 'NONE',  ( -1.224646799147353454E-16, -0.0000000000000000000, -1.000000000000000000 ) ) ;
#18 = CLOSED_SHELL ( 'NONE', ( #216, #274, #269, #90, #32, #77, #23, #151, #261, #205, #2 ) ) ;
#19 = DIRECTION ( 'NONE',  ( -0.1736481776669311639, 2.126576849575782392E-17, 0.9848077530122080203 ) ) ;
#20 =( NAMED_UNIT ( * ) SI_UNIT ( $, .STERADIAN. ) SOLID_ANGLE_UNIT ( ) );
#21 = DIRECTION ( 'NONE',  ( -1.000000000000000000, 0.0000000000000000000, 1.224646799147353454E-16 ) ) ;
#22 = FACE_OUTER_BOUND ( 'NONE', #155, .T. ) ;
#23 = ADVANCED_FACE ( 'NONE', ( #76 ), #186, .T. ) ;
#24 = CARTESIAN_POINT ( 'NONE',  ( 0.0000000000000000000, 0.0000000000000000000, 0.0000000000000000000 ) ) ;
#25 = LENGTH_MEASURE_WITH_UNIT ( LENGTH_MEASURE( 0.02539999999999999897 ), #53 );
#26 = EDGE_CURVE ( 'NONE', #277, #128, #191, .T. ) ;
#27 =( NAMED_UNIT ( * ) PLANE_ANGLE_UNIT ( ) SI_UNIT ( $, .RADIAN. ) );
#28 = FILL_AREA_STYLE ('',( #33 ) ) ;
#29 = ORIENTED_EDGE ( 'NONE', *, *, #26, .T. ) ;
#30 = APPLICATION_PROTOCOL_DEFINITION ( 'draft international standard', 'automotive_design', 1998, #159 ) ;
#31 = FACE_OUTER_BOUND ( 'NONE', #255, .T. ) ;
#32 = ADVANCED_FACE ( 'NONE', ( #31 ), #227, .T. ) ;
#33 = FILL_AREA_STYLE_COLOUR ( '', #69 ) ;
#34 = ORIENTED_EDGE ( 'NONE', *, *, #13, .T. ) ;
#35 = ORIENTED_EDGE ( 'NONE', *, *, #250, .T. ) ;
#36 = VERTEX_POINT ( 'NONE', #78 ) ;
#37 = EDGE_LOOP ( 'NONE', ( #156, #106, #134 ) ) ;
#38 = DIRECTION ( 'NONE',  ( 1.000000000000000000, 0.0000000000000000000, -0.0000000000000000000 ) ) ;
#39 = EDGE_LOOP ( 'NONE', ( #232, #34, #129, #190 ) ) ;
#40 = DIRECTION ( 'NONE',  ( 1.000000000000000000, 0.0000000000000000000, 0.0000000000000000000 ) ) ;
#41 = ORIENTED_EDGE ( 'NONE', *, *, #139, .F. ) ;
#42 = DIRECTION ( 'NONE',  ( -1.224646799147353454E-16, -0.0000000000000000000, -1.000000000000000000 ) ) ;
#43 = FACE_OUTER_BOUND ( 'NONE', #39, .T. ) ;
#44 = LINE ( 'NONE', #314, #96 ) ;
#45 = CONICAL_SURFACE ( 'NONE', #222, 0.04750000000000064587, 0.7853981633974466137 ) ;
#46 =( GEOMETRIC_REPRESENTATION_CONTEXT ( 3 ) GLOBAL_UNCERTAINTY_ASSIGNED_CONTEXT ( ( #54 ) ) GLOBAL_UNIT_ASSIGNED_CONTEXT ( ( #125, #27, #296 ) ) REPRESENTATION_CONTEXT ( 'NONE', 'WORKASPACE' ) );
#47 = CARTESIAN_POINT ( 'NONE',  ( -0.01548450000000000000, 0.0000000000000000000, 0.01548450000000000173 ) ) ;
#48 = CARTESIAN_POINT ( 'NONE',  ( 1.138921523207038888E-17, 0.0000000000000000000, 0.09299999999999999933 ) ) ;
#49 = ORIENTED_EDGE ( 'NONE', *, *, #247, .F. ) ;
#50 = DIRECTION ( 'NONE',  ( -1.000000000000000000, 0.0000000000000000000, 0.0000000000000000000 ) ) ;
#51 = COLOUR_RGB ( '',0.7921568627450980005, 0.8196078431372548767, 0.9333333333333333481 ) ;
#52 = DIRECTION ( 'NONE',  ( 1.000000000000000000, 0.0000000000000000000, 0.0000000000000000000 ) ) ;
#53 =( LENGTH_UNIT ( ) NAMED_UNIT ( * ) SI_UNIT ( $, .METRE. ) );
#54 = UNCERTAINTY_MEASURE_WITH_UNIT (LENGTH_MEASURE( 1.000000000000000082E-05 ), #125, 'distance_accuracy_value', 'NONE');
#55 = CARTESIAN_POINT ( 'NONE',  ( 1.896304336139719623E-18, 0.0000000000000000000, 0.01548450000000000000 ) ) ;
#56 = CARTESIAN_POINT ( 'NONE',  ( 0.0000000000000000000, 0.0000000000000000000, 0.0000000000000000000 ) ) ;
#57 = DIRECTION ( 'NONE',  ( -1.000000000000000000, 0.0000000000000000000, 1.378317830766382784E-16 ) ) ;
#58 = CIRCLE ( 'NONE', #73, 0.04750000000000064587 ) ;
#59 = DIRECTION ( 'NONE',  ( 0.0000000000000000000, 0.0000000000000000000, -1.000000000000000000 ) ) ;
#60 = ORIENTED_EDGE ( 'NONE', *, *, #7, .F. ) ;
#61 = ORIENTED_EDGE ( 'NONE', *, *, #121, .F. ) ;
#62 = DIRECTION ( 'NONE',  ( 1.000000000000000000, 0.0000000000000000000, 0.0000000000000000000 ) ) ;
#63 = PRODUCT_DEFINITION ( 'UNKNOWN', '', #97, #184 ) ;
#64 = SURFACE_STYLE_FILL_AREA ( #313 ) ;
#65 = CARTESIAN_POINT ( 'NONE',  ( -0.04750000000000064587, 0.0000000000000000000, 1.500000000000000222 ) ) ;
#66 = MECHANICAL_DESIGN_GEOMETRIC_PRESENTATION_REPRESENTATION (  '', ( #316 ), #132 ) ;
#67 = CARTESIAN_POINT ( 'NONE',  ( 0.0000000000000000000, 0.0000000000000000000, 1.500000000000000222 ) ) ;
#68 = AXIS2_PLACEMENT_3D ( 'NONE', #67, #166, #173 ) ;
#69 = COLOUR_RGB ( '',0.7921568627450980005, 0.8196078431372548767, 0.9333333333333333481 ) ;
#70 = CARTESIAN_POINT ( 'NONE',  ( 0.06250000000000002776, 7.654042494670959086E-18, 1.500000000000000222 ) ) ;
#71 = CARTESIAN_POINT ( 'NONE',  ( 0.01548450000000000520, 1.896304336139719238E-18, 0.01548449999999999827 ) ) ;
#72 = DIRECTION ( 'NONE',  ( 0.1736481776669313304, 0.0000000000000000000, 0.9848077530122077983 ) ) ;
#73 = AXIS2_PLACEMENT_3D ( 'NONE', #162, #237, #86 ) ;
#74 = ADVANCED_BREP_SHAPE_REPRESENTATION ( 'Micro_BMR-031-2', ( #100, #214 ), #82 ) ;
#75 = FACE_OUTER_BOUND ( 'NONE', #152, .T. ) ;
#76 = FACE_OUTER_BOUND ( 'NONE', #149, .T. ) ;
#77 = ADVANCED_FACE ( 'NONE', ( #43 ), #115, .T. ) ;
#78 = CARTESIAN_POINT ( 'NONE',  ( -0.06249999999999997918, 0.0000000000000000000, 0.3596381503902351118 ) ) ;
#79 = ORIENTED_EDGE ( 'NONE', *, *, #144, .F. ) ;
#80 = ORIENTED_EDGE ( 'NONE', *, *, #85, .F. ) ;
#81 = AXIS2_PLACEMENT_3D ( 'NONE', #225, #177, #38 ) ;
#82 =( GEOMETRIC_REPRESENTATION_CONTEXT ( 3 ) GLOBAL_UNCERTAINTY_ASSIGNED_CONTEXT ( ( #267 ) ) GLOBAL_UNIT_ASSIGNED_CONTEXT ( ( #223, #202, #99 ) ) REPRESENTATION_CONTEXT ( 'NONE', 'WORKASPACE' ) );
#83 = PRESENTATION_STYLE_ASSIGNMENT (( #5 ) ) ;
#84 = CARTESIAN_POINT ( 'NONE',  ( 0.04750000000000064587, 6.735557395310483192E-18, 1.500000000000000222 ) ) ;
#85 = EDGE_CURVE ( 'NONE', #297, #16, #58, .T. ) ;
#86 = DIRECTION ( 'NONE',  ( 1.000000000000000000, 0.0000000000000000000, 0.0000000000000000000 ) ) ;
#87 = VERTEX_POINT ( 'NONE', #140 ) ;
#88 =( NAMED_UNIT ( * ) PLANE_ANGLE_UNIT ( ) SI_UNIT ( $, .RADIAN. ) );
#89 = CONICAL_SURFACE ( 'NONE', #263, 0.04750000000000064587, 0.7853981633974466137 ) ;
#90 = ADVANCED_FACE ( 'NONE', ( #111 ), #89, .T. ) ;
#91 = CARTESIAN_POINT ( 'NONE',  ( 4.404297097266760210E-17, 0.0000000000000000000, 0.3596381503902351118 ) ) ;
#92 = CYLINDRICAL_SURFACE ( 'NONE', #317, 0.01548450000000000173 ) ;
#93 = SPHERICAL_SURFACE ( 'NONE', #108, 0.01548450000000000000 ) ;
#94 = CARTESIAN_POINT ( 'NONE',  ( 0.06250000000000006939, 7.654042494670963708E-18, 0.3596381503902351118 ) ) ;
#95 = CARTESIAN_POINT ( 'NONE',  ( -0.04750000000000064587, 0.0000000000000000000, 1.500000000000000222 ) ) ;
#96 = VECTOR ( 'NONE', #283, 39.37007874015748854 ) ;
#97 = PRODUCT_DEFINITION_FORMATION_WITH_SPECIFIED_SOURCE ( 'ANY', '', #293, .NOT_KNOWN. ) ;
#98 = DIRECTION ( 'NONE',  ( 0.0000000000000000000, 0.0000000000000000000, -1.000000000000000000 ) ) ;
#99 =( NAMED_UNIT ( * ) SI_UNIT ( $, .STERADIAN. ) SOLID_ANGLE_UNIT ( ) );
#100 = MANIFOLD_SOLID_BREP ( 'Fillet1', #18 ) ;
#101 = CARTESIAN_POINT ( 'NONE',  ( 1.896304336139719623E-18, 0.0000000000000000000, 0.01548450000000000000 ) ) ;
#102 = EDGE_CURVE ( 'NONE', #36, #244, #284, .T. ) ;
#103 = CARTESIAN_POINT ( 'NONE',  ( 0.0000000000000000000, 0.0000000000000000000, 1.500000000000000222 ) ) ;
#104 = SHAPE_DEFINITION_REPRESENTATION ( #168, #74 ) ;
#105 = DIRECTION ( 'NONE',  ( 0.0000000000000000000, 1.000000000000000000, 0.0000000000000000000 ) ) ;
#106 = ORIENTED_EDGE ( 'NONE', *, *, #288, .T. ) ;
#107 = PRESENTATION_LAYER_ASSIGNMENT (  '', '', ( #183 ) ) ;
#108 = AXIS2_PLACEMENT_3D ( 'NONE', #55, #294, #146 ) ;
#109 = ORIENTED_EDGE ( 'NONE', *, *, #175, .F. ) ;
#110 = ORIENTED_EDGE ( 'NONE', *, *, #231, .T. ) ;
#111 = FACE_OUTER_BOUND ( 'NONE', #212, .T. ) ;
#112 = CARTESIAN_POINT ( 'NONE',  ( 0.01548450000000000173, 1.896304336139719238E-18, -1.896304336139719623E-18 ) ) ;
#113 = AXIS2_PLACEMENT_3D ( 'NONE', #194, #239, #278 ) ;
#114 = CIRCLE ( 'NONE', #158, 0.01548450000000000000 ) ;
#115 = CYLINDRICAL_SURFACE ( 'NONE', #117, 0.06250000000000002776 ) ;
#116 = CARTESIAN_POINT ( 'NONE',  ( -0.06250000000000002776, 0.0000000000000000000, 1.485000000000000764 ) ) ;
#117 = AXIS2_PLACEMENT_3D ( 'NONE', #257, #133, #135 ) ;
#118 = LINE ( 'NONE', #268, #275 ) ;
#119 = AXIS2_PLACEMENT_3D ( 'NONE', #24, #145, #289 ) ;
#120 = DIRECTION ( 'NONE',  ( 1.224646799147353454E-16, 0.0000000000000000000, 1.000000000000000000 ) ) ;
#121 = EDGE_CURVE ( 'NONE', #251, #277, #282, .T. ) ;
#122 = DIRECTION ( 'NONE',  ( -1.224646799147353454E-16, -0.0000000000000000000, -1.000000000000000000 ) ) ;
#123 = CARTESIAN_POINT ( 'NONE',  ( 1.138921523207038888E-17, 0.0000000000000000000, 0.09299999999999999933 ) ) ;
#124 = AXIS2_PLACEMENT_3D ( 'NONE', #91, #42, #40 ) ;
#125 =( CONVERSION_BASED_UNIT ( 'INCH', #325 ) LENGTH_UNIT ( ) NAMED_UNIT ( #245 ) );
#126 = SPHERICAL_SURFACE ( 'NONE', #143, 0.01548450000000000000 ) ;
#127 = AXIS2_PLACEMENT_3D ( 'NONE', #321, #172, #98 ) ;
#128 = VERTEX_POINT ( 'NONE', #47 ) ;
#129 = ORIENTED_EDGE ( 'NONE', *, *, #247, .T. ) ;
#130 = EDGE_CURVE ( 'NONE', #244, #36, #165, .T. ) ;
#131 = CARTESIAN_POINT ( 'NONE',  ( 1.896304336139719623E-18, 0.0000000000000000000, 0.01548450000000000000 ) ) ;
#132 =( GEOMETRIC_REPRESENTATION_CONTEXT ( 3 ) GLOBAL_UNCERTAINTY_ASSIGNED_CONTEXT ( ( #161 ) ) GLOBAL_UNIT_ASSIGNED_CONTEXT ( ( #256, #88, #20 ) ) REPRESENTATION_CONTEXT ( 'NONE', 'WORKASPACE' ) );
#133 = DIRECTION ( 'NONE',  ( -0.0000000000000000000, -0.0000000000000000000, -1.000000000000000000 ) ) ;
#134 = ORIENTED_EDGE ( 'NONE', *, *, #197, .F. ) ;
#135 = DIRECTION ( 'NONE',  ( -1.000000000000000000, 0.0000000000000000000, 0.0000000000000000000 ) ) ;
#136 = AXIS2_PLACEMENT_3D ( 'NONE', #131, #203, #57 ) ;
#137 = VECTOR ( 'NONE', #167, 39.37007874015748143 ) ;
#138 = LINE ( 'NONE', #238, #181 ) ;
#139 = EDGE_CURVE ( 'NONE', #251, #258, #254, .T. ) ;
#140 = CARTESIAN_POINT ( 'NONE',  ( 0.06250000000000002776, 7.654042494670959086E-18, 1.485000000000000764 ) ) ;
#141 = EDGE_CURVE ( 'NONE', #297, #157, #15, .T. ) ;
#142 = CARTESIAN_POINT ( 'NONE',  ( -0.01548449999999998959, 4.775173415405338777E-18, 0.09299999999999999933 ) ) ;
#143 = AXIS2_PLACEMENT_3D ( 'NONE', #101, #105, #9 ) ;
#144 = EDGE_CURVE ( 'NONE', #16, #87, #44, .T. ) ;
#145 = DIRECTION ( 'NONE',  ( -1.224646799147353454E-16, -0.0000000000000000000, -1.000000000000000000 ) ) ;
#146 = DIRECTION ( 'NONE',  ( 1.000000000000000000, 0.0000000000000000000, 0.0000000000000000000 ) ) ;
#147 = FACE_OUTER_BOUND ( 'NONE', #279, .T. ) ;
#148 = AXIS2_PLACEMENT_3D ( 'NONE', #123, #120, #170 ) ;
#149 = EDGE_LOOP ( 'NONE', ( #271, #224 ) ) ;
#150 = VECTOR ( 'NONE', #213, 39.37007874015748854 ) ;
#151 = ADVANCED_FACE ( 'NONE', ( #308 ), #45, .T. ) ;
#152 = EDGE_LOOP ( 'NONE', ( #179, #309, #281, #228 ) ) ;
#153 = EDGE_LOOP ( 'NONE', ( #79, #80, #310, #249 ) ) ;
#154 = EDGE_CURVE ( 'NONE', #258, #36, #138, .T. ) ;
#155 = EDGE_LOOP ( 'NONE', ( #61, #252, #174, #246 ) ) ;
#156 = ORIENTED_EDGE ( 'NONE', *, *, #266, .F. ) ;
#157 = VERTEX_POINT ( 'NONE', #116 ) ;
#158 = AXIS2_PLACEMENT_3D ( 'NONE', #48, #122, #50 ) ;
#159 = APPLICATION_CONTEXT ( 'automotive_design' ) ;
#160 = CARTESIAN_POINT ( 'NONE',  ( 0.0000000000000000000, 0.0000000000000000000, 1.500000000000000222 ) ) ;
#161 = UNCERTAINTY_MEASURE_WITH_UNIT (LENGTH_MEASURE( 1.000000000000000082E-05 ), #256, 'distance_accuracy_value', 'NONE');
#162 = CARTESIAN_POINT ( 'NONE',  ( 0.0000000000000000000, 0.0000000000000000000, 1.500000000000000222 ) ) ;
#163 = PRODUCT_RELATED_PRODUCT_CATEGORY ( 'part', '', ( #293 ) ) ;
#164 =( LENGTH_UNIT ( ) NAMED_UNIT ( * ) SI_UNIT ( $, .METRE. ) );
#165 = CIRCLE ( 'NONE', #124, 0.06250000000000002776 ) ;
#166 = DIRECTION ( 'NONE',  ( 0.0000000000000000000, 0.0000000000000000000, 1.000000000000000000 ) ) ;
#167 = DIRECTION ( 'NONE',  ( -0.0000000000000000000, -0.0000000000000000000, -1.000000000000000000 ) ) ;
#168 = PRODUCT_DEFINITION_SHAPE ( 'NONE', 'NONE',  #63 ) ;
#169 = CARTESIAN_POINT ( 'NONE',  ( -0.01548450000000000173, 0.0000000000000000000, 1.896304336139719623E-18 ) ) ;
#170 = DIRECTION ( 'NONE',  ( 1.000000000000000000, 0.0000000000000000000, 0.0000000000000000000 ) ) ;
#171 = CIRCLE ( 'NONE', #322, 0.01548450000000000173 ) ;
#172 = DIRECTION ( 'NONE',  ( 0.0000000000000000000, -1.000000000000000000, 0.0000000000000000000 ) ) ;
#173 = DIRECTION ( 'NONE',  ( 1.000000000000000000, 0.0000000000000000000, 0.0000000000000000000 ) ) ;
#174 = ORIENTED_EDGE ( 'NONE', *, *, #290, .T. ) ;
#175 = EDGE_CURVE ( 'NONE', #16, #297, #303, .T. ) ;
#176 = VECTOR ( 'NONE', #17, 39.37007874015748143 ) ;
#177 = DIRECTION ( 'NONE',  ( 0.0000000000000000000, 0.0000000000000000000, 1.000000000000000000 ) ) ;
#178 = DIRECTION ( 'NONE',  ( 0.0000000000000000000, 0.0000000000000000000, 1.000000000000000000 ) ) ;
#179 = ORIENTED_EDGE ( 'NONE', *, *, #250, .F. ) ;
#180 = DIRECTION ( 'NONE',  ( 1.000000000000000000, 0.0000000000000000000, 0.0000000000000000000 ) ) ;
#181 = VECTOR ( 'NONE', #19, 39.37007874015747433 ) ;
#182 = ORIENTED_EDGE ( 'NONE', *, *, #266, .T. ) ;
#183 = STYLED_ITEM ( 'NONE', ( #83 ), #74 ) ;
#184 = PRODUCT_DEFINITION_CONTEXT ( 'detailed design', #159, 'design' ) ;
#185 = SURFACE_SIDE_STYLE ('',( #272 ) ) ;
#186 = PLANE ( 'NONE',  #81 ) ;
#187 = EDGE_LOOP ( 'NONE', ( #273, #182, #206 ) ) ;
#188 = ORIENTED_EDGE ( 'NONE', *, *, #290, .F. ) ;
#189 = LENGTH_MEASURE_WITH_UNIT ( LENGTH_MEASURE( 0.02539999999999999897 ), #164 );
#190 = ORIENTED_EDGE ( 'NONE', *, *, #130, .F. ) ;
#191 = CIRCLE ( 'NONE', #136, 0.01548450000000000173 ) ;
#192 = DIRECTION ( 'NONE',  ( -1.000000000000000000, 0.0000000000000000000, 0.0000000000000000000 ) ) ;
#193 = DIRECTION ( 'NONE',  ( 0.0000000000000000000, 0.0000000000000000000, -1.000000000000000000 ) ) ;
#194 = CARTESIAN_POINT ( 'NONE',  ( 4.404297097266760210E-17, 0.0000000000000000000, 0.3596381503902351118 ) ) ;
#195 = DIRECTION ( 'NONE',  ( -1.224646799147353454E-16, -0.0000000000000000000, -1.000000000000000000 ) ) ;
#196 = CARTESIAN_POINT ( 'NONE',  ( 1.896304336139719623E-18, 0.0000000000000000000, 0.01548450000000000000 ) ) ;
#197 = EDGE_CURVE ( 'NONE', #128, #277, #171, .T. ) ;
#198 = CARTESIAN_POINT ( 'NONE',  ( 0.01548450000000001041, 0.0000000000000000000, 0.09299999999999999933 ) ) ;
#199 = PRESENTATION_LAYER_ASSIGNMENT (  '', '', ( #316 ) ) ;
#200 = DIRECTION ( 'NONE',  ( -1.000000000000000000, 0.0000000000000000000, 1.378317830766382784E-16 ) ) ;
#201 = CONICAL_SURFACE ( 'NONE', #264, 0.01548450000000000000, 0.1745329251994338360 ) ;
#202 =( NAMED_UNIT ( * ) PLANE_ANGLE_UNIT ( ) SI_UNIT ( $, .RADIAN. ) );
#203 = DIRECTION ( 'NONE',  ( 1.224646799147353454E-16, 0.0000000000000000000, 1.000000000000000000 ) ) ;
#204 = DIRECTION ( 'NONE',  ( -0.0000000000000000000, -0.0000000000000000000, -1.000000000000000000 ) ) ;
#205 = ADVANCED_FACE ( 'NONE', ( #22 ), #92, .T. ) ;
#206 = ORIENTED_EDGE ( 'NONE', *, *, #26, .F. ) ;
#207 = AXIS2_PLACEMENT_3D ( 'NONE', #276, #304, #6 ) ;
#208 = VECTOR ( 'NONE', #262, 39.37007874015748143 ) ;
#209 = ORIENTED_EDGE ( 'NONE', *, *, #235, .T. ) ;
#210 = DIRECTION ( 'NONE',  ( -1.000000000000000000, 0.0000000000000000000, 0.0000000000000000000 ) ) ;
#211 = PRESENTATION_STYLE_ASSIGNMENT (( #253 ) ) ;
#212 = EDGE_LOOP ( 'NONE', ( #109, #305, #60, #233 ) ) ;
#213 = DIRECTION ( 'NONE',  ( -0.7071067811865462405, 0.0000000000000000000, -0.7071067811865486830 ) ) ;
#214 = AXIS2_PLACEMENT_3D ( 'NONE', #56, #178, #62 ) ;
#215 = DIRECTION ( 'NONE',  ( 0.0000000000000000000, 0.0000000000000000000, -1.000000000000000000 ) ) ;
#216 = ADVANCED_FACE ( 'NONE', ( #295 ), #93, .T. ) ;
#217 = VERTEX_POINT ( 'NONE', #287 ) ;
#218 = CYLINDRICAL_SURFACE ( 'NONE', #119, 0.01548450000000000173 ) ;
#219 = FACE_OUTER_BOUND ( 'NONE', #302, .T. ) ;
#220 = DIRECTION ( 'NONE',  ( 1.224646799147353454E-16, 0.0000000000000000000, 1.000000000000000000 ) ) ;
#221 = DIRECTION ( 'NONE',  ( -1.000000000000000000, 1.224646799147353207E-16, 0.0000000000000000000 ) ) ;
#222 = AXIS2_PLACEMENT_3D ( 'NONE', #311, #193, #192 ) ;
#223 =( CONVERSION_BASED_UNIT ( 'INCH', #25 ) LENGTH_UNIT ( ) NAMED_UNIT ( #324 ) );
#224 = ORIENTED_EDGE ( 'NONE', *, *, #175, .T. ) ;
#225 = CARTESIAN_POINT ( 'NONE',  ( 0.0000000000000000000, 0.0000000000000000000, 1.500000000000000222 ) ) ;
#226 = CONICAL_SURFACE ( 'NONE', #148, 0.01548450000000000000, 0.1745329251994338360 ) ;
#227 = CYLINDRICAL_SURFACE ( 'NONE', #10, 0.06250000000000002776 ) ;
#228 = ORIENTED_EDGE ( 'NONE', *, *, #231, .F. ) ;
#229 = ORIENTED_EDGE ( 'NONE', *, *, #7, .T. ) ;
#230 = FACE_OUTER_BOUND ( 'NONE', #37, .T. ) ;
#231 = EDGE_CURVE ( 'NONE', #251, #244, #318, .T. ) ;
#232 = ORIENTED_EDGE ( 'NONE', *, *, #235, .F. ) ;
#233 = ORIENTED_EDGE ( 'NONE', *, *, #141, .F. ) ;
#234 = FILL_AREA_STYLE_COLOUR ( '', #51 ) ;
#235 = EDGE_CURVE ( 'NONE', #87, #244, #320, .T. ) ;
#236 = CARTESIAN_POINT ( 'NONE',  ( 1.138921523207038888E-17, 0.0000000000000000000, 0.09299999999999999933 ) ) ;
#237 = DIRECTION ( 'NONE',  ( 0.0000000000000000000, 0.0000000000000000000, 1.000000000000000000 ) ) ;
#238 = CARTESIAN_POINT ( 'NONE',  ( -0.01548449999999998959, 1.896304336139719238E-18, 0.09299999999999999933 ) ) ;
#239 = DIRECTION ( 'NONE',  ( -1.224646799147353454E-16, -0.0000000000000000000, -1.000000000000000000 ) ) ;
#240 = CARTESIAN_POINT ( 'NONE',  ( 1.896304336139719623E-18, 0.0000000000000000000, 0.01548450000000000000 ) ) ;
#241 = LINE ( 'NONE', #169, #208 ) ;
#242 = AXIS2_PLACEMENT_3D ( 'NONE', #1, #59, #180 ) ;
#243 = DIRECTION ( 'NONE',  ( 1.224646799147353454E-16, 0.0000000000000000000, 1.000000000000000000 ) ) ;
#244 = VERTEX_POINT ( 'NONE', #94 ) ;
#245 = DIMENSIONAL_EXPONENTS ( 1.000000000000000000, 0.0000000000000000000, 0.0000000000000000000, 0.0000000000000000000, 0.0000000000000000000, 0.0000000000000000000, 0.0000000000000000000 ) ;
#246 = ORIENTED_EDGE ( 'NONE', *, *, #197, .T. ) ;
#247 = EDGE_CURVE ( 'NONE', #157, #36, #118, .T. ) ;
#248 = CIRCLE ( 'NONE', #127, 0.01548450000000000000 ) ;
#249 = ORIENTED_EDGE ( 'NONE', *, *, #13, .F. ) ;
#250 = EDGE_CURVE ( 'NONE', #258, #251, #114, .T. ) ;
#251 = VERTEX_POINT ( 'NONE', #198 ) ;
#252 = ORIENTED_EDGE ( 'NONE', *, *, #139, .T. ) ;
#253 = SURFACE_STYLE_USAGE ( .BOTH. , #280 ) ;
#254 = CIRCLE ( 'NONE', #292, 0.01548450000000000000 ) ;
#255 = EDGE_LOOP ( 'NONE', ( #229, #209, #14, #49 ) ) ;
#256 =( CONVERSION_BASED_UNIT ( 'INCH', #189 ) LENGTH_UNIT ( ) NAMED_UNIT ( #307 ) );
#257 = CARTESIAN_POINT ( 'NONE',  ( 0.0000000000000000000, 0.0000000000000000000, 1.500000000000000222 ) ) ;
#258 = VERTEX_POINT ( 'NONE', #142 ) ;
#259 = DIRECTION ( 'NONE',  ( -1.224646799147353454E-16, -0.0000000000000000000, -1.000000000000000000 ) ) ;
#260 = DIRECTION ( 'NONE',  ( -0.0000000000000000000, -0.0000000000000000000, -1.000000000000000000 ) ) ;
#261 = ADVANCED_FACE ( 'NONE', ( #147 ), #226, .T. ) ;
#262 = DIRECTION ( 'NONE',  ( -1.224646799147353454E-16, -0.0000000000000000000, -1.000000000000000000 ) ) ;
#263 = AXIS2_PLACEMENT_3D ( 'NONE', #160, #215, #12 ) ;
#264 = AXIS2_PLACEMENT_3D ( 'NONE', #265, #243, #52 ) ;
#265 = CARTESIAN_POINT ( 'NONE',  ( 1.138921523207038888E-17, 0.0000000000000000000, 0.09299999999999999933 ) ) ;
#266 = EDGE_CURVE ( 'NONE', #217, #128, #286, .T. ) ;
#267 = UNCERTAINTY_MEASURE_WITH_UNIT (LENGTH_MEASURE( 1.000000000000000082E-05 ), #223, 'distance_accuracy_value', 'NONE');
#268 = CARTESIAN_POINT ( 'NONE',  ( -0.06250000000000002776, 0.0000000000000000000, 1.500000000000000222 ) ) ;
#269 = ADVANCED_FACE ( 'NONE', ( #75 ), #201, .T. ) ;
#270 = DIRECTION ( 'NONE',  ( 1.224646799147353207E-16, 1.000000000000000000, -0.0000000000000000000 ) ) ;
#271 = ORIENTED_EDGE ( 'NONE', *, *, #85, .T. ) ;
#272 = SURFACE_STYLE_FILL_AREA ( #28 ) ;
#273 = ORIENTED_EDGE ( 'NONE', *, *, #288, .F. ) ;
#274 = ADVANCED_FACE ( 'NONE', ( #219 ), #218, .T. ) ;
#275 = VECTOR ( 'NONE', #260, 39.37007874015748143 ) ;
#276 = CARTESIAN_POINT ( 'NONE',  ( 0.0000000000000000000, 0.0000000000000000000, 1.485000000000000764 ) ) ;
#277 = VERTEX_POINT ( 'NONE', #71 ) ;
#278 = DIRECTION ( 'NONE',  ( 1.000000000000000000, 0.0000000000000000000, 0.0000000000000000000 ) ) ;
#279 = EDGE_LOOP ( 'NONE', ( #4, #41, #110, #306 ) ) ;
#280 = SURFACE_SIDE_STYLE ('',( #64 ) ) ;
#281 = ORIENTED_EDGE ( 'NONE', *, *, #102, .T. ) ;
#282 = LINE ( 'NONE', #112, #176 ) ;
#283 = DIRECTION ( 'NONE',  ( 0.7071067811865462405, 8.659560562354916834E-17, -0.7071067811865486830 ) ) ;
#284 = CIRCLE ( 'NONE', #113, 0.06250000000000002776 ) ;
#285 = AXIS2_PLACEMENT_3D ( 'NONE', #196, #270, #221 ) ;
#286 = CIRCLE ( 'NONE', #285, 0.01548450000000000000 ) ;
#287 = CARTESIAN_POINT ( 'NONE',  ( 2.844456504209578857E-18, 0.0000000000000000000, 0.0000000000000000000 ) ) ;
#288 = EDGE_CURVE ( 'NONE', #217, #277, #248, .T. ) ;
#289 = DIRECTION ( 'NONE',  ( -1.000000000000000000, 0.0000000000000000000, 1.224646799147353454E-16 ) ) ;
#290 = EDGE_CURVE ( 'NONE', #258, #128, #241, .T. ) ;
#291 = CARTESIAN_POINT ( 'NONE',  ( 0.0000000000000000000, 0.0000000000000000000, 0.0000000000000000000 ) ) ;
#292 = AXIS2_PLACEMENT_3D ( 'NONE', #236, #259, #210 ) ;
#293 = PRODUCT ( 'Micro_BMR-031-2', 'Micro_BMR-031-2', '', ( #323 ) ) ;
#294 = DIRECTION ( 'NONE',  ( 0.0000000000000000000, 1.000000000000000000, 0.0000000000000000000 ) ) ;
#295 = FACE_OUTER_BOUND ( 'NONE', #187, .T. ) ;
#296 =( NAMED_UNIT ( * ) SI_UNIT ( $, .STERADIAN. ) SOLID_ANGLE_UNIT ( ) );
#297 = VERTEX_POINT ( 'NONE', #95 ) ;
#298 = VECTOR ( 'NONE', #72, 39.37007874015748143 ) ;
#299 = ORIENTED_EDGE ( 'NONE', *, *, #121, .T. ) ;
#300 = DIRECTION ( 'NONE',  ( -1.000000000000000000, 0.0000000000000000000, 0.0000000000000000000 ) ) ;
#301 =( LENGTH_UNIT ( ) NAMED_UNIT ( * ) SI_UNIT ( $, .METRE. ) );
#302 = EDGE_LOOP ( 'NONE', ( #35, #299, #29, #188 ) ) ;
#303 = CIRCLE ( 'NONE', #68, 0.04750000000000064587 ) ;
#304 = DIRECTION ( 'NONE',  ( 0.0000000000000000000, 0.0000000000000000000, -1.000000000000000000 ) ) ;
#305 = ORIENTED_EDGE ( 'NONE', *, *, #144, .T. ) ;
#306 = ORIENTED_EDGE ( 'NONE', *, *, #130, .T. ) ;
#307 = DIMENSIONAL_EXPONENTS ( 1.000000000000000000, 0.0000000000000000000, 0.0000000000000000000, 0.0000000000000000000, 0.0000000000000000000, 0.0000000000000000000, 0.0000000000000000000 ) ;
#308 = FACE_OUTER_BOUND ( 'NONE', #153, .T. ) ;
#309 = ORIENTED_EDGE ( 'NONE', *, *, #154, .T. ) ;
#310 = ORIENTED_EDGE ( 'NONE', *, *, #141, .T. ) ;
#311 = CARTESIAN_POINT ( 'NONE',  ( 0.0000000000000000000, 0.0000000000000000000, 1.500000000000000222 ) ) ;
#312 = CIRCLE ( 'NONE', #242, 0.06250000000000002776 ) ;
#313 = FILL_AREA_STYLE ('',( #234 ) ) ;
#314 = CARTESIAN_POINT ( 'NONE',  ( 0.04750000000000064587, 5.817072295950006528E-18, 1.500000000000000222 ) ) ;
#315 = CARTESIAN_POINT ( 'NONE',  ( 0.01548450000000001041, 0.0000000000000000000, 0.09299999999999999933 ) ) ;
#316 = STYLED_ITEM ( 'NONE', ( #211 ), #100 ) ;
#317 = AXIS2_PLACEMENT_3D ( 'NONE', #291, #195, #21 ) ;
#318 = LINE ( 'NONE', #315, #298 ) ;
#319 = APPLICATION_CONTEXT ( 'automotive_design' ) ;
#320 = LINE ( 'NONE', #70, #137 ) ;
#321 = CARTESIAN_POINT ( 'NONE',  ( 1.896304336139719623E-18, 0.0000000000000000000, 0.01548450000000000000 ) ) ;
#322 = AXIS2_PLACEMENT_3D ( 'NONE', #240, #220, #200 ) ;
#323 = PRODUCT_CONTEXT ( 'NONE', #319, 'mechanical' ) ;
#324 = DIMENSIONAL_EXPONENTS ( 1.000000000000000000, 0.0000000000000000000, 0.0000000000000000000, 0.0000000000000000000, 0.0000000000000000000, 0.0000000000000000000, 0.0000000000000000000 ) ;
#325 = LENGTH_MEASURE_WITH_UNIT ( LENGTH_MEASURE( 0.02539999999999999897 ), #301 );
ENDSEC;
END-ISO-10303-21;
