ISO-10303-21;
HEADER;
FILE_DESCRIPTION (( 'STEP AP214' ),
    '1' );
FILE_NAME ('81635.STEP',
    '2023-06-23T02:06:13',
    ( '' ),
    ( '' ),
    'SwSTEP 2.0',
    'SolidWorks 2023',
    '' );
FILE_SCHEMA (( 'AUTOMOTIVE_DESIGN' ));
ENDSEC;

DATA;
#1 = CARTESIAN_POINT ( 'NONE',  ( -0.06249999999999928529, 2.000000000000000000, 0.000000000000000000 ) ) ;
#2 = LENGTH_MEASURE_WITH_UNIT ( LENGTH_MEASURE( 0.02539999999999999897 ), #60 );
#3 =( LENGTH_UNIT ( ) NAMED_UNIT ( * ) SI_UNIT ( $, .METRE. ) );
#4 = PRESENTATION_LAYER_ASSIGNMENT (  '', '', ( #125 ) ) ;
#5 = EDGE_LOOP ( 'NONE', ( #44, #208, #258, #187 ) ) ;
#6 = DIRECTION ( 'NONE',  ( 0.000000000000000000, -0.000000000000000000, 1.000000000000000000 ) ) ;
#7 = LENGTH_MEASURE_WITH_UNIT ( LENGTH_MEASURE( 0.02539999999999999897 ), #3 );
#8 = DIRECTION ( 'NONE',  ( 0.000000000000000000, 0.000000000000000000, 1.000000000000000000 ) ) ;
#9 = PLANE ( 'NONE',  #268 ) ;
#10 = AXIS2_PLACEMENT_3D ( 'NONE', #172, #273, #50 ) ;
#11 = VERTEX_POINT ( 'NONE', #219 ) ;
#12 = ORIENTED_EDGE ( 'NONE', *, *, #224, .T. ) ;
#13 = APPLICATION_PROTOCOL_DEFINITION ( 'draft international standard', 'automotive_design', 1998, #96 ) ;
#14 = PRODUCT_CONTEXT ( 'NONE', #96, 'mechanical' ) ;
#15 = AXIS2_PLACEMENT_3D ( 'NONE', #123, #192, #72 ) ;
#16 = PRODUCT_DEFINITION_FORMATION_WITH_SPECIFIED_SOURCE ( 'ANY', '', #168, .NOT_KNOWN. ) ;
#17 = DIRECTION ( 'NONE',  ( -1.000000000000000000, 0.000000000000000000, 0.000000000000000000 ) ) ;
#18 = CARTESIAN_POINT ( 'NONE',  ( 3.673940397442059375E-16, 2.000000000000000000, 0.000000000000000000 ) ) ;
#19 = EDGE_CURVE ( 'NONE', #90, #184, #20, .T. ) ;
#20 = CIRCLE ( 'NONE', #204, 0.06250000000000001388 ) ;
#21 = CYLINDRICAL_SURFACE ( 'NONE', #261, 0.06249999999999982653 ) ;
#22 = AXIS2_PLACEMENT_3D ( 'NONE', #287, #108, #61 ) ;
#23 =( GEOMETRIC_REPRESENTATION_CONTEXT ( 3 ) GLOBAL_UNCERTAINTY_ASSIGNED_CONTEXT ( ( #45 ) ) GLOBAL_UNIT_ASSIGNED_CONTEXT ( ( #30, #296, #254 ) ) REPRESENTATION_CONTEXT ( 'NONE', 'WORKASPACE' ) );
#24 = SURFACE_STYLE_FILL_AREA ( #144 ) ;
#25 = DIMENSIONAL_EXPONENTS ( 1.000000000000000000, 0.000000000000000000, 0.000000000000000000, 0.000000000000000000, 0.000000000000000000, 0.000000000000000000, 0.000000000000000000 ) ;
#26 = FACE_OUTER_BOUND ( 'NONE', #36, .T. ) ;
#27 = CARTESIAN_POINT ( 'NONE',  ( 7.654042494670959086E-18, 0.000000000000000000, 0.06250000000000001388 ) ) ;
#28 = PRODUCT_DEFINITION_CONTEXT ( 'detailed design', #66, 'design' ) ;
#29 = COLOUR_RGB ( '',0.7921568627450980005, 0.8196078431372548767, 0.9333333333333333481 ) ;
#30 =( CONVERSION_BASED_UNIT ( 'INCH', #32 ) LENGTH_UNIT ( ) NAMED_UNIT ( #33 ) );
#31 = DIRECTION ( 'NONE',  ( -2.260886398425882692E-16, -1.000000000000000000, 0.000000000000000000 ) ) ;
#32 = LENGTH_MEASURE_WITH_UNIT ( LENGTH_MEASURE( 0.02539999999999999897 ), #250 );
#33 = DIMENSIONAL_EXPONENTS ( 1.000000000000000000, 0.000000000000000000, 0.000000000000000000, 0.000000000000000000, 0.000000000000000000, 0.000000000000000000, 0.000000000000000000 ) ;
#34 = SURFACE_STYLE_USAGE ( .BOTH. , #110 ) ;
#35 = CIRCLE ( 'NONE', #178, 0.06250000000000001388 ) ;
#36 = EDGE_LOOP ( 'NONE', ( #253, #153, #297, #304 ) ) ;
#37 =( CONVERSION_BASED_UNIT ( 'INCH', #58 ) LENGTH_UNIT ( ) NAMED_UNIT ( #195 ) );
#38 = EDGE_LOOP ( 'NONE', ( #92, #278 ) ) ;
#39 = APPLICATION_PROTOCOL_DEFINITION ( 'draft international standard', 'automotive_design', 1998, #66 ) ;
#40 = ORIENTED_EDGE ( 'NONE', *, *, #197, .T. ) ;
#41 = ORIENTED_EDGE ( 'NONE', *, *, #81, .T. ) ;
#42 = STYLED_ITEM ( 'NONE', ( #133 ), #127 ) ;
#43 = AXIS2_PLACEMENT_3D ( 'NONE', #233, #8, #213 ) ;
#44 = ORIENTED_EDGE ( 'NONE', *, *, #252, .T. ) ;
#45 = UNCERTAINTY_MEASURE_WITH_UNIT (LENGTH_MEASURE( 1.000000000000000082E-05 ), #30, 'distance_accuracy_value', 'NONE');
#46 = LINE ( 'NONE', #27, #162 ) ;
#47 = DIRECTION ( 'NONE',  ( 2.260886398425882692E-16, 1.000000000000000000, -0.000000000000000000 ) ) ;
#48 = COLOUR_RGB ( '',0.7921568627450980005, 0.8196078431372548767, 0.9333333333333333481 ) ;
#49 = ADVANCED_FACE ( 'NONE', ( #26 ), #21, .T. ) ;
#50 = DIRECTION ( 'NONE',  ( 0.000000000000000000, 0.000000000000000000, -1.000000000000000000 ) ) ;
#51 = SURFACE_STYLE_USAGE ( .BOTH. , #120 ) ;
#52 = FACE_OUTER_BOUND ( 'NONE', #135, .T. ) ;
#53 = PRODUCT_RELATED_PRODUCT_CATEGORY ( 'part', '', ( #168 ) ) ;
#54 = PLANE ( 'NONE',  #227 ) ;
#55 =( LENGTH_UNIT ( ) NAMED_UNIT ( * ) SI_UNIT ( $, .METRE. ) );
#56 = AXIS2_PLACEMENT_3D ( 'NONE', #167, #47, #122 ) ;
#57 = CARTESIAN_POINT ( 'NONE',  ( 0.000000000000000000, 0.3749999999999999445, 0.000000000000000000 ) ) ;
#58 = LENGTH_MEASURE_WITH_UNIT ( LENGTH_MEASURE( 0.02539999999999999897 ), #271 );
#59 = EDGE_CURVE ( 'NONE', #184, #90, #282, .T. ) ;
#60 =( LENGTH_UNIT ( ) NAMED_UNIT ( * ) SI_UNIT ( $, .METRE. ) );
#61 = DIRECTION ( 'NONE',  ( 0.000000000000000000, 0.000000000000000000, -1.000000000000000000 ) ) ;
#62 =( NAMED_UNIT ( * ) SI_UNIT ( $, .STERADIAN. ) SOLID_ANGLE_UNIT ( ) );
#63 = MANIFOLD_SOLID_BREP ( 'Revolve - Tool Body (Straight Shanked)', #157 ) ;
#64 = MECHANICAL_DESIGN_GEOMETRIC_PRESENTATION_REPRESENTATION (  '', ( #125 ), #186 ) ;
#65 = ORIENTED_EDGE ( 'NONE', *, *, #139, .F. ) ;
#66 = APPLICATION_CONTEXT ( 'automotive_design' ) ;
#67 = CARTESIAN_POINT ( 'NONE',  ( 0.000000000000000000, 0.3749999999999999445, 0.000000000000000000 ) ) ;
#68 = DIRECTION ( 'NONE',  ( -1.000000000000000000, 0.000000000000000000, 0.000000000000000000 ) ) ;
#69 = AXIS2_PLACEMENT_3D ( 'NONE', #146, #80, #245 ) ;
#70 = CARTESIAN_POINT ( 'NONE',  ( 0.000000000000000000, 0.000000000000000000, 0.000000000000000000 ) ) ;
#71 = DIRECTION ( 'NONE',  ( -0.000000000000000000, -1.000000000000000000, -0.000000000000000000 ) ) ;
#72 = DIRECTION ( 'NONE',  ( 0.000000000000000000, 0.000000000000000000, -1.000000000000000000 ) ) ;
#73 = CYLINDRICAL_SURFACE ( 'NONE', #148, 0.06249999999999982653 ) ;
#74 = UNCERTAINTY_MEASURE_WITH_UNIT (LENGTH_MEASURE( 1.000000000000000082E-05 ), #248, 'distance_accuracy_value', 'NONE');
#75 = ADVANCED_FACE ( 'NONE', ( #217 ), #73, .T. ) ;
#76 =( NAMED_UNIT ( * ) SI_UNIT ( $, .STERADIAN. ) SOLID_ANGLE_UNIT ( ) );
#77 = VECTOR ( 'NONE', #221, 39.37007874015748143 ) ;
#78 = FILL_AREA_STYLE ('',( #113 ) ) ;
#79 = CARTESIAN_POINT ( 'NONE',  ( -0.06249999999999945877, 2.000000000000000000, 0.000000000000000000 ) ) ;
#80 = DIRECTION ( 'NONE',  ( 2.260886398425882692E-16, 1.000000000000000000, -0.000000000000000000 ) ) ;
#81 = EDGE_CURVE ( 'NONE', #179, #228, #171, .T. ) ;
#82 = UNCERTAINTY_MEASURE_WITH_UNIT (LENGTH_MEASURE( 1.000000000000000082E-05 ), #89, 'distance_accuracy_value', 'NONE');
#83 =( GEOMETRIC_REPRESENTATION_CONTEXT ( 3 ) GLOBAL_UNCERTAINTY_ASSIGNED_CONTEXT ( ( #101 ) ) GLOBAL_UNIT_ASSIGNED_CONTEXT ( ( #269, #102, #76 ) ) REPRESENTATION_CONTEXT ( 'NONE', 'WORKASPACE' ) );
#84 = SURFACE_STYLE_FILL_AREA ( #181 ) ;
#85 = DIRECTION ( 'NONE',  ( 0.000000000000000000, -1.000000000000000000, -0.000000000000000000 ) ) ;
#86 = PRODUCT_DEFINITION ( 'UNKNOWN', '', #16, #28 ) ;
#87 = VERTEX_POINT ( 'NONE', #262 ) ;
#88 =( GEOMETRIC_REPRESENTATION_CONTEXT ( 3 ) GLOBAL_UNCERTAINTY_ASSIGNED_CONTEXT ( ( #147 ) ) GLOBAL_UNIT_ASSIGNED_CONTEXT ( ( #37, #290, #246 ) ) REPRESENTATION_CONTEXT ( 'NONE', 'WORKASPACE' ) );
#89 =( CONVERSION_BASED_UNIT ( 'INCH', #7 ) LENGTH_UNIT ( ) NAMED_UNIT ( #121 ) );
#90 = VERTEX_POINT ( 'NONE', #303 ) ;
#91 = EDGE_CURVE ( 'NONE', #11, #183, #35, .T. ) ;
#92 = ORIENTED_EDGE ( 'NONE', *, *, #91, .T. ) ;
#93 = LINE ( 'NONE', #138, #301 ) ;
#94 = STYLED_ITEM ( 'NONE', ( #225 ), #294 ) ;
#95 = ORIENTED_EDGE ( 'NONE', *, *, #19, .F. ) ;
#96 = APPLICATION_CONTEXT ( 'automotive_design' ) ;
#97 = LINE ( 'NONE', #299, #251 ) ;
#98 = DIRECTION ( 'NONE',  ( 0.000000000000000000, 0.000000000000000000, -1.000000000000000000 ) ) ;
#99 =( GEOMETRIC_REPRESENTATION_CONTEXT ( 3 ) GLOBAL_UNCERTAINTY_ASSIGNED_CONTEXT ( ( #82 ) ) GLOBAL_UNIT_ASSIGNED_CONTEXT ( ( #89, #112, #209 ) ) REPRESENTATION_CONTEXT ( 'NONE', 'WORKASPACE' ) );
#100 = DIRECTION ( 'NONE',  ( -0.000000000000000000, -1.000000000000000000, -0.000000000000000000 ) ) ;
#101 = UNCERTAINTY_MEASURE_WITH_UNIT (LENGTH_MEASURE( 1.000000000000000082E-05 ), #269, 'distance_accuracy_value', 'NONE');
#102 =( NAMED_UNIT ( * ) PLANE_ANGLE_UNIT ( ) SI_UNIT ( $, .RADIAN. ) );
#103 =( NAMED_UNIT ( * ) PLANE_ANGLE_UNIT ( ) SI_UNIT ( $, .RADIAN. ) );
#104 = MECHANICAL_DESIGN_GEOMETRIC_PRESENTATION_REPRESENTATION (  '', ( #199 ), #83 ) ;
#105 =( GEOMETRIC_REPRESENTATION_CONTEXT ( 3 ) GLOBAL_UNCERTAINTY_ASSIGNED_CONTEXT ( ( #74 ) ) GLOBAL_UNIT_ASSIGNED_CONTEXT ( ( #248, #207, #247 ) ) REPRESENTATION_CONTEXT ( 'NONE', 'WORKASPACE' ) );
#106 = CARTESIAN_POINT ( 'NONE',  ( -0.06250000000000001388, 0.3749999999999999445, 0.000000000000000000 ) ) ;
#107 =( CONVERSION_BASED_UNIT ( 'INCH', #2 ) LENGTH_UNIT ( ) NAMED_UNIT ( #201 ) );
#108 = DIRECTION ( 'NONE',  ( -0.000000000000000000, -1.000000000000000000, -0.000000000000000000 ) ) ;
#109 = MECHANICAL_DESIGN_GEOMETRIC_PRESENTATION_REPRESENTATION (  '', ( #158 ), #105 ) ;
#110 = SURFACE_SIDE_STYLE ('',( #84 ) ) ;
#111 = PLANE ( 'NONE',  #132 ) ;
#112 =( NAMED_UNIT ( * ) PLANE_ANGLE_UNIT ( ) SI_UNIT ( $, .RADIAN. ) );
#113 = FILL_AREA_STYLE_COLOUR ( '', #29 ) ;
#114 = EDGE_CURVE ( 'NONE', #196, #87, #240, .T. ) ;
#115 = AXIS2_PLACEMENT_3D ( 'NONE', #173, #31, #216 ) ;
#116 =( NAMED_UNIT ( * ) SI_UNIT ( $, .STERADIAN. ) SOLID_ANGLE_UNIT ( ) );
#117 = PRESENTATION_STYLE_ASSIGNMENT (( #51 ) ) ;
#118 = SURFACE_SIDE_STYLE ('',( #145 ) ) ;
#119 = SURFACE_SIDE_STYLE ('',( #302 ) ) ;
#120 = SURFACE_SIDE_STYLE ('',( #24 ) ) ;
#121 = DIMENSIONAL_EXPONENTS ( 1.000000000000000000, 0.000000000000000000, 0.000000000000000000, 0.000000000000000000, 0.000000000000000000, 0.000000000000000000, 0.000000000000000000 ) ;
#122 = DIRECTION ( 'NONE',  ( -1.000000000000000000, 0.000000000000000000, 0.000000000000000000 ) ) ;
#123 = CARTESIAN_POINT ( 'NONE',  ( 0.000000000000000000, 0.3749999999999999445, 0.000000000000000000 ) ) ;
#124 = DIRECTION ( 'NONE',  ( -0.000000000000000000, -1.000000000000000000, -0.000000000000000000 ) ) ;
#125 = STYLED_ITEM ( 'NONE', ( #242 ), #63 ) ;
#126 = DIRECTION ( 'NONE',  ( 2.260886398425882692E-16, 1.000000000000000000, -0.000000000000000000 ) ) ;
#127 = ADVANCED_FACE ( 'NONE', ( #194 ), #239, .T. ) ;
#128 = LENGTH_MEASURE_WITH_UNIT ( LENGTH_MEASURE( 0.02539999999999999897 ), #55 );
#129 = DIMENSIONAL_EXPONENTS ( 1.000000000000000000, 0.000000000000000000, 0.000000000000000000, 0.000000000000000000, 0.000000000000000000, 0.000000000000000000, 0.000000000000000000 ) ;
#130 = SURFACE_STYLE_USAGE ( .BOTH. , #154 ) ;
#131 = AXIS2_PLACEMENT_3D ( 'NONE', #18, #266, #68 ) ;
#132 = AXIS2_PLACEMENT_3D ( 'NONE', #57, #229, #6 ) ;
#133 = PRESENTATION_STYLE_ASSIGNMENT (( #202 ) ) ;
#134 = PLANE ( 'NONE',  #115 ) ;
#135 = EDGE_LOOP ( 'NONE', ( #41, #308 ) ) ;
#136 = MECHANICAL_DESIGN_GEOMETRIC_PRESENTATION_REPRESENTATION (  '', ( #288 ), #99 ) ;
#137 = EDGE_LOOP ( 'NONE', ( #156, #238, #12, #65 ) ) ;
#138 = CARTESIAN_POINT ( 'NONE',  ( 0.000000000000000000, 0.000000000000000000, -0.06250000000000001388 ) ) ;
#139 = EDGE_CURVE ( 'NONE', #183, #11, #275, .T. ) ;
#140 = FILL_AREA_STYLE ('',( #215 ) ) ;
#141 = CARTESIAN_POINT ( 'NONE',  ( 3.673940397442059375E-16, 2.000000000000000000, 0.000000000000000000 ) ) ;
#142 = EDGE_LOOP ( 'NONE', ( #298, #212 ) ) ;
#143 = ADVANCED_FACE ( 'NONE', ( #231 ), #9, .F. ) ;
#144 = FILL_AREA_STYLE ('',( #265 ) ) ;
#145 = SURFACE_STYLE_FILL_AREA ( #260 ) ;
#146 = CARTESIAN_POINT ( 'NONE',  ( 3.673940397442059375E-16, 2.000000000000000000, 0.000000000000000000 ) ) ;
#147 = UNCERTAINTY_MEASURE_WITH_UNIT (LENGTH_MEASURE( 1.000000000000000082E-05 ), #37, 'distance_accuracy_value', 'NONE');
#148 = AXIS2_PLACEMENT_3D ( 'NONE', #165, #286, #163 ) ;
#149 = SURFACE_STYLE_FILL_AREA ( #78 ) ;
#150 = COLOUR_RGB ( '',1.000000000000000000, 0.000000000000000000, 0.000000000000000000 ) ;
#151 = FILL_AREA_STYLE_COLOUR ( '', #210 ) ;
#152 = CIRCLE ( 'NONE', #15, 0.06250000000000001388 ) ;
#153 = ORIENTED_EDGE ( 'NONE', *, *, #19, .T. ) ;
#154 = SURFACE_SIDE_STYLE ('',( #295 ) ) ;
#155 = EDGE_LOOP ( 'NONE', ( #234, #40, #280, #211 ) ) ;
#156 = ORIENTED_EDGE ( 'NONE', *, *, #232, .F. ) ;
#157 = CLOSED_SHELL ( 'NONE', ( #75, #143, #49, #193 ) ) ;
#158 = STYLED_ITEM ( 'NONE', ( #203 ), #285 ) ;
#159 = SHAPE_DEFINITION_REPRESENTATION ( #263, #249 ) ;
#160 = LENGTH_MEASURE_WITH_UNIT ( LENGTH_MEASURE( 0.02539999999999999897 ), #235 );
#161 = DIRECTION ( 'NONE',  ( 0.000000000000000000, 0.000000000000000000, -1.000000000000000000 ) ) ;
#162 = VECTOR ( 'NONE', #243, 39.37007874015748143 ) ;
#163 = DIRECTION ( 'NONE',  ( -1.000000000000000000, 0.000000000000000000, 0.000000000000000000 ) ) ;
#164 =( LENGTH_UNIT ( ) NAMED_UNIT ( * ) SI_UNIT ( $, .METRE. ) );
#165 = CARTESIAN_POINT ( 'NONE',  ( 3.673940397442059375E-16, 2.000000000000000000, 0.000000000000000000 ) ) ;
#166 = EDGE_CURVE ( 'NONE', #228, #179, #214, .T. ) ;
#167 = CARTESIAN_POINT ( 'NONE',  ( 0.000000000000000000, 0.3749999999999999445, 0.000000000000000000 ) ) ;
#168 = PRODUCT ( '81635', '81635', '', ( #14 ) ) ;
#169 = CARTESIAN_POINT ( 'NONE',  ( 0.000000000000000000, 0.000000000000000000, 0.000000000000000000 ) ) ;
#170 = AXIS2_PLACEMENT_3D ( 'NONE', #67, #100, #161 ) ;
#171 = CIRCLE ( 'NONE', #131, 0.06249999999999964612 ) ;
#172 = CARTESIAN_POINT ( 'NONE',  ( 0.000000000000000000, 0.000000000000000000, 0.000000000000000000 ) ) ;
#173 = CARTESIAN_POINT ( 'NONE',  ( 0.06250000000000001388, 2.000000000000000000, 0.000000000000000000 ) ) ;
#174 = DIMENSIONAL_EXPONENTS ( 1.000000000000000000, 0.000000000000000000, 0.000000000000000000, 0.000000000000000000, 0.000000000000000000, 0.000000000000000000, 0.000000000000000000 ) ;
#175 = MANIFOLD_SOLID_BREP ( 'Revolve - Cutting Edge', #291 ) ;
#176 = FILL_AREA_STYLE ('',( #151 ) ) ;
#177 = UNCERTAINTY_MEASURE_WITH_UNIT (LENGTH_MEASURE( 1.000000000000000082E-05 ), #188, 'distance_accuracy_value', 'NONE');
#178 = AXIS2_PLACEMENT_3D ( 'NONE', #70, #264, #98 ) ;
#179 = VERTEX_POINT ( 'NONE', #1 ) ;
#180 = PRESENTATION_LAYER_ASSIGNMENT (  '', '', ( #94 ) ) ;
#181 = FILL_AREA_STYLE ('',( #277 ) ) ;
#182 = PRESENTATION_STYLE_ASSIGNMENT (( #230 ) ) ;
#183 = VERTEX_POINT ( 'NONE', #255 ) ;
#184 = VERTEX_POINT ( 'NONE', #106 ) ;
#185 = EDGE_CURVE ( 'NONE', #184, #179, #289, .T. ) ;
#186 =( GEOMETRIC_REPRESENTATION_CONTEXT ( 3 ) GLOBAL_UNCERTAINTY_ASSIGNED_CONTEXT ( ( #177 ) ) GLOBAL_UNIT_ASSIGNED_CONTEXT ( ( #188, #103, #116 ) ) REPRESENTATION_CONTEXT ( 'NONE', 'WORKASPACE' ) );
#187 = ORIENTED_EDGE ( 'NONE', *, *, #224, .F. ) ;
#188 =( CONVERSION_BASED_UNIT ( 'INCH', #160 ) LENGTH_UNIT ( ) NAMED_UNIT ( #129 ) );
#189 = DIRECTION ( 'NONE',  ( 2.260886398425882692E-16, 1.000000000000000000, -0.000000000000000000 ) ) ;
#190 = DIRECTION ( 'NONE',  ( 2.260886398425882692E-16, 1.000000000000000000, -0.000000000000000000 ) ) ;
#191 = PRESENTATION_LAYER_ASSIGNMENT (  '', '', ( #288 ) ) ;
#192 = DIRECTION ( 'NONE',  ( -0.000000000000000000, -1.000000000000000000, -0.000000000000000000 ) ) ;
#193 = ADVANCED_FACE ( 'NONE', ( #52 ), #134, .F. ) ;
#194 = FACE_OUTER_BOUND ( 'NONE', #137, .T. ) ;
#195 = DIMENSIONAL_EXPONENTS ( 1.000000000000000000, 0.000000000000000000, 0.000000000000000000, 0.000000000000000000, 0.000000000000000000, 0.000000000000000000, 0.000000000000000000 ) ;
#196 = VERTEX_POINT ( 'NONE', #281 ) ;
#197 = EDGE_CURVE ( 'NONE', #90, #228, #97, .T. ) ;
#198 = CARTESIAN_POINT ( 'NONE',  ( 0.06250000000000001388, 2.000000000000000000, 7.654042494670948300E-18 ) ) ;
#199 = STYLED_ITEM ( 'NONE', ( #117 ), #279 ) ;
#200 = DIRECTION ( 'NONE',  ( -1.000000000000000000, 2.260886398425882692E-16, 0.000000000000000000 ) ) ;
#201 = DIMENSIONAL_EXPONENTS ( 1.000000000000000000, 0.000000000000000000, 0.000000000000000000, 0.000000000000000000, 0.000000000000000000, 0.000000000000000000, 0.000000000000000000 ) ;
#202 = SURFACE_STYLE_USAGE ( .BOTH. , #118 ) ;
#203 = PRESENTATION_STYLE_ASSIGNMENT (( #130 ) ) ;
#204 = AXIS2_PLACEMENT_3D ( 'NONE', #237, #284, #17 ) ;
#205 = PRESENTATION_LAYER_ASSIGNMENT (  '', '', ( #158 ) ) ;
#206 = DIRECTION ( 'NONE',  ( 0.000000000000000000, 0.000000000000000000, -1.000000000000000000 ) ) ;
#207 =( NAMED_UNIT ( * ) PLANE_ANGLE_UNIT ( ) SI_UNIT ( $, .RADIAN. ) );
#208 = ORIENTED_EDGE ( 'NONE', *, *, #232, .T. ) ;
#209 =( NAMED_UNIT ( * ) SI_UNIT ( $, .STERADIAN. ) SOLID_ANGLE_UNIT ( ) );
#210 = COLOUR_RGB ( '',1.000000000000000000, 0.000000000000000000, 0.000000000000000000 ) ;
#211 = ORIENTED_EDGE ( 'NONE', *, *, #185, .F. ) ;
#212 = ORIENTED_EDGE ( 'NONE', *, *, #114, .F. ) ;
#213 = DIRECTION ( 'NONE',  ( 1.000000000000000000, 0.000000000000000000, 0.000000000000000000 ) ) ;
#214 = CIRCLE ( 'NONE', #69, 0.06249999999999964612 ) ;
#215 = FILL_AREA_STYLE_COLOUR ( '', #48 ) ;
#216 = DIRECTION ( 'NONE',  ( 1.000000000000000000, -2.260886398425882692E-16, 0.000000000000000000 ) ) ;
#217 = FACE_OUTER_BOUND ( 'NONE', #155, .T. ) ;
#218 = DIRECTION ( 'NONE',  ( -1.000000000000000000, 0.000000000000000000, 0.000000000000000000 ) ) ;
#219 = CARTESIAN_POINT ( 'NONE',  ( 0.000000000000000000, 0.000000000000000000, -0.06250000000000001388 ) ) ;
#220 = CYLINDRICAL_SURFACE ( 'NONE', #293, 0.06250000000000001388 ) ;
#221 = DIRECTION ( 'NONE',  ( 2.260886398425882692E-16, 1.000000000000000000, -0.000000000000000000 ) ) ;
#222 = FACE_OUTER_BOUND ( 'NONE', #38, .T. ) ;
#223 = FACE_OUTER_BOUND ( 'NONE', #142, .T. ) ;
#224 = EDGE_CURVE ( 'NONE', #87, #11, #93, .T. ) ;
#225 = PRESENTATION_STYLE_ASSIGNMENT (( #34 ) ) ;
#226 = COLOUR_RGB ( '',1.000000000000000000, 0.000000000000000000, 0.000000000000000000 ) ;
#227 = AXIS2_PLACEMENT_3D ( 'NONE', #292, #85, #206 ) ;
#228 = VERTEX_POINT ( 'NONE', #198 ) ;
#229 = DIRECTION ( 'NONE',  ( 0.000000000000000000, 1.000000000000000000, 0.000000000000000000 ) ) ;
#230 = SURFACE_STYLE_USAGE ( .BOTH. , #244 ) ;
#231 = FACE_OUTER_BOUND ( 'NONE', #283, .T. ) ;
#232 = EDGE_CURVE ( 'NONE', #196, #183, #46, .T. ) ;
#233 = CARTESIAN_POINT ( 'NONE',  ( 0.000000000000000000, 0.000000000000000000, 0.000000000000000000 ) ) ;
#234 = ORIENTED_EDGE ( 'NONE', *, *, #59, .T. ) ;
#235 =( LENGTH_UNIT ( ) NAMED_UNIT ( * ) SI_UNIT ( $, .METRE. ) );
#236 = PRESENTATION_LAYER_ASSIGNMENT (  '', '', ( #199 ) ) ;
#237 = CARTESIAN_POINT ( 'NONE',  ( 0.000000000000000000, 0.3749999999999999445, 0.000000000000000000 ) ) ;
#238 = ORIENTED_EDGE ( 'NONE', *, *, #114, .T. ) ;
#239 = CYLINDRICAL_SURFACE ( 'NONE', #10, 0.06250000000000001388 ) ;
#240 = CIRCLE ( 'NONE', #170, 0.06250000000000001388 ) ;
#241 = LENGTH_MEASURE_WITH_UNIT ( LENGTH_MEASURE( 0.02539999999999999897 ), #164 );
#242 = PRESENTATION_STYLE_ASSIGNMENT (( #307 ) ) ;
#243 = DIRECTION ( 'NONE',  ( -0.000000000000000000, -1.000000000000000000, -0.000000000000000000 ) ) ;
#244 = SURFACE_SIDE_STYLE ('',( #149 ) ) ;
#245 = DIRECTION ( 'NONE',  ( -1.000000000000000000, 0.000000000000000000, 0.000000000000000000 ) ) ;
#246 =( NAMED_UNIT ( * ) SI_UNIT ( $, .STERADIAN. ) SOLID_ANGLE_UNIT ( ) );
#247 =( NAMED_UNIT ( * ) SI_UNIT ( $, .STERADIAN. ) SOLID_ANGLE_UNIT ( ) );
#248 =( CONVERSION_BASED_UNIT ( 'INCH', #128 ) LENGTH_UNIT ( ) NAMED_UNIT ( #174 ) );
#249 = ADVANCED_BREP_SHAPE_REPRESENTATION ( '81635', ( #175, #63, #43 ), #276 ) ;
#250 =( LENGTH_UNIT ( ) NAMED_UNIT ( * ) SI_UNIT ( $, .METRE. ) );
#251 = VECTOR ( 'NONE', #189, 39.37007874015748143 ) ;
#252 = EDGE_CURVE ( 'NONE', #87, #196, #152, .T. ) ;
#253 = ORIENTED_EDGE ( 'NONE', *, *, #197, .F. ) ;
#254 =( NAMED_UNIT ( * ) SI_UNIT ( $, .STERADIAN. ) SOLID_ANGLE_UNIT ( ) );
#255 = CARTESIAN_POINT ( 'NONE',  ( 7.654042494670959086E-18, 0.000000000000000000, 0.06250000000000001388 ) ) ;
#256 = ORIENTED_EDGE ( 'NONE', *, *, #59, .F. ) ;
#257 = PRESENTATION_LAYER_ASSIGNMENT (  '', '', ( #42 ) ) ;
#258 = ORIENTED_EDGE ( 'NONE', *, *, #91, .F. ) ;
#259 = FILL_AREA_STYLE_COLOUR ( '', #226 ) ;
#260 = FILL_AREA_STYLE ('',( #259 ) ) ;
#261 = AXIS2_PLACEMENT_3D ( 'NONE', #141, #190, #218 ) ;
#262 = CARTESIAN_POINT ( 'NONE',  ( 0.000000000000000000, 0.3749999999999999445, -0.06250000000000001388 ) ) ;
#263 = PRODUCT_DEFINITION_SHAPE ( 'NONE', 'NONE',  #86 ) ;
#264 = DIRECTION ( 'NONE',  ( -0.000000000000000000, -1.000000000000000000, -0.000000000000000000 ) ) ;
#265 = FILL_AREA_STYLE_COLOUR ( '', #305 ) ;
#266 = DIRECTION ( 'NONE',  ( 2.260886398425882692E-16, 1.000000000000000000, -0.000000000000000000 ) ) ;
#267 = UNCERTAINTY_MEASURE_WITH_UNIT (LENGTH_MEASURE( 1.000000000000000082E-05 ), #107, 'distance_accuracy_value', 'NONE');
#268 = AXIS2_PLACEMENT_3D ( 'NONE', #272, #126, #200 ) ;
#269 =( CONVERSION_BASED_UNIT ( 'INCH', #241 ) LENGTH_UNIT ( ) NAMED_UNIT ( #25 ) );
#270 = MECHANICAL_DESIGN_GEOMETRIC_PRESENTATION_REPRESENTATION (  '', ( #94 ), #23 ) ;
#271 =( LENGTH_UNIT ( ) NAMED_UNIT ( * ) SI_UNIT ( $, .METRE. ) );
#272 = CARTESIAN_POINT ( 'NONE',  ( 1.597377283308487800E-33, 0.3749999999999999445, 0.000000000000000000 ) ) ;
#273 = DIRECTION ( 'NONE',  ( -0.000000000000000000, -1.000000000000000000, -0.000000000000000000 ) ) ;
#274 =( NAMED_UNIT ( * ) PLANE_ANGLE_UNIT ( ) SI_UNIT ( $, .RADIAN. ) );
#275 = CIRCLE ( 'NONE', #22, 0.06250000000000001388 ) ;
#276 =( GEOMETRIC_REPRESENTATION_CONTEXT ( 3 ) GLOBAL_UNCERTAINTY_ASSIGNED_CONTEXT ( ( #267 ) ) GLOBAL_UNIT_ASSIGNED_CONTEXT ( ( #107, #274, #62 ) ) REPRESENTATION_CONTEXT ( 'NONE', 'WORKASPACE' ) );
#277 = FILL_AREA_STYLE_COLOUR ( '', #150 ) ;
#278 = ORIENTED_EDGE ( 'NONE', *, *, #139, .T. ) ;
#279 = ADVANCED_FACE ( 'NONE', ( #306 ), #220, .T. ) ;
#280 = ORIENTED_EDGE ( 'NONE', *, *, #81, .F. ) ;
#281 = CARTESIAN_POINT ( 'NONE',  ( 7.654042494670959086E-18, 0.3749999999999999445, 0.06250000000000001388 ) ) ;
#282 = CIRCLE ( 'NONE', #56, 0.06250000000000001388 ) ;
#283 = EDGE_LOOP ( 'NONE', ( #256, #95 ) ) ;
#284 = DIRECTION ( 'NONE',  ( 2.260886398425882692E-16, 1.000000000000000000, -0.000000000000000000 ) ) ;
#285 = ADVANCED_FACE ( 'NONE', ( #222 ), #54, .T. ) ;
#286 = DIRECTION ( 'NONE',  ( 2.260886398425882692E-16, 1.000000000000000000, -0.000000000000000000 ) ) ;
#287 = CARTESIAN_POINT ( 'NONE',  ( 0.000000000000000000, 0.000000000000000000, 0.000000000000000000 ) ) ;
#288 = STYLED_ITEM ( 'NONE', ( #182 ), #175 ) ;
#289 = LINE ( 'NONE', #79, #77 ) ;
#290 =( NAMED_UNIT ( * ) PLANE_ANGLE_UNIT ( ) SI_UNIT ( $, .RADIAN. ) );
#291 = CLOSED_SHELL ( 'NONE', ( #279, #294, #127, #285 ) ) ;
#292 = CARTESIAN_POINT ( 'NONE',  ( 0.000000000000000000, 0.000000000000000000, 0.000000000000000000 ) ) ;
#293 = AXIS2_PLACEMENT_3D ( 'NONE', #169, #124, #309 ) ;
#294 = ADVANCED_FACE ( 'NONE', ( #223 ), #111, .T. ) ;
#295 = SURFACE_STYLE_FILL_AREA ( #176 ) ;
#296 =( NAMED_UNIT ( * ) PLANE_ANGLE_UNIT ( ) SI_UNIT ( $, .RADIAN. ) );
#297 = ORIENTED_EDGE ( 'NONE', *, *, #185, .T. ) ;
#298 = ORIENTED_EDGE ( 'NONE', *, *, #252, .F. ) ;
#299 = CARTESIAN_POINT ( 'NONE',  ( 0.06250000000000019429, 2.000000000000000000, 7.654042494670935974E-18 ) ) ;
#300 = MECHANICAL_DESIGN_GEOMETRIC_PRESENTATION_REPRESENTATION (  '', ( #42 ), #88 ) ;
#301 = VECTOR ( 'NONE', #71, 39.37007874015748143 ) ;
#302 = SURFACE_STYLE_FILL_AREA ( #140 ) ;
#303 = CARTESIAN_POINT ( 'NONE',  ( 0.06250000000000001388, 0.3749999999999999445, 7.654042494670948300E-18 ) ) ;
#304 = ORIENTED_EDGE ( 'NONE', *, *, #166, .F. ) ;
#305 = COLOUR_RGB ( '',1.000000000000000000, 0.000000000000000000, 0.000000000000000000 ) ;
#306 = FACE_OUTER_BOUND ( 'NONE', #5, .T. ) ;
#307 = SURFACE_STYLE_USAGE ( .BOTH. , #119 ) ;
#308 = ORIENTED_EDGE ( 'NONE', *, *, #166, .T. ) ;
#309 = DIRECTION ( 'NONE',  ( 0.000000000000000000, 0.000000000000000000, -1.000000000000000000 ) ) ;
ENDSEC;
END-ISO-10303-21;
