ISO-10303-21;
HEADER;
FILE_DESCRIPTION (( 'STEP AP214' ),
    '1' );
FILE_NAME ('82513.STEP',
    '2023-06-30T22:46:32',
    ( '' ),
    ( '' ),
    'SwSTEP 2.0',
    'SolidWorks 2023',
    '' );
FILE_SCHEMA (( 'AUTOMOTIVE_DESIGN' ));
ENDSEC;

DATA;
#1 = PRODUCT_DEFINITION ( 'UNKNOWN', '', #369, #65 ) ;
#2 = LENGTH_MEASURE_WITH_UNIT ( LENGTH_MEASURE( 0.02539999999999999897 ), #312 );
#3 = ORIENTED_EDGE ( 'NONE', *, *, #194, .T. ) ;
#4 = DIRECTION ( 'NONE',  ( 0.000000000000000000, 0.000000000000000000, -1.000000000000000000 ) ) ;
#5 = ORIENTED_EDGE ( 'NONE', *, *, #249, .F. ) ;
#6 = MECHANICAL_DESIGN_GEOMETRIC_PRESENTATION_REPRESENTATION (  '', ( #192 ), #191 ) ;
#7 = SURFACE_STYLE_FILL_AREA ( #61 ) ;
#8 =( CONVERSION_BASED_UNIT ( 'INCH', #325 ) LENGTH_UNIT ( ) NAMED_UNIT ( #241 ) );
#9 = EDGE_CURVE ( 'NONE', #63, #156, #76, .T. ) ;
#10 = FACE_OUTER_BOUND ( 'NONE', #348, .T. ) ;
#11 = CARTESIAN_POINT ( 'NONE',  ( -1.913510623667738847E-17, 0.1562499999999999722, 0.000000000000000000 ) ) ;
#12 = AXIS2_PLACEMENT_3D ( 'NONE', #46, #67, #217 ) ;
#13 = CARTESIAN_POINT ( 'NONE',  ( -1.224646799147352714E-16, 4.000000000000000000, 0.000000000000000000 ) ) ;
#14 = LENGTH_MEASURE_WITH_UNIT ( LENGTH_MEASURE( 0.02539999999999999897 ), #337 );
#15 = ORIENTED_EDGE ( 'NONE', *, *, #84, .F. ) ;
#16 = EDGE_CURVE ( 'NONE', #144, #227, #197, .T. ) ;
#17 = PRODUCT ( '82513', '82513', '', ( #125 ) ) ;
#18 = SURFACE_SIDE_STYLE ('',( #148 ) ) ;
#19 =( GEOMETRIC_REPRESENTATION_CONTEXT ( 3 ) GLOBAL_UNCERTAINTY_ASSIGNED_CONTEXT ( ( #342 ) ) GLOBAL_UNIT_ASSIGNED_CONTEXT ( ( #220, #334, #236 ) ) REPRESENTATION_CONTEXT ( 'NONE', 'WORKASPACE' ) );
#20 = CARTESIAN_POINT ( 'NONE',  ( 1.913510623667738847E-17, 0.1562500000000000000, 0.1562499999999999722 ) ) ;
#21 = FILL_AREA_STYLE ('',( #305 ) ) ;
#22 =( LENGTH_UNIT ( ) NAMED_UNIT ( * ) SI_UNIT ( $, .METRE. ) );
#23 = CARTESIAN_POINT ( 'NONE',  ( 1.913510623667737923E-17, 0.000000000000000000, 0.1562499999999998612 ) ) ;
#24 = MECHANICAL_DESIGN_GEOMETRIC_PRESENTATION_REPRESENTATION (  '', ( #228 ), #282 ) ;
#25 = ORIENTED_EDGE ( 'NONE', *, *, #92, .T. ) ;
#26 = EDGE_CURVE ( 'NONE', #63, #356, #346, .T. ) ;
#27 = ORIENTED_EDGE ( 'NONE', *, *, #185, .F. ) ;
#28 = DIRECTION ( 'NONE',  ( -0.000000000000000000, -1.000000000000000000, -0.000000000000000000 ) ) ;
#29 = EDGE_CURVE ( 'NONE', #90, #196, #154, .T. ) ;
#30 = AXIS2_PLACEMENT_3D ( 'NONE', #336, #331, #68 ) ;
#31 =( LENGTH_UNIT ( ) NAMED_UNIT ( * ) SI_UNIT ( $, .METRE. ) );
#32 = ORIENTED_EDGE ( 'NONE', *, *, #149, .T. ) ;
#33 = SURFACE_STYLE_USAGE ( .BOTH. , #294 ) ;
#34 = DIRECTION ( 'NONE',  ( -0.000000000000000000, -1.000000000000000000, -0.000000000000000000 ) ) ;
#35 = DIRECTION ( 'NONE',  ( -1.226448644532570664E-16, 1.000000000000000000, -0.000000000000000000 ) ) ;
#36 = ORIENTED_EDGE ( 'NONE', *, *, #194, .F. ) ;
#37 = EDGE_LOOP ( 'NONE', ( #32, #284, #131, #265 ) ) ;
#38 = CARTESIAN_POINT ( 'NONE',  ( 0.000000000000000000, 0.1562500000000000000, -0.1562499999999999722 ) ) ;
#39 = EDGE_CURVE ( 'NONE', #75, #156, #138, .T. ) ;
#40 = AXIS2_PLACEMENT_3D ( 'NONE', #209, #60, #328 ) ;
#41 = AXIS2_PLACEMENT_3D ( 'NONE', #222, #299, #359 ) ;
#42 = CARTESIAN_POINT ( 'NONE',  ( 0.000000000000000000, 1.562500000000000000, 0.000000000000000000 ) ) ;
#43 =( CONVERSION_BASED_UNIT ( 'INCH', #45 ) LENGTH_UNIT ( ) NAMED_UNIT ( #302 ) );
#44 =( LENGTH_UNIT ( ) NAMED_UNIT ( * ) SI_UNIT ( $, .METRE. ) );
#45 = LENGTH_MEASURE_WITH_UNIT ( LENGTH_MEASURE( 0.02539999999999999897 ), #272 );
#46 = CARTESIAN_POINT ( 'NONE',  ( 0.000000000000000000, 0.000000000000000000, 0.000000000000000000 ) ) ;
#47 = CARTESIAN_POINT ( 'NONE',  ( 0.000000000000000000, 1.562500000000000000, 0.000000000000000000 ) ) ;
#48 = DIRECTION ( 'NONE',  ( 0.000000000000000000, 0.000000000000000000, -1.000000000000000000 ) ) ;
#49 = AXIS2_PLACEMENT_3D ( 'NONE', #111, #170, #136 ) ;
#50 = EDGE_LOOP ( 'NONE', ( #112, #316, #109, #106 ) ) ;
#51 = EDGE_LOOP ( 'NONE', ( #25, #318 ) ) ;
#52 = CARTESIAN_POINT ( 'NONE',  ( -9.567553118338692694E-18, -3.414809992080329023E-17, 0.000000000000000000 ) ) ;
#53 = PLANE ( 'NONE',  #310 ) ;
#54 = STYLED_ITEM ( 'NONE', ( #240 ), #127 ) ;
#55 = CIRCLE ( 'NONE', #248, 0.1562499999999996392 ) ;
#56 = EDGE_LOOP ( 'NONE', ( #252, #157, #162, #15 ) ) ;
#57 = CARTESIAN_POINT ( 'NONE',  ( -1.224646799147352714E-16, 4.000000000000000000, 0.000000000000000000 ) ) ;
#58 = DIRECTION ( 'NONE',  ( -0.000000000000000000, -1.000000000000000000, -0.000000000000000000 ) ) ;
#59 = ADVANCED_FACE ( 'NONE', ( #165 ), #267, .T. ) ;
#60 = DIRECTION ( 'NONE',  ( 1.224646799147353207E-16, -0.000000000000000000, 1.000000000000000000 ) ) ;
#61 = FILL_AREA_STYLE ('',( #160 ) ) ;
#62 = CARTESIAN_POINT ( 'NONE',  ( 1.764821771900788234E-16, 1.562500000000000000, 0.000000000000000000 ) ) ;
#63 = VERTEX_POINT ( 'NONE', #140 ) ;
#64 =( NAMED_UNIT ( * ) PLANE_ANGLE_UNIT ( ) SI_UNIT ( $, .RADIAN. ) );
#65 = PRODUCT_DEFINITION_CONTEXT ( 'detailed design', #251, 'design' ) ;
#66 = UNCERTAINTY_MEASURE_WITH_UNIT (LENGTH_MEASURE( 1.000000000000000082E-05 ), #77, 'distance_accuracy_value', 'NONE');
#67 = DIRECTION ( 'NONE',  ( 0.000000000000000000, 0.000000000000000000, 1.000000000000000000 ) ) ;
#68 = DIRECTION ( 'NONE',  ( 0.000000000000000000, 0.000000000000000000, -1.000000000000000000 ) ) ;
#69 = CARTESIAN_POINT ( 'NONE',  ( 0.000000000000000000, 0.000000000000000000, 0.000000000000000000 ) ) ;
#70 = CYLINDRICAL_SURFACE ( 'NONE', #233, 0.1562499999999998057 ) ;
#71 = AXIS2_PLACEMENT_3D ( 'NONE', #361, #58, #94 ) ;
#72 = SURFACE_STYLE_FILL_AREA ( #339 ) ;
#73 = FILL_AREA_STYLE ('',( #343 ) ) ;
#74 = SURFACE_STYLE_USAGE ( .BOTH. , #344 ) ;
#75 = VERTEX_POINT ( 'NONE', #324 ) ;
#76 = CIRCLE ( 'NONE', #314, 0.1562500000000000000 ) ;
#77 =( CONVERSION_BASED_UNIT ( 'INCH', #2 ) LENGTH_UNIT ( ) NAMED_UNIT ( #173 ) );
#78 = PRESENTATION_LAYER_ASSIGNMENT (  '', '', ( #192 ) ) ;
#79 =( NAMED_UNIT ( * ) SI_UNIT ( $, .STERADIAN. ) SOLID_ANGLE_UNIT ( ) );
#80 = CYLINDRICAL_SURFACE ( 'NONE', #41, 0.1562499999999998057 ) ;
#81 = ORIENTED_EDGE ( 'NONE', *, *, #29, .T. ) ;
#82 = DIRECTION ( 'NONE',  ( 1.000000000000000000, 0.000000000000000000, 0.000000000000000000 ) ) ;
#83 = PRESENTATION_LAYER_ASSIGNMENT (  '', '', ( #256 ) ) ;
#84 = EDGE_CURVE ( 'NONE', #193, #291, #357, .T. ) ;
#85 = PRESENTATION_STYLE_ASSIGNMENT (( #33 ) ) ;
#86 = DIMENSIONAL_EXPONENTS ( 1.000000000000000000, 0.000000000000000000, 0.000000000000000000, 0.000000000000000000, 0.000000000000000000, 0.000000000000000000, 0.000000000000000000 ) ;
#87 =( NAMED_UNIT ( * ) PLANE_ANGLE_UNIT ( ) SI_UNIT ( $, .RADIAN. ) );
#88 =( LENGTH_UNIT ( ) NAMED_UNIT ( * ) SI_UNIT ( $, .METRE. ) );
#89 = CARTESIAN_POINT ( 'NONE',  ( -1.913510623667738847E-17, 0.1562499999999999722, 0.000000000000000000 ) ) ;
#90 = VERTEX_POINT ( 'NONE', #143 ) ;
#91 =( GEOMETRIC_REPRESENTATION_CONTEXT ( 3 ) GLOBAL_UNCERTAINTY_ASSIGNED_CONTEXT ( ( #115 ) ) GLOBAL_UNIT_ASSIGNED_CONTEXT ( ( #43, #153, #368 ) ) REPRESENTATION_CONTEXT ( 'NONE', 'WORKASPACE' ) );
#92 = EDGE_CURVE ( 'NONE', #291, #193, #354, .T. ) ;
#93 =( NAMED_UNIT ( * ) SI_UNIT ( $, .STERADIAN. ) SOLID_ANGLE_UNIT ( ) );
#94 = DIRECTION ( 'NONE',  ( 0.000000000000000000, 0.000000000000000000, -1.000000000000000000 ) ) ;
#95 = CARTESIAN_POINT ( 'NONE',  ( -0.1562499999999999445, 4.000000000000000000, 0.000000000000000000 ) ) ;
#96 = SURFACE_STYLE_USAGE ( .BOTH. , #304 ) ;
#97 = VECTOR ( 'NONE', #187, 39.37007874015748143 ) ;
#98 = DIRECTION ( 'NONE',  ( -1.226448644532570664E-16, 1.000000000000000000, -0.000000000000000000 ) ) ;
#99 = ADVANCED_FACE ( 'NONE', ( #207 ), #270, .T. ) ;
#100 = PRESENTATION_LAYER_ASSIGNMENT (  '', '', ( #54 ) ) ;
#101 = CIRCLE ( 'NONE', #155, 0.1562499999999998057 ) ;
#102 = CARTESIAN_POINT ( 'NONE',  ( 1.913510623667737614E-17, 1.562500000000000000, 0.1562499999999998057 ) ) ;
#103 = ORIENTED_EDGE ( 'NONE', *, *, #161, .T. ) ;
#104 = ORIENTED_EDGE ( 'NONE', *, *, #16, .F. ) ;
#105 =( CONVERSION_BASED_UNIT ( 'INCH', #259 ) LENGTH_UNIT ( ) NAMED_UNIT ( #119 ) );
#106 = ORIENTED_EDGE ( 'NONE', *, *, #9, .T. ) ;
#107 = MECHANICAL_DESIGN_GEOMETRIC_PRESENTATION_REPRESENTATION (  '', ( #256 ), #333 ) ;
#108 = LENGTH_MEASURE_WITH_UNIT ( LENGTH_MEASURE( 0.02539999999999999897 ), #88 );
#109 = ORIENTED_EDGE ( 'NONE', *, *, #185, .T. ) ;
#110 = PRESENTATION_STYLE_ASSIGNMENT (( #142 ) ) ;
#111 = CARTESIAN_POINT ( 'NONE',  ( -1.224646799147352714E-16, 4.000000000000000000, 0.000000000000000000 ) ) ;
#112 = ORIENTED_EDGE ( 'NONE', *, *, #39, .F. ) ;
#113 = PRESENTATION_LAYER_ASSIGNMENT (  '', '', ( #152 ) ) ;
#114 = EDGE_CURVE ( 'NONE', #144, #193, #211, .T. ) ;
#115 = UNCERTAINTY_MEASURE_WITH_UNIT (LENGTH_MEASURE( 1.000000000000000082E-05 ), #43, 'distance_accuracy_value', 'NONE');
#116 = SHAPE_DEFINITION_REPRESENTATION ( #215, #166 ) ;
#117 = DIRECTION ( 'NONE',  ( -1.000000000000000000, 0.000000000000000000, 0.000000000000000000 ) ) ;
#118 =( NAMED_UNIT ( * ) SI_UNIT ( $, .STERADIAN. ) SOLID_ANGLE_UNIT ( ) );
#119 = DIMENSIONAL_EXPONENTS ( 1.000000000000000000, 0.000000000000000000, 0.000000000000000000, 0.000000000000000000, 0.000000000000000000, 0.000000000000000000, 0.000000000000000000 ) ;
#120 = EDGE_CURVE ( 'NONE', #75, #345, #133, .T. ) ;
#121 = FACE_OUTER_BOUND ( 'NONE', #37, .T. ) ;
#122 = AXIS2_PLACEMENT_3D ( 'NONE', #277, #273, #219 ) ;
#123 = FACE_OUTER_BOUND ( 'NONE', #286, .T. ) ;
#124 = DIRECTION ( 'NONE',  ( 0.000000000000000000, 1.000000000000000000, 0.000000000000000000 ) ) ;
#125 = PRODUCT_CONTEXT ( 'NONE', #372, 'mechanical' ) ;
#126 = DIRECTION ( 'NONE',  ( 0.000000000000000000, 0.000000000000000000, -1.000000000000000000 ) ) ;
#127 = ADVANCED_FACE ( 'NONE', ( #178 ), #275, .T. ) ;
#128 = FACE_OUTER_BOUND ( 'NONE', #51, .T. ) ;
#129 =( GEOMETRIC_REPRESENTATION_CONTEXT ( 3 ) GLOBAL_UNCERTAINTY_ASSIGNED_CONTEXT ( ( #245 ) ) GLOBAL_UNIT_ASSIGNED_CONTEXT ( ( #205, #366, #203 ) ) REPRESENTATION_CONTEXT ( 'NONE', 'WORKASPACE' ) );
#130 =( GEOMETRIC_REPRESENTATION_CONTEXT ( 3 ) GLOBAL_UNCERTAINTY_ASSIGNED_CONTEXT ( ( #210 ) ) GLOBAL_UNIT_ASSIGNED_CONTEXT ( ( #280, #246, #79 ) ) REPRESENTATION_CONTEXT ( 'NONE', 'WORKASPACE' ) );
#131 = ORIENTED_EDGE ( 'NONE', *, *, #92, .F. ) ;
#132 = ORIENTED_EDGE ( 'NONE', *, *, #39, .T. ) ;
#133 = CIRCLE ( 'NONE', #30, 0.1562499999999999722 ) ;
#134 = SURFACE_STYLE_USAGE ( .BOTH. , #349 ) ;
#135 = FILL_AREA_STYLE_COLOUR ( '', #322 ) ;
#136 = DIRECTION ( 'NONE',  ( -1.000000000000000000, 0.000000000000000000, 0.000000000000000000 ) ) ;
#137 = FILL_AREA_STYLE ('',( #135 ) ) ;
#138 = CIRCLE ( 'NONE', #40, 0.1562500000000000000 ) ;
#139 = STYLED_ITEM ( 'NONE', ( #229 ), #201 ) ;
#140 = CARTESIAN_POINT ( 'NONE',  ( 0.1562499999999999722, 0.1562500000000000000, 0.000000000000000000 ) ) ;
#141 = FACE_OUTER_BOUND ( 'NONE', #56, .T. ) ;
#142 = SURFACE_STYLE_USAGE ( .BOTH. , #295 ) ;
#143 = CARTESIAN_POINT ( 'NONE',  ( 0.000000000000000000, 1.562500000000000000, -0.1562499999999998057 ) ) ;
#144 = VERTEX_POINT ( 'NONE', #370 ) ;
#145 = DIRECTION ( 'NONE',  ( 0.000000000000000000, 0.000000000000000000, -1.000000000000000000 ) ) ;
#146 = CLOSED_SHELL ( 'NONE', ( #338, #287, #223, #188 ) ) ;
#147 = AXIS2_PLACEMENT_3D ( 'NONE', #253, #28, #4 ) ;
#148 = SURFACE_STYLE_FILL_AREA ( #21 ) ;
#149 = EDGE_CURVE ( 'NONE', #227, #144, #55, .T. ) ;
#150 = EDGE_CURVE ( 'NONE', #196, #90, #101, .T. ) ;
#151 = APPLICATION_PROTOCOL_DEFINITION ( 'draft international standard', 'automotive_design', 1998, #372 ) ;
#152 = STYLED_ITEM ( 'NONE', ( #85 ), #59 ) ;
#153 =( NAMED_UNIT ( * ) PLANE_ANGLE_UNIT ( ) SI_UNIT ( $, .RADIAN. ) );
#154 = CIRCLE ( 'NONE', #71, 0.1562499999999998057 ) ;
#155 = AXIS2_PLACEMENT_3D ( 'NONE', #47, #278, #126 ) ;
#156 = VERTEX_POINT ( 'NONE', #52 ) ;
#157 = ORIENTED_EDGE ( 'NONE', *, *, #16, .T. ) ;
#158 = CARTESIAN_POINT ( 'NONE',  ( 0.1562499999999998057, 4.000000000000000000, 0.000000000000000000 ) ) ;
#159 = COLOUR_RGB ( '',1.000000000000000000, 0.000000000000000000, 0.000000000000000000 ) ;
#160 = FILL_AREA_STYLE_COLOUR ( '', #358 ) ;
#161 = EDGE_CURVE ( 'NONE', #196, #356, #226, .T. ) ;
#162 = ORIENTED_EDGE ( 'NONE', *, *, #293, .T. ) ;
#163 =( NAMED_UNIT ( * ) PLANE_ANGLE_UNIT ( ) SI_UNIT ( $, .RADIAN. ) );
#164 = DIMENSIONAL_EXPONENTS ( 1.000000000000000000, 0.000000000000000000, 0.000000000000000000, 0.000000000000000000, 0.000000000000000000, 0.000000000000000000, 0.000000000000000000 ) ;
#165 = FACE_OUTER_BOUND ( 'NONE', #50, .T. ) ;
#166 = ADVANCED_BREP_SHAPE_REPRESENTATION ( '82513', ( #204, #201, #12 ), #341 ) ;
#167 = DIRECTION ( 'NONE',  ( -1.226448644532570664E-16, 1.000000000000000000, -0.000000000000000000 ) ) ;
#168 = AXIS2_PLACEMENT_3D ( 'NONE', #57, #35, #175 ) ;
#169 = PRESENTATION_LAYER_ASSIGNMENT (  '', '', ( #139 ) ) ;
#170 = DIRECTION ( 'NONE',  ( -1.226448644532570664E-16, 1.000000000000000000, -0.000000000000000000 ) ) ;
#171 = DIRECTION ( 'NONE',  ( 0.000000000000000000, 0.000000000000000000, -1.000000000000000000 ) ) ;
#172 = CYLINDRICAL_SURFACE ( 'NONE', #297, 0.1562499999999998612 ) ;
#173 = DIMENSIONAL_EXPONENTS ( 1.000000000000000000, 0.000000000000000000, 0.000000000000000000, 0.000000000000000000, 0.000000000000000000, 0.000000000000000000, 0.000000000000000000 ) ;
#174 = ORIENTED_EDGE ( 'NONE', *, *, #26, .F. ) ;
#175 = DIRECTION ( 'NONE',  ( -1.000000000000000000, 0.000000000000000000, 0.000000000000000000 ) ) ;
#176 = ORIENTED_EDGE ( 'NONE', *, *, #9, .F. ) ;
#177 = DIRECTION ( 'NONE',  ( -1.000000000000000000, 0.000000000000000000, 0.000000000000000000 ) ) ;
#178 = FACE_OUTER_BOUND ( 'NONE', #189, .T. ) ;
#179 = AXIS2_PLACEMENT_3D ( 'NONE', #288, #250, #48 ) ;
#180 = UNCERTAINTY_MEASURE_WITH_UNIT (LENGTH_MEASURE( 1.000000000000000082E-05 ), #235, 'distance_accuracy_value', 'NONE');
#181 = DIRECTION ( 'NONE',  ( -0.000000000000000000, -1.000000000000000000, -0.000000000000000000 ) ) ;
#182 = DIRECTION ( 'NONE',  ( -1.226448644532570664E-16, 1.000000000000000000, -0.000000000000000000 ) ) ;
#183 = AXIS2_PLACEMENT_3D ( 'NONE', #69, #181, #363 ) ;
#184 = PRESENTATION_LAYER_ASSIGNMENT (  '', '', ( #228 ) ) ;
#185 = EDGE_CURVE ( 'NONE', #345, #63, #289, .T. ) ;
#186 = CARTESIAN_POINT ( 'NONE',  ( 0.1562499999999996669, 4.000000000000000000, 1.913510623667736998E-17 ) ) ;
#187 = DIRECTION ( 'NONE',  ( -0.000000000000000000, -1.000000000000000000, -0.000000000000000000 ) ) ;
#188 = ADVANCED_FACE ( 'NONE', ( #128 ), #53, .F. ) ;
#189 = EDGE_LOOP ( 'NONE', ( #254, #225 ) ) ;
#190 = COLOUR_RGB ( '',1.000000000000000000, 0.000000000000000000, 0.000000000000000000 ) ;
#191 =( GEOMETRIC_REPRESENTATION_CONTEXT ( 3 ) GLOBAL_UNCERTAINTY_ASSIGNED_CONTEXT ( ( #301 ) ) GLOBAL_UNIT_ASSIGNED_CONTEXT ( ( #8, #87, #327 ) ) REPRESENTATION_CONTEXT ( 'NONE', 'WORKASPACE' ) );
#192 = STYLED_ITEM ( 'NONE', ( #330 ), #279 ) ;
#193 = VERTEX_POINT ( 'NONE', #311 ) ;
#194 = EDGE_CURVE ( 'NONE', #356, #75, #303, .T. ) ;
#195 = DIRECTION ( 'NONE',  ( 1.226448644532570664E-16, -1.000000000000000000, 0.000000000000000000 ) ) ;
#196 = VERTEX_POINT ( 'NONE', #102 ) ;
#197 = CIRCLE ( 'NONE', #213, 0.1562499999999996392 ) ;
#198 = FACE_OUTER_BOUND ( 'NONE', #321, .T. ) ;
#199 = AXIS2_PLACEMENT_3D ( 'NONE', #42, #124, #244 ) ;
#200 = DIRECTION ( 'NONE',  ( 0.000000000000000000, 0.000000000000000000, 1.000000000000000000 ) ) ;
#201 = MANIFOLD_SOLID_BREP ( 'Revolve - Tool Body (Straight Shanked)', #146 ) ;
#202 =( LENGTH_UNIT ( ) NAMED_UNIT ( * ) SI_UNIT ( $, .METRE. ) );
#203 =( NAMED_UNIT ( * ) SI_UNIT ( $, .STERADIAN. ) SOLID_ANGLE_UNIT ( ) );
#204 = MANIFOLD_SOLID_BREP ( 'Revolve - Cutting Edge', #371 ) ;
#205 =( CONVERSION_BASED_UNIT ( 'INCH', #108 ) LENGTH_UNIT ( ) NAMED_UNIT ( #264 ) );
#206 = COLOUR_RGB ( '',0.7921568627450980005, 0.8196078431372548767, 0.9333333333333333481 ) ;
#207 = FACE_OUTER_BOUND ( 'NONE', #355, .T. ) ;
#208 = DIRECTION ( 'NONE',  ( 1.000000000000000000, 0.000000000000000000, 0.000000000000000000 ) ) ;
#209 = CARTESIAN_POINT ( 'NONE',  ( -1.913510623667738847E-17, 0.1562499999999999722, 0.000000000000000000 ) ) ;
#210 = UNCERTAINTY_MEASURE_WITH_UNIT (LENGTH_MEASURE( 1.000000000000000082E-05 ), #280, 'distance_accuracy_value', 'NONE');
#211 = LINE ( 'NONE', #186, #221 ) ;
#212 = DIMENSIONAL_EXPONENTS ( 1.000000000000000000, 0.000000000000000000, 0.000000000000000000, 0.000000000000000000, 0.000000000000000000, 0.000000000000000000, 0.000000000000000000 ) ;
#213 = AXIS2_PLACEMENT_3D ( 'NONE', #62, #167, #117 ) ;
#214 = MECHANICAL_DESIGN_GEOMETRIC_PRESENTATION_REPRESENTATION (  '', ( #54 ), #91 ) ;
#215 = PRODUCT_DEFINITION_SHAPE ( 'NONE', 'NONE',  #1 ) ;
#216 = SURFACE_STYLE_USAGE ( .BOTH. , #18 ) ;
#217 = DIRECTION ( 'NONE',  ( 1.000000000000000000, 0.000000000000000000, 0.000000000000000000 ) ) ;
#218 = CARTESIAN_POINT ( 'NONE',  ( 1.764821771900788234E-16, 1.562500000000000000, 0.000000000000000000 ) ) ;
#219 = DIRECTION ( 'NONE',  ( -1.000000000000000000, -1.226448644532570664E-16, 0.000000000000000000 ) ) ;
#220 =( CONVERSION_BASED_UNIT ( 'INCH', #14 ) LENGTH_UNIT ( ) NAMED_UNIT ( #212 ) );
#221 = VECTOR ( 'NONE', #307, 39.37007874015748143 ) ;
#222 = CARTESIAN_POINT ( 'NONE',  ( -1.224646799147352714E-16, 4.000000000000000000, 0.000000000000000000 ) ) ;
#223 = ADVANCED_FACE ( 'NONE', ( #141 ), #80, .T. ) ;
#224 = SURFACE_STYLE_FILL_AREA ( #73 ) ;
#225 = ORIENTED_EDGE ( 'NONE', *, *, #150, .F. ) ;
#226 = LINE ( 'NONE', #23, #97 ) ;
#227 = VERTEX_POINT ( 'NONE', #329 ) ;
#228 = STYLED_ITEM ( 'NONE', ( #110 ), #261 ) ;
#229 = PRESENTATION_STYLE_ASSIGNMENT (( #134 ) ) ;
#230 = ORIENTED_EDGE ( 'NONE', *, *, #150, .T. ) ;
#231 = SURFACE_STYLE_FILL_AREA ( #320 ) ;
#232 = CARTESIAN_POINT ( 'NONE',  ( 0.000000000000000000, 0.000000000000000000, -0.1562499999999998612 ) ) ;
#233 = AXIS2_PLACEMENT_3D ( 'NONE', #13, #98, #177 ) ;
#234 = DIRECTION ( 'NONE',  ( -0.000000000000000000, -1.000000000000000000, -0.000000000000000000 ) ) ;
#235 =( CONVERSION_BASED_UNIT ( 'INCH', #271 ) LENGTH_UNIT ( ) NAMED_UNIT ( #164 ) );
#236 =( NAMED_UNIT ( * ) SI_UNIT ( $, .STERADIAN. ) SOLID_ANGLE_UNIT ( ) );
#237 = ORIENTED_EDGE ( 'NONE', *, *, #26, .T. ) ;
#238 = UNCERTAINTY_MEASURE_WITH_UNIT (LENGTH_MEASURE( 1.000000000000000082E-05 ), #105, 'distance_accuracy_value', 'NONE');
#239 = DIRECTION ( 'NONE',  ( -0.000000000000000000, -1.000000000000000000, -0.000000000000000000 ) ) ;
#240 = PRESENTATION_STYLE_ASSIGNMENT (( #216 ) ) ;
#241 = DIMENSIONAL_EXPONENTS ( 1.000000000000000000, 0.000000000000000000, 0.000000000000000000, 0.000000000000000000, 0.000000000000000000, 0.000000000000000000, 0.000000000000000000 ) ;
#242 = CARTESIAN_POINT ( 'NONE',  ( -0.1562500000000000833, 4.000000000000000000, 0.000000000000000000 ) ) ;
#243 = PRESENTATION_STYLE_ASSIGNMENT (( #96 ) ) ;
#244 = DIRECTION ( 'NONE',  ( 0.000000000000000000, -0.000000000000000000, 1.000000000000000000 ) ) ;
#245 = UNCERTAINTY_MEASURE_WITH_UNIT (LENGTH_MEASURE( 1.000000000000000082E-05 ), #205, 'distance_accuracy_value', 'NONE');
#246 =( NAMED_UNIT ( * ) PLANE_ANGLE_UNIT ( ) SI_UNIT ( $, .RADIAN. ) );
#247 = AXIS2_PLACEMENT_3D ( 'NONE', #352, #200, #82 ) ;
#248 = AXIS2_PLACEMENT_3D ( 'NONE', #218, #182, #308 ) ;
#249 = EDGE_CURVE ( 'NONE', #90, #345, #266, .T. ) ;
#250 = DIRECTION ( 'NONE',  ( -0.000000000000000000, -1.000000000000000000, -0.000000000000000000 ) ) ;
#251 = APPLICATION_CONTEXT ( 'automotive_design' ) ;
#252 = ORIENTED_EDGE ( 'NONE', *, *, #114, .F. ) ;
#253 = CARTESIAN_POINT ( 'NONE',  ( 0.000000000000000000, 0.1562500000000000000, 0.000000000000000000 ) ) ;
#254 = ORIENTED_EDGE ( 'NONE', *, *, #29, .F. ) ;
#255 = PRESENTATION_LAYER_ASSIGNMENT (  '', '', ( #262 ) ) ;
#256 = STYLED_ITEM ( 'NONE', ( #283 ), #204 ) ;
#257 = LENGTH_MEASURE_WITH_UNIT ( LENGTH_MEASURE( 0.02539999999999999897 ), #22 );
#258 = ORIENTED_EDGE ( 'NONE', *, *, #249, .T. ) ;
#259 = LENGTH_MEASURE_WITH_UNIT ( LENGTH_MEASURE( 0.02539999999999999897 ), #31 );
#260 = SURFACE_STYLE_USAGE ( .BOTH. , #323 ) ;
#261 = ADVANCED_FACE ( 'NONE', ( #10 ), #290, .T. ) ;
#262 = STYLED_ITEM ( 'NONE', ( #243 ), #99 ) ;
#263 = SURFACE_STYLE_FILL_AREA ( #268 ) ;
#264 = DIMENSIONAL_EXPONENTS ( 1.000000000000000000, 0.000000000000000000, 0.000000000000000000, 0.000000000000000000, 0.000000000000000000, 0.000000000000000000, 0.000000000000000000 ) ;
#265 = ORIENTED_EDGE ( 'NONE', *, *, #293, .F. ) ;
#266 = LINE ( 'NONE', #232, #276 ) ;
#267 = SPHERICAL_SURFACE ( 'NONE', #247, 0.1562500000000000000 ) ;
#268 = FILL_AREA_STYLE ('',( #298 ) ) ;
#269 = SURFACE_STYLE_FILL_AREA ( #137 ) ;
#270 = CYLINDRICAL_SURFACE ( 'NONE', #183, 0.1562499999999998612 ) ;
#271 = LENGTH_MEASURE_WITH_UNIT ( LENGTH_MEASURE( 0.02539999999999999897 ), #44 );
#272 =( LENGTH_UNIT ( ) NAMED_UNIT ( * ) SI_UNIT ( $, .METRE. ) );
#273 = DIRECTION ( 'NONE',  ( -1.226448644532570664E-16, 1.000000000000000000, 0.000000000000000000 ) ) ;
#274 = APPLICATION_PROTOCOL_DEFINITION ( 'draft international standard', 'automotive_design', 1998, #251 ) ;
#275 = PLANE ( 'NONE',  #199 ) ;
#276 = VECTOR ( 'NONE', #34, 39.37007874015748143 ) ;
#277 = CARTESIAN_POINT ( 'NONE',  ( 1.764821771900788234E-16, 1.562500000000000000, 0.000000000000000000 ) ) ;
#278 = DIRECTION ( 'NONE',  ( -0.000000000000000000, -1.000000000000000000, -0.000000000000000000 ) ) ;
#279 = ADVANCED_FACE ( 'NONE', ( #198 ), #172, .T. ) ;
#280 =( CONVERSION_BASED_UNIT ( 'INCH', #257 ) LENGTH_UNIT ( ) NAMED_UNIT ( #86 ) );
#281 = MECHANICAL_DESIGN_GEOMETRIC_PRESENTATION_REPRESENTATION (  '', ( #262 ), #19 ) ;
#282 =( GEOMETRIC_REPRESENTATION_CONTEXT ( 3 ) GLOBAL_UNCERTAINTY_ASSIGNED_CONTEXT ( ( #238 ) ) GLOBAL_UNIT_ASSIGNED_CONTEXT ( ( #105, #163, #93 ) ) REPRESENTATION_CONTEXT ( 'NONE', 'WORKASPACE' ) );
#283 = PRESENTATION_STYLE_ASSIGNMENT (( #74 ) ) ;
#284 = ORIENTED_EDGE ( 'NONE', *, *, #114, .T. ) ;
#285 =( NAMED_UNIT ( * ) PLANE_ANGLE_UNIT ( ) SI_UNIT ( $, .RADIAN. ) );
#286 = EDGE_LOOP ( 'NONE', ( #326, #104 ) ) ;
#287 = ADVANCED_FACE ( 'NONE', ( #123 ), #365, .F. ) ;
#288 = CARTESIAN_POINT ( 'NONE',  ( 0.000000000000000000, 0.1562500000000000000, 0.000000000000000000 ) ) ;
#289 = CIRCLE ( 'NONE', #179, 0.1562499999999999722 ) ;
#290 = SPHERICAL_SURFACE ( 'NONE', #315, 0.1562500000000000000 ) ;
#291 = VERTEX_POINT ( 'NONE', #242 ) ;
#292 = DIRECTION ( 'NONE',  ( 0.000000000000000000, 0.000000000000000000, 1.000000000000000000 ) ) ;
#293 = EDGE_CURVE ( 'NONE', #227, #291, #362, .T. ) ;
#294 = SURFACE_SIDE_STYLE ('',( #263 ) ) ;
#295 = SURFACE_SIDE_STYLE ('',( #7 ) ) ;
#296 = CARTESIAN_POINT ( 'NONE',  ( 0.000000000000000000, 0.1562500000000000000, 0.000000000000000000 ) ) ;
#297 = AXIS2_PLACEMENT_3D ( 'NONE', #332, #239, #145 ) ;
#298 = FILL_AREA_STYLE_COLOUR ( '', #190 ) ;
#299 = DIRECTION ( 'NONE',  ( -1.226448644532570664E-16, 1.000000000000000000, -0.000000000000000000 ) ) ;
#300 = DIRECTION ( 'NONE',  ( 0.000000000000000000, 0.000000000000000000, -1.000000000000000000 ) ) ;
#301 = UNCERTAINTY_MEASURE_WITH_UNIT (LENGTH_MEASURE( 1.000000000000000082E-05 ), #8, 'distance_accuracy_value', 'NONE');
#302 = DIMENSIONAL_EXPONENTS ( 1.000000000000000000, 0.000000000000000000, 0.000000000000000000, 0.000000000000000000, 0.000000000000000000, 0.000000000000000000, 0.000000000000000000 ) ;
#303 = CIRCLE ( 'NONE', #147, 0.1562499999999999722 ) ;
#304 = SURFACE_SIDE_STYLE ('',( #72 ) ) ;
#305 = FILL_AREA_STYLE_COLOUR ( '', #159 ) ;
#306 = PRODUCT_RELATED_PRODUCT_CATEGORY ( 'part', '', ( #17 ) ) ;
#307 = DIRECTION ( 'NONE',  ( -1.226448644532570664E-16, 1.000000000000000000, -0.000000000000000000 ) ) ;
#308 = DIRECTION ( 'NONE',  ( -1.000000000000000000, 0.000000000000000000, 0.000000000000000000 ) ) ;
#309 = COLOUR_RGB ( '',1.000000000000000000, 0.000000000000000000, 0.000000000000000000 ) ;
#310 = AXIS2_PLACEMENT_3D ( 'NONE', #158, #195, #317 ) ;
#311 = CARTESIAN_POINT ( 'NONE',  ( 0.1562499999999998057, 4.000000000000000000, 1.913510623667737923E-17 ) ) ;
#312 =( LENGTH_UNIT ( ) NAMED_UNIT ( * ) SI_UNIT ( $, .METRE. ) );
#313 = AXIS2_PLACEMENT_3D ( 'NONE', #296, #234, #171 ) ;
#314 = AXIS2_PLACEMENT_3D ( 'NONE', #11, #300, #364 ) ;
#315 = AXIS2_PLACEMENT_3D ( 'NONE', #89, #292, #208 ) ;
#316 = ORIENTED_EDGE ( 'NONE', *, *, #120, .T. ) ;
#317 = DIRECTION ( 'NONE',  ( 1.000000000000000000, 1.226448644532570664E-16, 0.000000000000000000 ) ) ;
#318 = ORIENTED_EDGE ( 'NONE', *, *, #84, .T. ) ;
#319 = FILL_AREA_STYLE_COLOUR ( '', #367 ) ;
#320 = FILL_AREA_STYLE ('',( #319 ) ) ;
#321 = EDGE_LOOP ( 'NONE', ( #81, #103, #174, #27, #5 ) ) ;
#322 = COLOUR_RGB ( '',1.000000000000000000, 0.000000000000000000, 0.000000000000000000 ) ;
#323 = SURFACE_SIDE_STYLE ('',( #269 ) ) ;
#324 = CARTESIAN_POINT ( 'NONE',  ( -0.1562500000000000000, 0.1562500000000000000, 1.913510623667738847E-17 ) ) ;
#325 = LENGTH_MEASURE_WITH_UNIT ( LENGTH_MEASURE( 0.02539999999999999897 ), #202 );
#326 = ORIENTED_EDGE ( 'NONE', *, *, #149, .F. ) ;
#327 =( NAMED_UNIT ( * ) SI_UNIT ( $, .STERADIAN. ) SOLID_ANGLE_UNIT ( ) );
#328 = DIRECTION ( 'NONE',  ( 1.000000000000000000, 0.000000000000000000, -1.224646799147353207E-16 ) ) ;
#329 = CARTESIAN_POINT ( 'NONE',  ( -0.1562499999999994726, 1.562500000000000000, 0.000000000000000000 ) ) ;
#330 = PRESENTATION_STYLE_ASSIGNMENT (( #260 ) ) ;
#331 = DIRECTION ( 'NONE',  ( -0.000000000000000000, -1.000000000000000000, -0.000000000000000000 ) ) ;
#332 = CARTESIAN_POINT ( 'NONE',  ( 0.000000000000000000, 0.000000000000000000, 0.000000000000000000 ) ) ;
#333 =( GEOMETRIC_REPRESENTATION_CONTEXT ( 3 ) GLOBAL_UNCERTAINTY_ASSIGNED_CONTEXT ( ( #66 ) ) GLOBAL_UNIT_ASSIGNED_CONTEXT ( ( #77, #285, #351 ) ) REPRESENTATION_CONTEXT ( 'NONE', 'WORKASPACE' ) );
#334 =( NAMED_UNIT ( * ) PLANE_ANGLE_UNIT ( ) SI_UNIT ( $, .RADIAN. ) );
#335 = DIRECTION ( 'NONE',  ( -1.226448644532570664E-16, 1.000000000000000000, -0.000000000000000000 ) ) ;
#336 = CARTESIAN_POINT ( 'NONE',  ( 0.000000000000000000, 0.1562500000000000000, 0.000000000000000000 ) ) ;
#337 =( LENGTH_UNIT ( ) NAMED_UNIT ( * ) SI_UNIT ( $, .METRE. ) );
#338 = ADVANCED_FACE ( 'NONE', ( #121 ), #70, .T. ) ;
#339 = FILL_AREA_STYLE ('',( #360 ) ) ;
#340 = MECHANICAL_DESIGN_GEOMETRIC_PRESENTATION_REPRESENTATION (  '', ( #152 ), #129 ) ;
#341 =( GEOMETRIC_REPRESENTATION_CONTEXT ( 3 ) GLOBAL_UNCERTAINTY_ASSIGNED_CONTEXT ( ( #180 ) ) GLOBAL_UNIT_ASSIGNED_CONTEXT ( ( #235, #64, #118 ) ) REPRESENTATION_CONTEXT ( 'NONE', 'WORKASPACE' ) );
#342 = UNCERTAINTY_MEASURE_WITH_UNIT (LENGTH_MEASURE( 1.000000000000000082E-05 ), #220, 'distance_accuracy_value', 'NONE');
#343 = FILL_AREA_STYLE_COLOUR ( '', #206 ) ;
#344 = SURFACE_SIDE_STYLE ('',( #224 ) ) ;
#345 = VERTEX_POINT ( 'NONE', #38 ) ;
#346 = CIRCLE ( 'NONE', #313, 0.1562499999999999722 ) ;
#347 = VECTOR ( 'NONE', #335, 39.37007874015748143 ) ;
#348 = EDGE_LOOP ( 'NONE', ( #3, #132, #176, #237 ) ) ;
#349 = SURFACE_SIDE_STYLE ('',( #231 ) ) ;
#350 = ORIENTED_EDGE ( 'NONE', *, *, #161, .F. ) ;
#351 =( NAMED_UNIT ( * ) SI_UNIT ( $, .STERADIAN. ) SOLID_ANGLE_UNIT ( ) );
#352 = CARTESIAN_POINT ( 'NONE',  ( -1.913510623667738847E-17, 0.1562499999999999722, 0.000000000000000000 ) ) ;
#353 = ORIENTED_EDGE ( 'NONE', *, *, #120, .F. ) ;
#354 = CIRCLE ( 'NONE', #49, 0.1562499999999999445 ) ;
#355 = EDGE_LOOP ( 'NONE', ( #350, #230, #258, #353, #36 ) ) ;
#356 = VERTEX_POINT ( 'NONE', #20 ) ;
#357 = CIRCLE ( 'NONE', #168, 0.1562499999999999445 ) ;
#358 = COLOUR_RGB ( '',1.000000000000000000, 0.000000000000000000, 0.000000000000000000 ) ;
#359 = DIRECTION ( 'NONE',  ( -1.000000000000000000, 0.000000000000000000, 0.000000000000000000 ) ) ;
#360 = FILL_AREA_STYLE_COLOUR ( '', #309 ) ;
#361 = CARTESIAN_POINT ( 'NONE',  ( 0.000000000000000000, 1.562500000000000000, 0.000000000000000000 ) ) ;
#362 = LINE ( 'NONE', #95, #347 ) ;
#363 = DIRECTION ( 'NONE',  ( 0.000000000000000000, 0.000000000000000000, -1.000000000000000000 ) ) ;
#364 = DIRECTION ( 'NONE',  ( -1.000000000000000000, 0.000000000000000000, 0.000000000000000000 ) ) ;
#365 = PLANE ( 'NONE',  #122 ) ;
#366 =( NAMED_UNIT ( * ) PLANE_ANGLE_UNIT ( ) SI_UNIT ( $, .RADIAN. ) );
#367 = COLOUR_RGB ( '',0.7921568627450980005, 0.8196078431372548767, 0.9333333333333333481 ) ;
#368 =( NAMED_UNIT ( * ) SI_UNIT ( $, .STERADIAN. ) SOLID_ANGLE_UNIT ( ) );
#369 = PRODUCT_DEFINITION_FORMATION_WITH_SPECIFIED_SOURCE ( 'ANY', '', #17, .NOT_KNOWN. ) ;
#370 = CARTESIAN_POINT ( 'NONE',  ( 0.1562499999999998057, 1.562500000000000000, 1.913510623667737923E-17 ) ) ;
#371 = CLOSED_SHELL ( 'NONE', ( #261, #279, #127, #99, #59 ) ) ;
#372 = APPLICATION_CONTEXT ( 'automotive_design' ) ;
#373 = MECHANICAL_DESIGN_GEOMETRIC_PRESENTATION_REPRESENTATION (  '', ( #139 ), #130 ) ;
ENDSEC;
END-ISO-10303-21;
