ISO-10303-21;
HEADER;
FILE_DESCRIPTION (( 'STEP AP214' ),
    '1' );
FILE_NAME ('Micro_BMS-025-2X.STEP',
    '2021-09-03T15:02:46',
    ( '' ),
    ( '' ),
    'SwSTEP 2.0',
    'SolidWorks 2020',
    '' );
FILE_SCHEMA (( 'AUTOMOTIVE_DESIGN' ));
ENDSEC;

DATA;
#1 = CARTESIAN_POINT ( 'NONE',  ( 2.293916535652886598E-18, 0.0000000000000000000, 0.0000000000000000000 ) ) ;
#2 = AXIS2_PLACEMENT_3D ( 'NONE', #158, #248, #280 ) ;
#3 = CIRCLE ( 'NONE', #212, 0.01248749999999999860 ) ;
#4 = CARTESIAN_POINT ( 'NONE',  ( 1.529277690435257668E-18, 0.0000000000000000000, 0.01248750000000000034 ) ) ;
#5 = EDGE_CURVE ( 'NONE', #298, #167, #6, .T. ) ;
#6 = LINE ( 'NONE', #53, #219 ) ;
#7 = DIRECTION ( 'NONE',  ( 0.0000000000000000000, 0.0000000000000000000, -1.000000000000000000 ) ) ;
#8 = EDGE_CURVE ( 'NONE', #105, #180, #78, .T. ) ;
#9 = DIRECTION ( 'NONE',  ( -0.0000000000000000000, -0.0000000000000000000, -1.000000000000000000 ) ) ;
#10 = DIRECTION ( 'NONE',  ( 0.0000000000000000000, 1.000000000000000000, 0.0000000000000000000 ) ) ;
#11 = ORIENTED_EDGE ( 'NONE', *, *, #181, .T. ) ;
#12 = LINE ( 'NONE', #284, #265 ) ;
#13 = VERTEX_POINT ( 'NONE', #133 ) ;
#14 = CIRCLE ( 'NONE', #311, 0.06250000000000000000 ) ;
#15 = ADVANCED_FACE ( 'NONE', ( #203 ), #20, .T. ) ;
#16 = ORIENTED_EDGE ( 'NONE', *, *, #155, .T. ) ;
#17 = DIRECTION ( 'NONE',  ( 1.000000000000000000, 0.0000000000000000000, -0.0000000000000000000 ) ) ;
#18 = ORIENTED_EDGE ( 'NONE', *, *, #155, .F. ) ;
#19 = ORIENTED_EDGE ( 'NONE', *, *, #176, .F. ) ;
#20 = CONICAL_SURFACE ( 'NONE', #202, 0.01248749999999999860, 0.1745329251994339192 ) ;
#21 = AXIS2_PLACEMENT_3D ( 'NONE', #216, #267, #295 ) ;
#22 = DIRECTION ( 'NONE',  ( 1.224646799147353454E-16, 0.0000000000000000000, 1.000000000000000000 ) ) ;
#23 =( LENGTH_UNIT ( ) NAMED_UNIT ( * ) SI_UNIT ( $, .METRE. ) );
#24 = DIRECTION ( 'NONE',  ( -1.000000000000000000, 0.0000000000000000000, 0.0000000000000000000 ) ) ;
#25 = CARTESIAN_POINT ( 'NONE',  ( 3.926646044054136091E-17, 0.0000000000000000000, 0.3206349820036290543 ) ) ;
#26 = SURFACE_SIDE_STYLE ('',( #80 ) ) ;
#27 = APPLICATION_PROTOCOL_DEFINITION ( 'draft international standard', 'automotive_design', 1998, #296 ) ;
#28 = CARTESIAN_POINT ( 'NONE',  ( 0.0000000000000000000, 0.0000000000000000000, 1.500000000000000222 ) ) ;
#29 = AXIS2_PLACEMENT_3D ( 'NONE', #30, #303, #227 ) ;
#30 = CARTESIAN_POINT ( 'NONE',  ( 0.0000000000000000000, 0.0000000000000000000, 1.500000000000000222 ) ) ;
#31 = CARTESIAN_POINT ( 'NONE',  ( -0.06249999999999995837, 0.0000000000000000000, 0.3206349820036290543 ) ) ;
#32 = EDGE_CURVE ( 'NONE', #309, #139, #305, .T. ) ;
#33 = PRODUCT ( 'Micro_BMS-025-2X', 'Micro_BMS-025-2X', '', ( #77 ) ) ;
#34 = LINE ( 'NONE', #140, #152 ) ;
#35 = DIRECTION ( 'NONE',  ( 0.0000000000000000000, 0.0000000000000000000, -1.000000000000000000 ) ) ;
#36 = FACE_OUTER_BOUND ( 'NONE', #236, .T. ) ;
#37 = ORIENTED_EDGE ( 'NONE', *, *, #117, .F. ) ;
#38 = ADVANCED_FACE ( 'NONE', ( #82 ), #45, .T. ) ;
#39 = DIRECTION ( 'NONE',  ( 0.1736481776669314137, 0.0000000000000000000, 0.9848077530122077983 ) ) ;
#40 = ORIENTED_EDGE ( 'NONE', *, *, #62, .T. ) ;
#41 = AXIS2_PLACEMENT_3D ( 'NONE', #231, #44, #76 ) ;
#42 = DIRECTION ( 'NONE',  ( 1.224646799147353454E-16, 0.0000000000000000000, 1.000000000000000000 ) ) ;
#43 = ORIENTED_EDGE ( 'NONE', *, *, #261, .F. ) ;
#44 = DIRECTION ( 'NONE',  ( -0.0000000000000000000, -0.0000000000000000000, -1.000000000000000000 ) ) ;
#45 = CONICAL_SURFACE ( 'NONE', #46, 0.04750000000000064587, 0.7853981633974457255 ) ;
#46 = AXIS2_PLACEMENT_3D ( 'NONE', #84, #49, #184 ) ;
#47 = SPHERICAL_SURFACE ( 'NONE', #21, 0.01248750000000000034 ) ;
#48 = COLOUR_RGB ( '',0.7921568627450980005, 0.8196078431372548767, 0.9333333333333333481 ) ;
#49 = DIRECTION ( 'NONE',  ( 0.0000000000000000000, 0.0000000000000000000, -1.000000000000000000 ) ) ;
#50 = EDGE_LOOP ( 'NONE', ( #145, #115, #195, #277 ) ) ;
#51 = ADVANCED_FACE ( 'NONE', ( #226 ), #160, .T. ) ;
#52 = ORIENTED_EDGE ( 'NONE', *, *, #8, .T. ) ;
#53 = CARTESIAN_POINT ( 'NONE',  ( 0.01248750000000000034, 1.529277690435257475E-18, -1.529277690435257668E-18 ) ) ;
#54 = CONICAL_SURFACE ( 'NONE', #240, 0.04750000000000064587, 0.7853981633974457255 ) ;
#55 = DIRECTION ( 'NONE',  ( 1.000000000000000000, 0.0000000000000000000, 0.0000000000000000000 ) ) ;
#56 = DIRECTION ( 'NONE',  ( 0.7071067811865456854, 8.659560562354911904E-17, -0.7071067811865493491 ) ) ;
#57 = DIRECTION ( 'NONE',  ( -1.000000000000000000, 0.0000000000000000000, 0.0000000000000000000 ) ) ;
#58 = AXIS2_PLACEMENT_3D ( 'NONE', #25, #156, #254 ) ;
#59 = AXIS2_PLACEMENT_3D ( 'NONE', #314, #10, #313 ) ;
#60 = CARTESIAN_POINT ( 'NONE',  ( 4.531193156845207618E-18, 0.0000000000000000000, 0.03699999999999999817 ) ) ;
#61 = EDGE_LOOP ( 'NONE', ( #52, #120 ) ) ;
#62 = EDGE_CURVE ( 'NONE', #298, #13, #79, .T. ) ;
#63 = DIRECTION ( 'NONE',  ( -0.1736481776669312194, 2.126576849575783625E-17, 0.9848077530122080203 ) ) ;
#64 = EDGE_LOOP ( 'NONE', ( #307, #241, #141, #292 ) ) ;
#65 =( LENGTH_UNIT ( ) NAMED_UNIT ( * ) SI_UNIT ( $, .METRE. ) );
#66 = ORIENTED_EDGE ( 'NONE', *, *, #74, .F. ) ;
#67 = CARTESIAN_POINT ( 'NONE',  ( -0.06250000000000000000, 0.0000000000000000000, 1.500000000000000222 ) ) ;
#68 = ADVANCED_FACE ( 'NONE', ( #101 ), #150, .T. ) ;
#69 = CARTESIAN_POINT ( 'NONE',  ( 0.0000000000000000000, 0.0000000000000000000, 0.0000000000000000000 ) ) ;
#70 = VERTEX_POINT ( 'NONE', #1 ) ;
#71 = FACE_OUTER_BOUND ( 'NONE', #221, .T. ) ;
#72 = CIRCLE ( 'NONE', #186, 0.01248750000000000034 ) ;
#73 = LENGTH_MEASURE_WITH_UNIT ( LENGTH_MEASURE( 0.02539999999999999897 ), #23 );
#74 = EDGE_CURVE ( 'NONE', #180, #105, #151, .T. ) ;
#75 = LENGTH_MEASURE_WITH_UNIT ( LENGTH_MEASURE( 0.02539999999999999897 ), #65 );
#76 = DIRECTION ( 'NONE',  ( -1.000000000000000000, 0.0000000000000000000, 0.0000000000000000000 ) ) ;
#77 = PRODUCT_CONTEXT ( 'NONE', #232, 'mechanical' ) ;
#78 = CIRCLE ( 'NONE', #2, 0.04750000000000064587 ) ;
#79 = CIRCLE ( 'NONE', #109, 0.01248749999999999860 ) ;
#80 = SURFACE_STYLE_FILL_AREA ( #106 ) ;
#81 = SHAPE_DEFINITION_REPRESENTATION ( #165, #193 ) ;
#82 = FACE_OUTER_BOUND ( 'NONE', #205, .T. ) ;
#83 = ORIENTED_EDGE ( 'NONE', *, *, #111, .F. ) ;
#84 = CARTESIAN_POINT ( 'NONE',  ( 0.0000000000000000000, 0.0000000000000000000, 1.500000000000000222 ) ) ;
#85 = AXIS2_PLACEMENT_3D ( 'NONE', #4, #200, #253 ) ;
#86 = CARTESIAN_POINT ( 'NONE',  ( -0.01248749999999999860, 0.0000000000000000000, 0.01248750000000000207 ) ) ;
#87 = CARTESIAN_POINT ( 'NONE',  ( 4.531193156845207618E-18, 0.0000000000000000000, 0.03699999999999999817 ) ) ;
#88 = CYLINDRICAL_SURFACE ( 'NONE', #288, 0.01248750000000000034 ) ;
#89 = ORIENTED_EDGE ( 'NONE', *, *, #261, .T. ) ;
#90 =( NAMED_UNIT ( * ) PLANE_ANGLE_UNIT ( ) SI_UNIT ( $, .RADIAN. ) );
#91 = ORIENTED_EDGE ( 'NONE', *, *, #124, .T. ) ;
#92 = CARTESIAN_POINT ( 'NONE',  ( 0.04750000000000064587, 5.817072295950006528E-18, 1.500000000000000222 ) ) ;
#93 = VERTEX_POINT ( 'NONE', #132 ) ;
#94 = EDGE_CURVE ( 'NONE', #166, #167, #130, .T. ) ;
#95 = DIRECTION ( 'NONE',  ( -1.224646799147353454E-16, -0.0000000000000000000, -1.000000000000000000 ) ) ;
#96 =( CONVERSION_BASED_UNIT ( 'INCH', #73 ) LENGTH_UNIT ( ) NAMED_UNIT ( #273 ) );
#97 = ORIENTED_EDGE ( 'NONE', *, *, #300, .F. ) ;
#98 = DIRECTION ( 'NONE',  ( -0.0000000000000000000, -0.0000000000000000000, -1.000000000000000000 ) ) ;
#99 = AXIS2_PLACEMENT_3D ( 'NONE', #169, #299, #17 ) ;
#100 =( GEOMETRIC_REPRESENTATION_CONTEXT ( 3 ) GLOBAL_UNCERTAINTY_ASSIGNED_CONTEXT ( ( #201 ) ) GLOBAL_UNIT_ASSIGNED_CONTEXT ( ( #129, #278, #128 ) ) REPRESENTATION_CONTEXT ( 'NONE', 'WORKASPACE' ) );
#101 = FACE_OUTER_BOUND ( 'NONE', #50, .T. ) ;
#102 = MANIFOLD_SOLID_BREP ( 'Fillet1', #281 ) ;
#103 = DIRECTION ( 'NONE',  ( 1.000000000000000000, 0.0000000000000000000, 0.0000000000000000000 ) ) ;
#104 = STYLED_ITEM ( 'NONE', ( #256 ), #102 ) ;
#105 = VERTEX_POINT ( 'NONE', #116 ) ;
#106 = FILL_AREA_STYLE ('',( #304 ) ) ;
#107 = ORIENTED_EDGE ( 'NONE', *, *, #94, .F. ) ;
#108 = DIRECTION ( 'NONE',  ( -1.000000000000000000, 0.0000000000000000000, 1.709114110150314860E-16 ) ) ;
#109 = AXIS2_PLACEMENT_3D ( 'NONE', #199, #274, #252 ) ;
#110 = CARTESIAN_POINT ( 'NONE',  ( 0.06250000000000000000, 7.654042494670956004E-18, 1.500000000000000222 ) ) ;
#111 = EDGE_CURVE ( 'NONE', #298, #309, #182, .T. ) ;
#112 = CARTESIAN_POINT ( 'NONE',  ( 0.0000000000000000000, 0.0000000000000000000, 1.485000000000000764 ) ) ;
#113 = EDGE_LOOP ( 'NONE', ( #97, #16, #107 ) ) ;
#114 =( GEOMETRIC_REPRESENTATION_CONTEXT ( 3 ) GLOBAL_UNCERTAINTY_ASSIGNED_CONTEXT ( ( #135 ) ) GLOBAL_UNIT_ASSIGNED_CONTEXT ( ( #260, #90, #185 ) ) REPRESENTATION_CONTEXT ( 'NONE', 'WORKASPACE' ) );
#115 = ORIENTED_EDGE ( 'NONE', *, *, #153, .T. ) ;
#116 = CARTESIAN_POINT ( 'NONE',  ( -0.04750000000000064587, 0.0000000000000000000, 1.500000000000000222 ) ) ;
#117 = EDGE_CURVE ( 'NONE', #13, #298, #3, .T. ) ;
#118 = ORIENTED_EDGE ( 'NONE', *, *, #320, .F. ) ;
#119 =( NAMED_UNIT ( * ) SI_UNIT ( $, .STERADIAN. ) SOLID_ANGLE_UNIT ( ) );
#120 = ORIENTED_EDGE ( 'NONE', *, *, #74, .T. ) ;
#121 = VECTOR ( 'NONE', #209, 39.37007874015748143 ) ;
#122 = FACE_OUTER_BOUND ( 'NONE', #61, .T. ) ;
#123 = DIRECTION ( 'NONE',  ( 1.000000000000000000, 0.0000000000000000000, 0.0000000000000000000 ) ) ;
#124 = EDGE_CURVE ( 'NONE', #93, #309, #312, .T. ) ;
#125 = CONICAL_SURFACE ( 'NONE', #197, 0.01248749999999999860, 0.1745329251994339192 ) ;
#126 = EDGE_CURVE ( 'NONE', #13, #139, #34, .T. ) ;
#127 = CARTESIAN_POINT ( 'NONE',  ( 4.531193156845207618E-18, 0.0000000000000000000, 0.03699999999999999817 ) ) ;
#128 =( NAMED_UNIT ( * ) SI_UNIT ( $, .STERADIAN. ) SOLID_ANGLE_UNIT ( ) );
#129 =( CONVERSION_BASED_UNIT ( 'INCH', #75 ) LENGTH_UNIT ( ) NAMED_UNIT ( #306 ) );
#130 = CIRCLE ( 'NONE', #85, 0.01248750000000000034 ) ;
#131 = AXIS2_PLACEMENT_3D ( 'NONE', #324, #175, #272 ) ;
#132 = CARTESIAN_POINT ( 'NONE',  ( 0.06250000000000000000, 7.654042494670956004E-18, 1.485000000000000764 ) ) ;
#133 = CARTESIAN_POINT ( 'NONE',  ( -0.01248749999999999340, 4.591660092553106740E-18, 0.03699999999999999817 ) ) ;
#134 = DIRECTION ( 'NONE',  ( 1.224646799147353454E-16, 0.0000000000000000000, 1.000000000000000000 ) ) ;
#135 = UNCERTAINTY_MEASURE_WITH_UNIT (LENGTH_MEASURE( 1.000000000000000082E-05 ), #260, 'distance_accuracy_value', 'NONE');
#136 = DIRECTION ( 'NONE',  ( -1.224646799147353454E-16, -0.0000000000000000000, -1.000000000000000000 ) ) ;
#137 = PRESENTATION_LAYER_ASSIGNMENT (  '', '', ( #276 ) ) ;
#138 = DIMENSIONAL_EXPONENTS ( 1.000000000000000000, 0.0000000000000000000, 0.0000000000000000000, 0.0000000000000000000, 0.0000000000000000000, 0.0000000000000000000, 0.0000000000000000000 ) ;
#139 = VERTEX_POINT ( 'NONE', #31 ) ;
#140 = CARTESIAN_POINT ( 'NONE',  ( -0.01248749999999999340, 1.529277690435257282E-18, 0.03699999999999999817 ) ) ;
#141 = ORIENTED_EDGE ( 'NONE', *, *, #198, .T. ) ;
#142 = DIRECTION ( 'NONE',  ( 0.0000000000000000000, 0.0000000000000000000, -1.000000000000000000 ) ) ;
#143 = ADVANCED_FACE ( 'NONE', ( #291 ), #162, .T. ) ;
#144 = AXIS2_PLACEMENT_3D ( 'NONE', #69, #174, #154 ) ;
#145 = ORIENTED_EDGE ( 'NONE', *, *, #124, .F. ) ;
#146 = CARTESIAN_POINT ( 'NONE',  ( 0.06250000000000004163, 7.654042494670960626E-18, 0.3206349820036290543 ) ) ;
#147 = DIRECTION ( 'NONE',  ( 1.224646799147353207E-16, 1.000000000000000000, -0.0000000000000000000 ) ) ;
#148 = ORIENTED_EDGE ( 'NONE', *, *, #111, .T. ) ;
#149 = PRESENTATION_STYLE_ASSIGNMENT (( #192 ) ) ;
#150 = CYLINDRICAL_SURFACE ( 'NONE', #29, 0.06250000000000000000 ) ;
#151 = CIRCLE ( 'NONE', #271, 0.04750000000000064587 ) ;
#152 = VECTOR ( 'NONE', #63, 39.37007874015747433 ) ;
#153 = EDGE_CURVE ( 'NONE', #93, #268, #287, .T. ) ;
#154 = DIRECTION ( 'NONE',  ( -1.000000000000000000, 0.0000000000000000000, 1.224646799147353454E-16 ) ) ;
#155 = EDGE_CURVE ( 'NONE', #70, #167, #72, .T. ) ;
#156 = DIRECTION ( 'NONE',  ( -1.224646799147353454E-16, -0.0000000000000000000, -1.000000000000000000 ) ) ;
#157 = DIRECTION ( 'NONE',  ( 0.0000000000000000000, 0.0000000000000000000, 1.000000000000000000 ) ) ;
#158 = CARTESIAN_POINT ( 'NONE',  ( 0.0000000000000000000, 0.0000000000000000000, 1.500000000000000222 ) ) ;
#159 = CIRCLE ( 'NONE', #173, 0.01248750000000000034 ) ;
#160 = CYLINDRICAL_SURFACE ( 'NONE', #41, 0.06250000000000000000 ) ;
#161 = CARTESIAN_POINT ( 'NONE',  ( 1.529277690435257668E-18, 0.0000000000000000000, 0.01248750000000000034 ) ) ;
#162 = SPHERICAL_SURFACE ( 'NONE', #59, 0.01248750000000000034 ) ;
#163 = DIRECTION ( 'NONE',  ( 0.0000000000000000000, -1.000000000000000000, 0.0000000000000000000 ) ) ;
#164 =( LENGTH_UNIT ( ) NAMED_UNIT ( * ) SI_UNIT ( $, .METRE. ) );
#165 = PRODUCT_DEFINITION_SHAPE ( 'NONE', 'NONE',  #255 ) ;
#166 = VERTEX_POINT ( 'NONE', #86 ) ;
#167 = VERTEX_POINT ( 'NONE', #285 ) ;
#168 = PRODUCT_RELATED_PRODUCT_CATEGORY ( 'part', '', ( #33 ) ) ;
#169 = CARTESIAN_POINT ( 'NONE',  ( 0.0000000000000000000, 0.0000000000000000000, 1.500000000000000222 ) ) ;
#170 = DIRECTION ( 'NONE',  ( 1.000000000000000000, 0.0000000000000000000, 0.0000000000000000000 ) ) ;
#171 = ORIENTED_EDGE ( 'NONE', *, *, #206, .F. ) ;
#172 = FACE_OUTER_BOUND ( 'NONE', #113, .T. ) ;
#173 = AXIS2_PLACEMENT_3D ( 'NONE', #161, #134, #108 ) ;
#174 = DIRECTION ( 'NONE',  ( -1.224646799147353454E-16, -0.0000000000000000000, -1.000000000000000000 ) ) ;
#175 = DIRECTION ( 'NONE',  ( 0.0000000000000000000, 0.0000000000000000000, 1.000000000000000000 ) ) ;
#176 = EDGE_CURVE ( 'NONE', #180, #93, #317, .T. ) ;
#177 = ORIENTED_EDGE ( 'NONE', *, *, #5, .F. ) ;
#178 = MECHANICAL_DESIGN_GEOMETRIC_PRESENTATION_REPRESENTATION (  '', ( #276 ), #100 ) ;
#179 = SURFACE_STYLE_USAGE ( .BOTH. , #26 ) ;
#180 = VERTEX_POINT ( 'NONE', #258 ) ;
#181 = EDGE_CURVE ( 'NONE', #13, #166, #12, .T. ) ;
#182 = LINE ( 'NONE', #233, #225 ) ;
#183 = VECTOR ( 'NONE', #98, 39.37007874015748143 ) ;
#184 = DIRECTION ( 'NONE',  ( -1.000000000000000000, 0.0000000000000000000, 0.0000000000000000000 ) ) ;
#185 =( NAMED_UNIT ( * ) SI_UNIT ( $, .STERADIAN. ) SOLID_ANGLE_UNIT ( ) );
#186 = AXIS2_PLACEMENT_3D ( 'NONE', #238, #163, #7 ) ;
#187 = CARTESIAN_POINT ( 'NONE',  ( 0.0000000000000000000, 0.0000000000000000000, 0.0000000000000000000 ) ) ;
#188 = ORIENTED_EDGE ( 'NONE', *, *, #94, .T. ) ;
#189 = EDGE_LOOP ( 'NONE', ( #18, #315, #204 ) ) ;
#190 = FACE_OUTER_BOUND ( 'NONE', #308, .T. ) ;
#191 = VECTOR ( 'NONE', #56, 39.37007874015748143 ) ;
#192 = SURFACE_STYLE_USAGE ( .BOTH. , #322 ) ;
#193 = ADVANCED_BREP_SHAPE_REPRESENTATION ( 'Micro_BMS-025-2X', ( #102, #131 ), #294 ) ;
#194 = EDGE_CURVE ( 'NONE', #268, #93, #259, .T. ) ;
#195 = ORIENTED_EDGE ( 'NONE', *, *, #320, .T. ) ;
#196 = CARTESIAN_POINT ( 'NONE',  ( 0.01248750000000000207, 0.0000000000000000000, 0.03699999999999999817 ) ) ;
#197 = AXIS2_PLACEMENT_3D ( 'NONE', #60, #42, #246 ) ;
#198 = EDGE_CURVE ( 'NONE', #167, #166, #159, .T. ) ;
#199 = CARTESIAN_POINT ( 'NONE',  ( 4.531193156845207618E-18, 0.0000000000000000000, 0.03699999999999999817 ) ) ;
#200 = DIRECTION ( 'NONE',  ( 1.224646799147353454E-16, 0.0000000000000000000, 1.000000000000000000 ) ) ;
#201 = UNCERTAINTY_MEASURE_WITH_UNIT (LENGTH_MEASURE( 1.000000000000000082E-05 ), #129, 'distance_accuracy_value', 'NONE');
#202 = AXIS2_PLACEMENT_3D ( 'NONE', #127, #22, #123 ) ;
#203 = FACE_OUTER_BOUND ( 'NONE', #211, .T. ) ;
#204 = ORIENTED_EDGE ( 'NONE', *, *, #198, .F. ) ;
#205 = EDGE_LOOP ( 'NONE', ( #19, #230, #316, #293 ) ) ;
#206 = EDGE_CURVE ( 'NONE', #105, #268, #208, .T. ) ;
#207 = COLOUR_RGB ( '',0.7921568627450980005, 0.8196078431372548767, 0.9333333333333333481 ) ;
#208 = LINE ( 'NONE', #235, #121 ) ;
#209 = DIRECTION ( 'NONE',  ( -0.7071067811865456854, 0.0000000000000000000, -0.7071067811865493491 ) ) ;
#210 = FACE_OUTER_BOUND ( 'NONE', #64, .T. ) ;
#211 = EDGE_LOOP ( 'NONE', ( #37, #217, #89, #83 ) ) ;
#212 = AXIS2_PLACEMENT_3D ( 'NONE', #87, #214, #57 ) ;
#213 = CARTESIAN_POINT ( 'NONE',  ( 0.0000000000000000000, 0.0000000000000000000, 1.485000000000000764 ) ) ;
#214 = DIRECTION ( 'NONE',  ( -1.224646799147353454E-16, -0.0000000000000000000, -1.000000000000000000 ) ) ;
#215 = ORIENTED_EDGE ( 'NONE', *, *, #194, .T. ) ;
#216 = CARTESIAN_POINT ( 'NONE',  ( 1.529277690435257668E-18, 0.0000000000000000000, 0.01248750000000000034 ) ) ;
#217 = ORIENTED_EDGE ( 'NONE', *, *, #126, .T. ) ;
#218 = ADVANCED_FACE ( 'NONE', ( #210 ), #88, .T. ) ;
#219 = VECTOR ( 'NONE', #279, 39.37007874015748143 ) ;
#220 = AXIS2_PLACEMENT_3D ( 'NONE', #213, #35, #263 ) ;
#221 = EDGE_LOOP ( 'NONE', ( #177, #40, #11, #188 ) ) ;
#222 = CARTESIAN_POINT ( 'NONE',  ( 0.0000000000000000000, 0.0000000000000000000, 1.500000000000000222 ) ) ;
#223 = PLANE ( 'NONE',  #99 ) ;
#224 = SURFACE_STYLE_FILL_AREA ( #251 ) ;
#225 = VECTOR ( 'NONE', #39, 39.37007874015748143 ) ;
#226 = FACE_OUTER_BOUND ( 'NONE', #228, .T. ) ;
#227 = DIRECTION ( 'NONE',  ( -1.000000000000000000, 0.0000000000000000000, 0.0000000000000000000 ) ) ;
#228 = EDGE_LOOP ( 'NONE', ( #215, #91, #43, #118 ) ) ;
#229 = VECTOR ( 'NONE', #9, 39.37007874015748143 ) ;
#230 = ORIENTED_EDGE ( 'NONE', *, *, #8, .F. ) ;
#231 = CARTESIAN_POINT ( 'NONE',  ( 0.0000000000000000000, 0.0000000000000000000, 1.500000000000000222 ) ) ;
#232 = APPLICATION_CONTEXT ( 'automotive_design' ) ;
#233 = CARTESIAN_POINT ( 'NONE',  ( 0.01248750000000000207, 0.0000000000000000000, 0.03699999999999999817 ) ) ;
#234 = PRESENTATION_LAYER_ASSIGNMENT (  '', '', ( #104 ) ) ;
#235 = CARTESIAN_POINT ( 'NONE',  ( -0.04750000000000064587, 0.0000000000000000000, 1.500000000000000222 ) ) ;
#236 = EDGE_LOOP ( 'NONE', ( #239, #319, #148, #325 ) ) ;
#237 = ADVANCED_FACE ( 'NONE', ( #36 ), #125, .T. ) ;
#238 = CARTESIAN_POINT ( 'NONE',  ( 1.529277690435257668E-18, 0.0000000000000000000, 0.01248750000000000034 ) ) ;
#239 = ORIENTED_EDGE ( 'NONE', *, *, #126, .F. ) ;
#240 = AXIS2_PLACEMENT_3D ( 'NONE', #222, #297, #24 ) ;
#241 = ORIENTED_EDGE ( 'NONE', *, *, #5, .T. ) ;
#242 = CARTESIAN_POINT ( 'NONE',  ( -0.06250000000000000000, 0.0000000000000000000, 1.485000000000000764 ) ) ;
#243 = ADVANCED_FACE ( 'NONE', ( #172 ), #47, .T. ) ;
#244 = APPLICATION_PROTOCOL_DEFINITION ( 'draft international standard', 'automotive_design', 1998, #232 ) ;
#245 = ORIENTED_EDGE ( 'NONE', *, *, #176, .T. ) ;
#246 = DIRECTION ( 'NONE',  ( 1.000000000000000000, 0.0000000000000000000, 0.0000000000000000000 ) ) ;
#247 = MECHANICAL_DESIGN_GEOMETRIC_PRESENTATION_REPRESENTATION (  '', ( #104 ), #114 ) ;
#248 = DIRECTION ( 'NONE',  ( 0.0000000000000000000, 0.0000000000000000000, 1.000000000000000000 ) ) ;
#249 = UNCERTAINTY_MEASURE_WITH_UNIT (LENGTH_MEASURE( 1.000000000000000082E-05 ), #96, 'distance_accuracy_value', 'NONE');
#250 = DIRECTION ( 'NONE',  ( -1.000000000000000000, 1.224646799147353207E-16, 0.0000000000000000000 ) ) ;
#251 = FILL_AREA_STYLE ('',( #318 ) ) ;
#252 = DIRECTION ( 'NONE',  ( -1.000000000000000000, 0.0000000000000000000, 0.0000000000000000000 ) ) ;
#253 = DIRECTION ( 'NONE',  ( -1.000000000000000000, 0.0000000000000000000, 1.709114110150314860E-16 ) ) ;
#254 = DIRECTION ( 'NONE',  ( 1.000000000000000000, 0.0000000000000000000, 0.0000000000000000000 ) ) ;
#255 = PRODUCT_DEFINITION ( 'UNKNOWN', '', #289, #310 ) ;
#256 = PRESENTATION_STYLE_ASSIGNMENT (( #179 ) ) ;
#257 = LENGTH_MEASURE_WITH_UNIT ( LENGTH_MEASURE( 0.02539999999999999897 ), #164 );
#258 = CARTESIAN_POINT ( 'NONE',  ( 0.04750000000000064587, 6.735557395310482421E-18, 1.500000000000000222 ) ) ;
#259 = CIRCLE ( 'NONE', #302, 0.06250000000000000000 ) ;
#260 =( CONVERSION_BASED_UNIT ( 'INCH', #257 ) LENGTH_UNIT ( ) NAMED_UNIT ( #138 ) );
#261 = EDGE_CURVE ( 'NONE', #139, #309, #14, .T. ) ;
#262 = DIRECTION ( 'NONE',  ( -1.224646799147353454E-16, -0.0000000000000000000, -1.000000000000000000 ) ) ;
#263 = DIRECTION ( 'NONE',  ( 1.000000000000000000, 0.0000000000000000000, 0.0000000000000000000 ) ) ;
#264 = ORIENTED_EDGE ( 'NONE', *, *, #194, .F. ) ;
#265 = VECTOR ( 'NONE', #136, 39.37007874015748143 ) ;
#266 = CARTESIAN_POINT ( 'NONE',  ( 1.529277690435257668E-18, 0.0000000000000000000, 0.01248750000000000034 ) ) ;
#267 = DIRECTION ( 'NONE',  ( 0.0000000000000000000, 1.000000000000000000, 0.0000000000000000000 ) ) ;
#268 = VERTEX_POINT ( 'NONE', #242 ) ;
#269 =( NAMED_UNIT ( * ) PLANE_ANGLE_UNIT ( ) SI_UNIT ( $, .RADIAN. ) );
#270 = LINE ( 'NONE', #67, #183 ) ;
#271 = AXIS2_PLACEMENT_3D ( 'NONE', #28, #157, #103 ) ;
#272 = DIRECTION ( 'NONE',  ( 1.000000000000000000, 0.0000000000000000000, 0.0000000000000000000 ) ) ;
#273 = DIMENSIONAL_EXPONENTS ( 1.000000000000000000, 0.0000000000000000000, 0.0000000000000000000, 0.0000000000000000000, 0.0000000000000000000, 0.0000000000000000000, 0.0000000000000000000 ) ;
#274 = DIRECTION ( 'NONE',  ( -1.224646799147353454E-16, -0.0000000000000000000, -1.000000000000000000 ) ) ;
#275 = ADVANCED_FACE ( 'NONE', ( #190 ), #54, .T. ) ;
#276 = STYLED_ITEM ( 'NONE', ( #149 ), #193 ) ;
#277 = ORIENTED_EDGE ( 'NONE', *, *, #32, .F. ) ;
#278 =( NAMED_UNIT ( * ) PLANE_ANGLE_UNIT ( ) SI_UNIT ( $, .RADIAN. ) );
#279 = DIRECTION ( 'NONE',  ( -1.224646799147353454E-16, -0.0000000000000000000, -1.000000000000000000 ) ) ;
#280 = DIRECTION ( 'NONE',  ( 1.000000000000000000, 0.0000000000000000000, 0.0000000000000000000 ) ) ;
#281 = CLOSED_SHELL ( 'NONE', ( #143, #218, #15, #275, #51, #68, #283, #38, #237, #286, #243 ) ) ;
#282 = CIRCLE ( 'NONE', #323, 0.01248750000000000034 ) ;
#283 = ADVANCED_FACE ( 'NONE', ( #122 ), #223, .T. ) ;
#284 = CARTESIAN_POINT ( 'NONE',  ( -0.01248750000000000034, 0.0000000000000000000, 1.529277690435257668E-18 ) ) ;
#285 = CARTESIAN_POINT ( 'NONE',  ( 0.01248750000000000207, 1.529277690435257475E-18, 0.01248749999999999860 ) ) ;
#286 = ADVANCED_FACE ( 'NONE', ( #71 ), #321, .T. ) ;
#287 = CIRCLE ( 'NONE', #220, 0.06250000000000000000 ) ;
#288 = AXIS2_PLACEMENT_3D ( 'NONE', #187, #262, #290 ) ;
#289 = PRODUCT_DEFINITION_FORMATION_WITH_SPECIFIED_SOURCE ( 'ANY', '', #33, .NOT_KNOWN. ) ;
#290 = DIRECTION ( 'NONE',  ( -1.000000000000000000, 0.0000000000000000000, 1.224646799147353454E-16 ) ) ;
#291 = FACE_OUTER_BOUND ( 'NONE', #189, .T. ) ;
#292 = ORIENTED_EDGE ( 'NONE', *, *, #181, .F. ) ;
#293 = ORIENTED_EDGE ( 'NONE', *, *, #153, .F. ) ;
#294 =( GEOMETRIC_REPRESENTATION_CONTEXT ( 3 ) GLOBAL_UNCERTAINTY_ASSIGNED_CONTEXT ( ( #249 ) ) GLOBAL_UNIT_ASSIGNED_CONTEXT ( ( #96, #269, #119 ) ) REPRESENTATION_CONTEXT ( 'NONE', 'WORKASPACE' ) );
#295 = DIRECTION ( 'NONE',  ( 1.000000000000000000, 0.0000000000000000000, 0.0000000000000000000 ) ) ;
#296 = APPLICATION_CONTEXT ( 'automotive_design' ) ;
#297 = DIRECTION ( 'NONE',  ( 0.0000000000000000000, 0.0000000000000000000, -1.000000000000000000 ) ) ;
#298 = VERTEX_POINT ( 'NONE', #196 ) ;
#299 = DIRECTION ( 'NONE',  ( 0.0000000000000000000, 0.0000000000000000000, 1.000000000000000000 ) ) ;
#300 = EDGE_CURVE ( 'NONE', #70, #166, #282, .T. ) ;
#301 = CARTESIAN_POINT ( 'NONE',  ( 3.926646044054136091E-17, 0.0000000000000000000, 0.3206349820036290543 ) ) ;
#302 = AXIS2_PLACEMENT_3D ( 'NONE', #112, #142, #55 ) ;
#303 = DIRECTION ( 'NONE',  ( -0.0000000000000000000, -0.0000000000000000000, -1.000000000000000000 ) ) ;
#304 = FILL_AREA_STYLE_COLOUR ( '', #207 ) ;
#305 = CIRCLE ( 'NONE', #58, 0.06250000000000000000 ) ;
#306 = DIMENSIONAL_EXPONENTS ( 1.000000000000000000, 0.0000000000000000000, 0.0000000000000000000, 0.0000000000000000000, 0.0000000000000000000, 0.0000000000000000000, 0.0000000000000000000 ) ;
#307 = ORIENTED_EDGE ( 'NONE', *, *, #117, .T. ) ;
#308 = EDGE_LOOP ( 'NONE', ( #66, #245, #264, #171 ) ) ;
#309 = VERTEX_POINT ( 'NONE', #146 ) ;
#310 = PRODUCT_DEFINITION_CONTEXT ( 'detailed design', #296, 'design' ) ;
#311 = AXIS2_PLACEMENT_3D ( 'NONE', #301, #95, #170 ) ;
#312 = LINE ( 'NONE', #110, #229 ) ;
#313 = DIRECTION ( 'NONE',  ( 1.000000000000000000, 0.0000000000000000000, 0.0000000000000000000 ) ) ;
#314 = CARTESIAN_POINT ( 'NONE',  ( 1.529277690435257668E-18, 0.0000000000000000000, 0.01248750000000000034 ) ) ;
#315 = ORIENTED_EDGE ( 'NONE', *, *, #300, .T. ) ;
#316 = ORIENTED_EDGE ( 'NONE', *, *, #206, .T. ) ;
#317 = LINE ( 'NONE', #92, #191 ) ;
#318 = FILL_AREA_STYLE_COLOUR ( '', #48 ) ;
#319 = ORIENTED_EDGE ( 'NONE', *, *, #62, .F. ) ;
#320 = EDGE_CURVE ( 'NONE', #268, #139, #270, .T. ) ;
#321 = CYLINDRICAL_SURFACE ( 'NONE', #144, 0.01248750000000000034 ) ;
#322 = SURFACE_SIDE_STYLE ('',( #224 ) ) ;
#323 = AXIS2_PLACEMENT_3D ( 'NONE', #266, #147, #250 ) ;
#324 = CARTESIAN_POINT ( 'NONE',  ( 0.0000000000000000000, 0.0000000000000000000, 0.0000000000000000000 ) ) ;
#325 = ORIENTED_EDGE ( 'NONE', *, *, #32, .T. ) ;
ENDSEC;
END-ISO-10303-21;
