ISO-10303-21;
HEADER;
FILE_DESCRIPTION (( 'STEP AP214' ),
    '1' );
FILE_NAME ('82273.STEP',
    '2023-06-23T05:18:54',
    ( '' ),
    ( '' ),
    'SwSTEP 2.0',
    'SolidWorks 2023',
    '' );
FILE_SCHEMA (( 'AUTOMOTIVE_DESIGN' ));
ENDSEC;

DATA;
#1 = DIRECTION ( 'NONE',  ( -0.000000000000000000, -1.000000000000000000, -0.000000000000000000 ) ) ;
#2 = DIRECTION ( 'NONE',  ( 5.156407575357275916E-17, -1.000000000000000000, 0.000000000000000000 ) ) ;
#3 = FACE_OUTER_BOUND ( 'NONE', #241, .T. ) ;
#4 = VECTOR ( 'NONE', #128, 39.37007874015748143 ) ;
#5 = CYLINDRICAL_SURFACE ( 'NONE', #155, 0.2500000000000000555 ) ;
#6 = UNCERTAINTY_MEASURE_WITH_UNIT (LENGTH_MEASURE( 1.000000000000000082E-05 ), #264, 'distance_accuracy_value', 'NONE');
#7 = PRODUCT_RELATED_PRODUCT_CATEGORY ( 'part', '', ( #33 ) ) ;
#8 = SURFACE_STYLE_USAGE ( .BOTH. , #245 ) ;
#9 = PRESENTATION_LAYER_ASSIGNMENT (  '', '', ( #205 ) ) ;
#10 = PRESENTATION_STYLE_ASSIGNMENT (( #81 ) ) ;
#11 = FACE_OUTER_BOUND ( 'NONE', #301, .T. ) ;
#12 = DIRECTION ( 'NONE',  ( 0.000000000000000000, 1.000000000000000000, 0.000000000000000000 ) ) ;
#13 = PRESENTATION_STYLE_ASSIGNMENT (( #189 ) ) ;
#14 = VERTEX_POINT ( 'NONE', #187 ) ;
#15 = LENGTH_MEASURE_WITH_UNIT ( LENGTH_MEASURE( 0.02539999999999999897 ), #165 );
#16 = DIRECTION ( 'NONE',  ( 0.000000000000000000, 0.000000000000000000, -1.000000000000000000 ) ) ;
#17 = DIRECTION ( 'NONE',  ( -0.000000000000000000, -1.000000000000000000, -0.000000000000000000 ) ) ;
#18 = UNCERTAINTY_MEASURE_WITH_UNIT (LENGTH_MEASURE( 1.000000000000000082E-05 ), #115, 'distance_accuracy_value', 'NONE');
#19 = DIRECTION ( 'NONE',  ( -5.156407575357275299E-17, 1.000000000000000000, -0.000000000000000000 ) ) ;
#20 = DIRECTION ( 'NONE',  ( 1.000000000000000000, 5.156407575357275916E-17, 0.000000000000000000 ) ) ;
#21 = COLOUR_RGB ( '',1.000000000000000000, 0.000000000000000000, 0.000000000000000000 ) ;
#22 = STYLED_ITEM ( 'NONE', ( #220 ), #188 ) ;
#23 = PRODUCT_DEFINITION ( 'UNKNOWN', '', #209, #196 ) ;
#24 = SURFACE_STYLE_USAGE ( .BOTH. , #302 ) ;
#25 = LENGTH_MEASURE_WITH_UNIT ( LENGTH_MEASURE( 0.02539999999999999897 ), #179 );
#26 = CIRCLE ( 'NONE', #303, 0.2500000000000000000 ) ;
#27 = SURFACE_STYLE_FILL_AREA ( #54 ) ;
#28 = PRESENTATION_LAYER_ASSIGNMENT (  '', '', ( #275 ) ) ;
#29 = SURFACE_STYLE_USAGE ( .BOTH. , #173 ) ;
#30 =( CONVERSION_BASED_UNIT ( 'INCH', #25 ) LENGTH_UNIT ( ) NAMED_UNIT ( #263 ) );
#31 = DIMENSIONAL_EXPONENTS ( 1.000000000000000000, 0.000000000000000000, 0.000000000000000000, 0.000000000000000000, 0.000000000000000000, 0.000000000000000000, 0.000000000000000000 ) ;
#32 = SHAPE_DEFINITION_REPRESENTATION ( #182, #255 ) ;
#33 = PRODUCT ( '82273', '82273', '', ( #216 ) ) ;
#34 = SURFACE_STYLE_FILL_AREA ( #112 ) ;
#35 = ORIENTED_EDGE ( 'NONE', *, *, #71, .F. ) ;
#36 = ORIENTED_EDGE ( 'NONE', *, *, #100, .F. ) ;
#37 = MECHANICAL_DESIGN_GEOMETRIC_PRESENTATION_REPRESENTATION (  '', ( #275 ), #88 ) ;
#38 = VERTEX_POINT ( 'NONE', #135 ) ;
#39 = EDGE_LOOP ( 'NONE', ( #85, #36 ) ) ;
#40 =( NAMED_UNIT ( * ) PLANE_ANGLE_UNIT ( ) SI_UNIT ( $, .RADIAN. ) );
#41 = ADVANCED_FACE ( 'NONE', ( #11 ), #110, .F. ) ;
#42 = EDGE_LOOP ( 'NONE', ( #193, #298, #307, #79 ) ) ;
#43 = CIRCLE ( 'NONE', #66, 0.2500000000000001110 ) ;
#44 = AXIS2_PLACEMENT_3D ( 'NONE', #136, #132, #292 ) ;
#45 = DIRECTION ( 'NONE',  ( -0.000000000000000000, -1.000000000000000000, -0.000000000000000000 ) ) ;
#46 = DIRECTION ( 'NONE',  ( -1.000000000000000000, 0.000000000000000000, 0.000000000000000000 ) ) ;
#47 = EDGE_CURVE ( 'NONE', #256, #38, #26, .T. ) ;
#48 =( CONVERSION_BASED_UNIT ( 'INCH', #153 ) LENGTH_UNIT ( ) NAMED_UNIT ( #55 ) );
#49 = CARTESIAN_POINT ( 'NONE',  ( 0.000000000000000000, 1.625000000000000000, -0.2500000000000000000 ) ) ;
#50 = UNCERTAINTY_MEASURE_WITH_UNIT (LENGTH_MEASURE( 1.000000000000000082E-05 ), #186, 'distance_accuracy_value', 'NONE');
#51 =( NAMED_UNIT ( * ) SI_UNIT ( $, .STERADIAN. ) SOLID_ANGLE_UNIT ( ) );
#52 = AXIS2_PLACEMENT_3D ( 'NONE', #294, #211, #131 ) ;
#53 = AXIS2_PLACEMENT_3D ( 'NONE', #286, #1, #225 ) ;
#54 = FILL_AREA_STYLE ('',( #201 ) ) ;
#55 = DIMENSIONAL_EXPONENTS ( 1.000000000000000000, 0.000000000000000000, 0.000000000000000000, 0.000000000000000000, 0.000000000000000000, 0.000000000000000000, 0.000000000000000000 ) ;
#56 = FACE_OUTER_BOUND ( 'NONE', #162, .T. ) ;
#57 = CLOSED_SHELL ( 'NONE', ( #170, #293, #246, #41 ) ) ;
#58 = STYLED_ITEM ( 'NONE', ( #284 ), #200 ) ;
#59 = EDGE_CURVE ( 'NONE', #139, #256, #279, .T. ) ;
#60 = ORIENTED_EDGE ( 'NONE', *, *, #227, .F. ) ;
#61 = LENGTH_MEASURE_WITH_UNIT ( LENGTH_MEASURE( 0.02539999999999999897 ), #207 );
#62 = FILL_AREA_STYLE ('',( #271 ) ) ;
#63 = AXIS2_PLACEMENT_3D ( 'NONE', #282, #229, #126 ) ;
#64 = ORIENTED_EDGE ( 'NONE', *, *, #300, .F. ) ;
#65 = ORIENTED_EDGE ( 'NONE', *, *, #140, .T. ) ;
#66 = AXIS2_PLACEMENT_3D ( 'NONE', #105, #273, #297 ) ;
#67 = AXIS2_PLACEMENT_3D ( 'NONE', #281, #118, #142 ) ;
#68 = LINE ( 'NONE', #172, #102 ) ;
#69 = COLOUR_RGB ( '',1.000000000000000000, 0.000000000000000000, 0.000000000000000000 ) ;
#70 =( NAMED_UNIT ( * ) PLANE_ANGLE_UNIT ( ) SI_UNIT ( $, .RADIAN. ) );
#71 = EDGE_CURVE ( 'NONE', #215, #258, #122, .T. ) ;
#72 = SURFACE_STYLE_FILL_AREA ( #262 ) ;
#73 = DIMENSIONAL_EXPONENTS ( 1.000000000000000000, 0.000000000000000000, 0.000000000000000000, 0.000000000000000000, 0.000000000000000000, 0.000000000000000000, 0.000000000000000000 ) ;
#74 = ADVANCED_FACE ( 'NONE', ( #97 ), #232, .T. ) ;
#75 = SURFACE_SIDE_STYLE ('',( #34 ) ) ;
#76 = CLOSED_SHELL ( 'NONE', ( #74, #119, #134, #200 ) ) ;
#77 = CYLINDRICAL_SURFACE ( 'NONE', #94, 0.2500000000000000000 ) ;
#78 =( GEOMETRIC_REPRESENTATION_CONTEXT ( 3 ) GLOBAL_UNCERTAINTY_ASSIGNED_CONTEXT ( ( #247 ) ) GLOBAL_UNIT_ASSIGNED_CONTEXT ( ( #291, #268, #150 ) ) REPRESENTATION_CONTEXT ( 'NONE', 'WORKASPACE' ) );
#79 = ORIENTED_EDGE ( 'NONE', *, *, #47, .F. ) ;
#80 = ORIENTED_EDGE ( 'NONE', *, *, #108, .T. ) ;
#81 = SURFACE_STYLE_USAGE ( .BOTH. , #75 ) ;
#82 = DIRECTION ( 'NONE',  ( -5.156407575357275916E-17, 1.000000000000000000, 0.000000000000000000 ) ) ;
#83 = SURFACE_STYLE_FILL_AREA ( #233 ) ;
#84 = COLOUR_RGB ( '',0.7921568627450980005, 0.8196078431372548767, 0.9333333333333333481 ) ;
#85 = ORIENTED_EDGE ( 'NONE', *, *, #140, .F. ) ;
#86 = DIRECTION ( 'NONE',  ( -5.156407575357275299E-17, 1.000000000000000000, -0.000000000000000000 ) ) ;
#87 = CYLINDRICAL_SURFACE ( 'NONE', #67, 0.2500000000000000555 ) ;
#88 =( GEOMETRIC_REPRESENTATION_CONTEXT ( 3 ) GLOBAL_UNCERTAINTY_ASSIGNED_CONTEXT ( ( #6 ) ) GLOBAL_UNIT_ASSIGNED_CONTEXT ( ( #264, #267, #51 ) ) REPRESENTATION_CONTEXT ( 'NONE', 'WORKASPACE' ) );
#89 = FILL_AREA_STYLE ('',( #257 ) ) ;
#90 = UNCERTAINTY_MEASURE_WITH_UNIT (LENGTH_MEASURE( 1.000000000000000082E-05 ), #30, 'distance_accuracy_value', 'NONE');
#91 =( LENGTH_UNIT ( ) NAMED_UNIT ( * ) SI_UNIT ( $, .METRE. ) );
#92 = CARTESIAN_POINT ( 'NONE',  ( -1.224646799147352714E-16, 4.000000000000000000, 0.000000000000000000 ) ) ;
#93 = EDGE_CURVE ( 'NONE', #14, #258, #159, .T. ) ;
#94 = AXIS2_PLACEMENT_3D ( 'NONE', #197, #45, #16 ) ;
#95 = DIRECTION ( 'NONE',  ( -1.000000000000000000, 0.000000000000000000, 0.000000000000000000 ) ) ;
#96 = PRESENTATION_STYLE_ASSIGNMENT (( #29 ) ) ;
#97 = FACE_OUTER_BOUND ( 'NONE', #296, .T. ) ;
#98 = DIMENSIONAL_EXPONENTS ( 1.000000000000000000, 0.000000000000000000, 0.000000000000000000, 0.000000000000000000, 0.000000000000000000, 0.000000000000000000, 0.000000000000000000 ) ;
#99 = PRESENTATION_STYLE_ASSIGNMENT (( #8 ) ) ;
#100 = EDGE_CURVE ( 'NONE', #113, #14, #144, .T. ) ;
#101 =( NAMED_UNIT ( * ) SI_UNIT ( $, .STERADIAN. ) SOLID_ANGLE_UNIT ( ) );
#102 = VECTOR ( 'NONE', #226, 39.37007874015748143 ) ;
#103 = LENGTH_MEASURE_WITH_UNIT ( LENGTH_MEASURE( 0.02539999999999999897 ), #206 );
#104 = FACE_OUTER_BOUND ( 'NONE', #39, .T. ) ;
#105 = CARTESIAN_POINT ( 'NONE',  ( -1.224646799147352714E-16, 4.000000000000000000, 0.000000000000000000 ) ) ;
#106 = ORIENTED_EDGE ( 'NONE', *, *, #177, .T. ) ;
#107 = APPLICATION_PROTOCOL_DEFINITION ( 'draft international standard', 'automotive_design', 1998, #184 ) ;
#108 = EDGE_CURVE ( 'NONE', #258, #215, #43, .T. ) ;
#109 = MECHANICAL_DESIGN_GEOMETRIC_PRESENTATION_REPRESENTATION (  '', ( #283 ), #295 ) ;
#110 = PLANE ( 'NONE',  #223 ) ;
#111 = SURFACE_STYLE_FILL_AREA ( #62 ) ;
#112 = FILL_AREA_STYLE ('',( #141 ) ) ;
#113 = VERTEX_POINT ( 'NONE', #231 ) ;
#114 = APPLICATION_PROTOCOL_DEFINITION ( 'draft international standard', 'automotive_design', 1998, #290 ) ;
#115 =( CONVERSION_BASED_UNIT ( 'INCH', #15 ) LENGTH_UNIT ( ) NAMED_UNIT ( #224 ) );
#116 =( GEOMETRIC_REPRESENTATION_CONTEXT ( 3 ) GLOBAL_UNCERTAINTY_ASSIGNED_CONTEXT ( ( #156 ) ) GLOBAL_UNIT_ASSIGNED_CONTEXT ( ( #48, #70, #127 ) ) REPRESENTATION_CONTEXT ( 'NONE', 'WORKASPACE' ) );
#117 = ORIENTED_EDGE ( 'NONE', *, *, #108, .F. ) ;
#118 = DIRECTION ( 'NONE',  ( -5.156407575357275299E-17, 1.000000000000000000, -0.000000000000000000 ) ) ;
#119 = ADVANCED_FACE ( 'NONE', ( #56 ), #253, .T. ) ;
#120 = CARTESIAN_POINT ( 'NONE',  ( 3.032960542342103792E-32, 1.625000000000000000, 0.000000000000000000 ) ) ;
#121 =( NAMED_UNIT ( * ) PLANE_ANGLE_UNIT ( ) SI_UNIT ( $, .RADIAN. ) );
#122 = CIRCLE ( 'NONE', #208, 0.2500000000000001110 ) ;
#123 = FACE_OUTER_BOUND ( 'NONE', #143, .T. ) ;
#124 = UNCERTAINTY_MEASURE_WITH_UNIT (LENGTH_MEASURE( 1.000000000000000082E-05 ), #149, 'distance_accuracy_value', 'NONE');
#125 = AXIS2_PLACEMENT_3D ( 'NONE', #278, #308, #237 ) ;
#126 = DIRECTION ( 'NONE',  ( 0.000000000000000000, 0.000000000000000000, -1.000000000000000000 ) ) ;
#127 =( NAMED_UNIT ( * ) SI_UNIT ( $, .STERADIAN. ) SOLID_ANGLE_UNIT ( ) );
#128 = DIRECTION ( 'NONE',  ( -0.000000000000000000, -1.000000000000000000, -0.000000000000000000 ) ) ;
#129 = DIMENSIONAL_EXPONENTS ( 1.000000000000000000, 0.000000000000000000, 0.000000000000000000, 0.000000000000000000, 0.000000000000000000, 0.000000000000000000, 0.000000000000000000 ) ;
#130 =( GEOMETRIC_REPRESENTATION_CONTEXT ( 3 ) GLOBAL_UNCERTAINTY_ASSIGNED_CONTEXT ( ( #124 ) ) GLOBAL_UNIT_ASSIGNED_CONTEXT ( ( #149, #121, #261 ) ) REPRESENTATION_CONTEXT ( 'NONE', 'WORKASPACE' ) );
#131 = DIRECTION ( 'NONE',  ( 0.000000000000000000, 0.000000000000000000, -1.000000000000000000 ) ) ;
#132 = DIRECTION ( 'NONE',  ( 0.000000000000000000, 0.000000000000000000, 1.000000000000000000 ) ) ;
#133 = DIRECTION ( 'NONE',  ( -5.156407575357275916E-17, 1.000000000000000000, -0.000000000000000000 ) ) ;
#134 = ADVANCED_FACE ( 'NONE', ( #299 ), #77, .T. ) ;
#135 = CARTESIAN_POINT ( 'NONE',  ( 0.000000000000000000, 0.000000000000000000, -0.2500000000000000000 ) ) ;
#136 = CARTESIAN_POINT ( 'NONE',  ( 0.000000000000000000, 0.000000000000000000, 0.000000000000000000 ) ) ;
#137 = MECHANICAL_DESIGN_GEOMETRIC_PRESENTATION_REPRESENTATION (  '', ( #154 ), #288 ) ;
#138 = CIRCLE ( 'NONE', #53, 0.2500000000000000000 ) ;
#139 = VERTEX_POINT ( 'NONE', #169 ) ;
#140 = EDGE_CURVE ( 'NONE', #14, #113, #174, .T. ) ;
#141 = FILL_AREA_STYLE_COLOUR ( '', #21 ) ;
#142 = DIRECTION ( 'NONE',  ( -1.000000000000000000, 0.000000000000000000, 0.000000000000000000 ) ) ;
#143 = EDGE_LOOP ( 'NONE', ( #106, #195 ) ) ;
#144 = CIRCLE ( 'NONE', #171, 0.2500000000000000000 ) ;
#145 =( GEOMETRIC_REPRESENTATION_CONTEXT ( 3 ) GLOBAL_UNCERTAINTY_ASSIGNED_CONTEXT ( ( #18 ) ) GLOBAL_UNIT_ASSIGNED_CONTEXT ( ( #115, #40, #219 ) ) REPRESENTATION_CONTEXT ( 'NONE', 'WORKASPACE' ) );
#146 = ORIENTED_EDGE ( 'NONE', *, *, #260, .F. ) ;
#147 = CARTESIAN_POINT ( 'NONE',  ( 3.323567385400236968E-34, 1.625000000000000000, 0.000000000000000000 ) ) ;
#148 =( LENGTH_UNIT ( ) NAMED_UNIT ( * ) SI_UNIT ( $, .METRE. ) );
#149 =( CONVERSION_BASED_UNIT ( 'INCH', #217 ) LENGTH_UNIT ( ) NAMED_UNIT ( #129 ) );
#150 =( NAMED_UNIT ( * ) SI_UNIT ( $, .STERADIAN. ) SOLID_ANGLE_UNIT ( ) );
#151 = PRESENTATION_LAYER_ASSIGNMENT (  '', '', ( #22 ) ) ;
#152 =( LENGTH_UNIT ( ) NAMED_UNIT ( * ) SI_UNIT ( $, .METRE. ) );
#153 = LENGTH_MEASURE_WITH_UNIT ( LENGTH_MEASURE( 0.02539999999999999897 ), #91 );
#154 = STYLED_ITEM ( 'NONE', ( #13 ), #119 ) ;
#155 = AXIS2_PLACEMENT_3D ( 'NONE', #92, #228, #95 ) ;
#156 = UNCERTAINTY_MEASURE_WITH_UNIT (LENGTH_MEASURE( 1.000000000000000082E-05 ), #48, 'distance_accuracy_value', 'NONE');
#157 = CARTESIAN_POINT ( 'NONE',  ( 0.2499999999999999167, 4.000000000000000000, 3.061616997868383634E-17 ) ) ;
#158 = DIRECTION ( 'NONE',  ( 0.000000000000000000, -0.000000000000000000, 1.000000000000000000 ) ) ;
#159 = LINE ( 'NONE', #236, #185 ) ;
#160 = ORIENTED_EDGE ( 'NONE', *, *, #71, .T. ) ;
#161 =( NAMED_UNIT ( * ) PLANE_ANGLE_UNIT ( ) SI_UNIT ( $, .RADIAN. ) );
#162 = EDGE_LOOP ( 'NONE', ( #64, #252 ) ) ;
#163 = AXIS2_PLACEMENT_3D ( 'NONE', #270, #12, #158 ) ;
#164 = ORIENTED_EDGE ( 'NONE', *, *, #59, .T. ) ;
#165 =( LENGTH_UNIT ( ) NAMED_UNIT ( * ) SI_UNIT ( $, .METRE. ) );
#166 = ORIENTED_EDGE ( 'NONE', *, *, #100, .T. ) ;
#167 = ORIENTED_EDGE ( 'NONE', *, *, #93, .T. ) ;
#168 = FILL_AREA_STYLE_COLOUR ( '', #203 ) ;
#169 = CARTESIAN_POINT ( 'NONE',  ( 3.061616997868383018E-17, 1.625000000000000000, 0.2500000000000000000 ) ) ;
#170 = ADVANCED_FACE ( 'NONE', ( #222 ), #87, .T. ) ;
#171 = AXIS2_PLACEMENT_3D ( 'NONE', #251, #191, #214 ) ;
#172 = CARTESIAN_POINT ( 'NONE',  ( 0.000000000000000000, 0.000000000000000000, -0.2500000000000000000 ) ) ;
#173 = SURFACE_SIDE_STYLE ('',( #83 ) ) ;
#174 = CIRCLE ( 'NONE', #266, 0.2500000000000000000 ) ;
#175 = SURFACE_STYLE_USAGE ( .BOTH. , #248 ) ;
#176 = CARTESIAN_POINT ( 'NONE',  ( 0.2500000000000000555, 4.000000000000000000, 3.061616997868384251E-17 ) ) ;
#177 = EDGE_CURVE ( 'NONE', #38, #256, #230, .T. ) ;
#178 = CARTESIAN_POINT ( 'NONE',  ( -0.2500000000000002776, 4.000000000000000000, 0.000000000000000000 ) ) ;
#179 =( LENGTH_UNIT ( ) NAMED_UNIT ( * ) SI_UNIT ( $, .METRE. ) );
#180 = CARTESIAN_POINT ( 'NONE',  ( 3.061616997868383018E-17, 0.000000000000000000, 0.2500000000000000000 ) ) ;
#181 = LENGTH_MEASURE_WITH_UNIT ( LENGTH_MEASURE( 0.02539999999999999897 ), #152 );
#182 = PRODUCT_DEFINITION_SHAPE ( 'NONE', 'NONE',  #23 ) ;
#183 = SURFACE_SIDE_STYLE ('',( #111 ) ) ;
#184 = APPLICATION_CONTEXT ( 'automotive_design' ) ;
#185 = VECTOR ( 'NONE', #133, 39.37007874015748143 ) ;
#186 =( CONVERSION_BASED_UNIT ( 'INCH', #61 ) LENGTH_UNIT ( ) NAMED_UNIT ( #31 ) );
#187 = CARTESIAN_POINT ( 'NONE',  ( -0.2500000000000000000, 1.625000000000000000, 0.000000000000000000 ) ) ;
#188 = MANIFOLD_SOLID_BREP ( 'Revolve - Tool Body (Straight Shanked)', #57 ) ;
#189 = SURFACE_STYLE_USAGE ( .BOTH. , #183 ) ;
#190 = MANIFOLD_SOLID_BREP ( 'Revolve - Cutting Edge', #76 ) ;
#191 = DIRECTION ( 'NONE',  ( -5.156407575357275299E-17, 1.000000000000000000, -0.000000000000000000 ) ) ;
#192 = VECTOR ( 'NONE', #250, 39.37007874015748143 ) ;
#193 = ORIENTED_EDGE ( 'NONE', *, *, #59, .F. ) ;
#194 = FILL_AREA_STYLE_COLOUR ( '', #84 ) ;
#195 = ORIENTED_EDGE ( 'NONE', *, *, #47, .T. ) ;
#196 = PRODUCT_DEFINITION_CONTEXT ( 'detailed design', #184, 'design' ) ;
#197 = CARTESIAN_POINT ( 'NONE',  ( 0.000000000000000000, 0.000000000000000000, 0.000000000000000000 ) ) ;
#198 = MECHANICAL_DESIGN_GEOMETRIC_PRESENTATION_REPRESENTATION (  '', ( #58 ), #116 ) ;
#199 = CARTESIAN_POINT ( 'NONE',  ( 0.000000000000000000, 1.625000000000000000, 0.000000000000000000 ) ) ;
#200 = ADVANCED_FACE ( 'NONE', ( #123 ), #305, .T. ) ;
#201 = FILL_AREA_STYLE_COLOUR ( '', #69 ) ;
#202 = CARTESIAN_POINT ( 'NONE',  ( 0.000000000000000000, 0.000000000000000000, 0.000000000000000000 ) ) ;
#203 = COLOUR_RGB ( '',1.000000000000000000, 0.000000000000000000, 0.000000000000000000 ) ;
#204 = EDGE_CURVE ( 'NONE', #139, #238, #138, .T. ) ;
#205 = STYLED_ITEM ( 'NONE', ( #10 ), #134 ) ;
#206 =( LENGTH_UNIT ( ) NAMED_UNIT ( * ) SI_UNIT ( $, .METRE. ) );
#207 =( LENGTH_UNIT ( ) NAMED_UNIT ( * ) SI_UNIT ( $, .METRE. ) );
#208 = AXIS2_PLACEMENT_3D ( 'NONE', #306, #19, #210 ) ;
#209 = PRODUCT_DEFINITION_FORMATION_WITH_SPECIFIED_SOURCE ( 'ANY', '', #33, .NOT_KNOWN. ) ;
#210 = DIRECTION ( 'NONE',  ( -1.000000000000000000, 0.000000000000000000, 0.000000000000000000 ) ) ;
#211 = DIRECTION ( 'NONE',  ( -0.000000000000000000, -1.000000000000000000, -0.000000000000000000 ) ) ;
#212 = CARTESIAN_POINT ( 'NONE',  ( 0.2500000000000000000, 4.000000000000000000, 0.000000000000000000 ) ) ;
#213 = ORIENTED_EDGE ( 'NONE', *, *, #260, .T. ) ;
#214 = DIRECTION ( 'NONE',  ( -1.000000000000000000, 0.000000000000000000, 0.000000000000000000 ) ) ;
#215 = VERTEX_POINT ( 'NONE', #176 ) ;
#216 = PRODUCT_CONTEXT ( 'NONE', #290, 'mechanical' ) ;
#217 = LENGTH_MEASURE_WITH_UNIT ( LENGTH_MEASURE( 0.02539999999999999897 ), #148 );
#218 = ORIENTED_EDGE ( 'NONE', *, *, #177, .F. ) ;
#219 =( NAMED_UNIT ( * ) SI_UNIT ( $, .STERADIAN. ) SOLID_ANGLE_UNIT ( ) );
#220 = PRESENTATION_STYLE_ASSIGNMENT (( #24 ) ) ;
#221 = DIRECTION ( 'NONE',  ( 0.000000000000000000, 0.000000000000000000, -1.000000000000000000 ) ) ;
#222 = FACE_OUTER_BOUND ( 'NONE', #235, .T. ) ;
#223 = AXIS2_PLACEMENT_3D ( 'NONE', #212, #2, #20 ) ;
#224 = DIMENSIONAL_EXPONENTS ( 1.000000000000000000, 0.000000000000000000, 0.000000000000000000, 0.000000000000000000, 0.000000000000000000, 0.000000000000000000, 0.000000000000000000 ) ;
#225 = DIRECTION ( 'NONE',  ( 0.000000000000000000, 0.000000000000000000, -1.000000000000000000 ) ) ;
#226 = DIRECTION ( 'NONE',  ( -0.000000000000000000, -1.000000000000000000, -0.000000000000000000 ) ) ;
#227 = EDGE_CURVE ( 'NONE', #238, #38, #68, .T. ) ;
#228 = DIRECTION ( 'NONE',  ( -5.156407575357275299E-17, 1.000000000000000000, -0.000000000000000000 ) ) ;
#229 = DIRECTION ( 'NONE',  ( 0.000000000000000000, -1.000000000000000000, -0.000000000000000000 ) ) ;
#230 = CIRCLE ( 'NONE', #125, 0.2500000000000000000 ) ;
#231 = CARTESIAN_POINT ( 'NONE',  ( 0.2500000000000000555, 1.625000000000000000, 3.061616997868384251E-17 ) ) ;
#232 = CYLINDRICAL_SURFACE ( 'NONE', #52, 0.2500000000000000000 ) ;
#233 = FILL_AREA_STYLE ('',( #168 ) ) ;
#234 =( NAMED_UNIT ( * ) SI_UNIT ( $, .STERADIAN. ) SOLID_ANGLE_UNIT ( ) );
#235 = EDGE_LOOP ( 'NONE', ( #65, #213, #117, #254 ) ) ;
#236 = CARTESIAN_POINT ( 'NONE',  ( -0.2500000000000002220, 4.000000000000000000, 0.000000000000000000 ) ) ;
#237 = DIRECTION ( 'NONE',  ( 0.000000000000000000, 0.000000000000000000, -1.000000000000000000 ) ) ;
#238 = VERTEX_POINT ( 'NONE', #49 ) ;
#239 = PRESENTATION_LAYER_ASSIGNMENT (  '', '', ( #283 ) ) ;
#240 = CIRCLE ( 'NONE', #289, 0.2500000000000000000 ) ;
#241 = EDGE_LOOP ( 'NONE', ( #146, #166, #167, #35 ) ) ;
#242 = DIRECTION ( 'NONE',  ( 0.000000000000000000, 0.000000000000000000, -1.000000000000000000 ) ) ;
#243 = DIRECTION ( 'NONE',  ( -1.000000000000000000, -5.156407575357275916E-17, 0.000000000000000000 ) ) ;
#244 = COLOUR_RGB ( '',0.7921568627450980005, 0.8196078431372548767, 0.9333333333333333481 ) ;
#245 = SURFACE_SIDE_STYLE ('',( #72 ) ) ;
#246 = ADVANCED_FACE ( 'NONE', ( #3 ), #5, .T. ) ;
#247 = UNCERTAINTY_MEASURE_WITH_UNIT (LENGTH_MEASURE( 1.000000000000000082E-05 ), #291, 'distance_accuracy_value', 'NONE');
#248 = SURFACE_SIDE_STYLE ('',( #27 ) ) ;
#249 =( NAMED_UNIT ( * ) PLANE_ANGLE_UNIT ( ) SI_UNIT ( $, .RADIAN. ) );
#250 = DIRECTION ( 'NONE',  ( -5.156407575357275916E-17, 1.000000000000000000, -0.000000000000000000 ) ) ;
#251 = CARTESIAN_POINT ( 'NONE',  ( 3.032960542342103792E-32, 1.625000000000000000, 0.000000000000000000 ) ) ;
#252 = ORIENTED_EDGE ( 'NONE', *, *, #204, .F. ) ;
#253 = PLANE ( 'NONE',  #163 ) ;
#254 = ORIENTED_EDGE ( 'NONE', *, *, #93, .F. ) ;
#255 = ADVANCED_BREP_SHAPE_REPRESENTATION ( '82273', ( #190, #188, #44 ), #145 ) ;
#256 = VERTEX_POINT ( 'NONE', #287 ) ;
#257 = FILL_AREA_STYLE_COLOUR ( '', #244 ) ;
#258 = VERTEX_POINT ( 'NONE', #178 ) ;
#259 = MECHANICAL_DESIGN_GEOMETRIC_PRESENTATION_REPRESENTATION (  '', ( #22 ), #130 ) ;
#260 = EDGE_CURVE ( 'NONE', #113, #215, #272, .T. ) ;
#261 =( NAMED_UNIT ( * ) SI_UNIT ( $, .STERADIAN. ) SOLID_ANGLE_UNIT ( ) );
#262 = FILL_AREA_STYLE ('',( #194 ) ) ;
#263 = DIMENSIONAL_EXPONENTS ( 1.000000000000000000, 0.000000000000000000, 0.000000000000000000, 0.000000000000000000, 0.000000000000000000, 0.000000000000000000, 0.000000000000000000 ) ;
#264 =( CONVERSION_BASED_UNIT ( 'INCH', #181 ) LENGTH_UNIT ( ) NAMED_UNIT ( #98 ) );
#265 = PRESENTATION_LAYER_ASSIGNMENT (  '', '', ( #154 ) ) ;
#266 = AXIS2_PLACEMENT_3D ( 'NONE', #120, #86, #46 ) ;
#267 =( NAMED_UNIT ( * ) PLANE_ANGLE_UNIT ( ) SI_UNIT ( $, .RADIAN. ) );
#268 =( NAMED_UNIT ( * ) PLANE_ANGLE_UNIT ( ) SI_UNIT ( $, .RADIAN. ) );
#269 = PRESENTATION_LAYER_ASSIGNMENT (  '', '', ( #58 ) ) ;
#270 = CARTESIAN_POINT ( 'NONE',  ( 0.000000000000000000, 1.625000000000000000, 0.000000000000000000 ) ) ;
#271 = FILL_AREA_STYLE_COLOUR ( '', #280 ) ;
#272 = LINE ( 'NONE', #157, #192 ) ;
#273 = DIRECTION ( 'NONE',  ( -5.156407575357275299E-17, 1.000000000000000000, -0.000000000000000000 ) ) ;
#274 = ORIENTED_EDGE ( 'NONE', *, *, #300, .T. ) ;
#275 = STYLED_ITEM ( 'NONE', ( #99 ), #190 ) ;
#276 = DIRECTION ( 'NONE',  ( -0.000000000000000000, -1.000000000000000000, -0.000000000000000000 ) ) ;
#277 = SURFACE_STYLE_FILL_AREA ( #89 ) ;
#278 = CARTESIAN_POINT ( 'NONE',  ( 0.000000000000000000, 0.000000000000000000, 0.000000000000000000 ) ) ;
#279 = LINE ( 'NONE', #180, #4 ) ;
#280 = COLOUR_RGB ( '',1.000000000000000000, 0.000000000000000000, 0.000000000000000000 ) ;
#281 = CARTESIAN_POINT ( 'NONE',  ( -1.224646799147352714E-16, 4.000000000000000000, 0.000000000000000000 ) ) ;
#282 = CARTESIAN_POINT ( 'NONE',  ( 0.000000000000000000, 0.000000000000000000, 0.000000000000000000 ) ) ;
#283 = STYLED_ITEM ( 'NONE', ( #96 ), #74 ) ;
#284 = PRESENTATION_STYLE_ASSIGNMENT (( #175 ) ) ;
#285 = AXIS2_PLACEMENT_3D ( 'NONE', #147, #82, #243 ) ;
#286 = CARTESIAN_POINT ( 'NONE',  ( 0.000000000000000000, 1.625000000000000000, 0.000000000000000000 ) ) ;
#287 = CARTESIAN_POINT ( 'NONE',  ( 3.061616997868383018E-17, 0.000000000000000000, 0.2500000000000000000 ) ) ;
#288 =( GEOMETRIC_REPRESENTATION_CONTEXT ( 3 ) GLOBAL_UNCERTAINTY_ASSIGNED_CONTEXT ( ( #50 ) ) GLOBAL_UNIT_ASSIGNED_CONTEXT ( ( #186, #161, #234 ) ) REPRESENTATION_CONTEXT ( 'NONE', 'WORKASPACE' ) );
#289 = AXIS2_PLACEMENT_3D ( 'NONE', #199, #276, #242 ) ;
#290 = APPLICATION_CONTEXT ( 'automotive_design' ) ;
#291 =( CONVERSION_BASED_UNIT ( 'INCH', #103 ) LENGTH_UNIT ( ) NAMED_UNIT ( #73 ) );
#292 = DIRECTION ( 'NONE',  ( 1.000000000000000000, 0.000000000000000000, 0.000000000000000000 ) ) ;
#293 = ADVANCED_FACE ( 'NONE', ( #104 ), #309, .F. ) ;
#294 = CARTESIAN_POINT ( 'NONE',  ( 0.000000000000000000, 0.000000000000000000, 0.000000000000000000 ) ) ;
#295 =( GEOMETRIC_REPRESENTATION_CONTEXT ( 3 ) GLOBAL_UNCERTAINTY_ASSIGNED_CONTEXT ( ( #90 ) ) GLOBAL_UNIT_ASSIGNED_CONTEXT ( ( #30, #249, #101 ) ) REPRESENTATION_CONTEXT ( 'NONE', 'WORKASPACE' ) );
#296 = EDGE_LOOP ( 'NONE', ( #274, #164, #218, #60 ) ) ;
#297 = DIRECTION ( 'NONE',  ( -1.000000000000000000, 0.000000000000000000, 0.000000000000000000 ) ) ;
#298 = ORIENTED_EDGE ( 'NONE', *, *, #204, .T. ) ;
#299 = FACE_OUTER_BOUND ( 'NONE', #42, .T. ) ;
#300 = EDGE_CURVE ( 'NONE', #238, #139, #240, .T. ) ;
#301 = EDGE_LOOP ( 'NONE', ( #80, #160 ) ) ;
#302 = SURFACE_SIDE_STYLE ('',( #277 ) ) ;
#303 = AXIS2_PLACEMENT_3D ( 'NONE', #202, #17, #221 ) ;
#304 = MECHANICAL_DESIGN_GEOMETRIC_PRESENTATION_REPRESENTATION (  '', ( #205 ), #78 ) ;
#305 = PLANE ( 'NONE',  #63 ) ;
#306 = CARTESIAN_POINT ( 'NONE',  ( -1.224646799147352714E-16, 4.000000000000000000, 0.000000000000000000 ) ) ;
#307 = ORIENTED_EDGE ( 'NONE', *, *, #227, .T. ) ;
#308 = DIRECTION ( 'NONE',  ( -0.000000000000000000, -1.000000000000000000, -0.000000000000000000 ) ) ;
#309 = PLANE ( 'NONE',  #285 ) ;
ENDSEC;
END-ISO-10303-21;
