ISO-10303-21;
HEADER;
FILE_DESCRIPTION (( 'STEP AP214' ),
    '1' );
FILE_NAME ('84774.STEP',
    '2023-07-05T16:24:04',
    ( '' ),
    ( '' ),
    'SwSTEP 2.0',
    'SolidWorks 2023',
    '' );
FILE_SCHEMA (( 'AUTOMOTIVE_DESIGN' ));
ENDSEC;

DATA;
#1 = LENGTH_MEASURE_WITH_UNIT ( LENGTH_MEASURE( 0.02539999999999999897 ), #154 );
#2 = STYLED_ITEM ( 'NONE', ( #217 ), #263 ) ;
#3 = LENGTH_MEASURE_WITH_UNIT ( LENGTH_MEASURE( 0.02539999999999999897 ), #91 );
#4 = VECTOR ( 'NONE', #99, 39.37007874015748143 ) ;
#5 = SURFACE_STYLE_FILL_AREA ( #224 ) ;
#6 = DIRECTION ( 'NONE',  ( -1.000000000000000000, 5.816148501619839219E-18, 0.000000000000000000 ) ) ;
#7 = SURFACE_SIDE_STYLE ('',( #61 ) ) ;
#8 = DIRECTION ( 'NONE',  ( 1.000000000000000000, 0.000000000000000000, 0.000000000000000000 ) ) ;
#9 = CARTESIAN_POINT ( 'NONE',  ( 0.000000000000000000, 0.000000000000000000, 0.000000000000000000 ) ) ;
#10 = AXIS2_PLACEMENT_3D ( 'NONE', #218, #45, #86 ) ;
#11 = ORIENTED_EDGE ( 'NONE', *, *, #97, .F. ) ;
#12 = CYLINDRICAL_SURFACE ( 'NONE', #30, 0.1562499999999998057 ) ;
#13 = DIRECTION ( 'NONE',  ( -1.000000000000000000, -1.237930494036654098E-16, 0.000000000000000000 ) ) ;
#14 =( NAMED_UNIT ( * ) SI_UNIT ( $, .STERADIAN. ) SOLID_ANGLE_UNIT ( ) );
#15 = MECHANICAL_DESIGN_GEOMETRIC_PRESENTATION_REPRESENTATION (  '', ( #71 ), #90 ) ;
#16 = EDGE_LOOP ( 'NONE', ( #259, #237, #112, #207 ) ) ;
#17 = AXIS2_PLACEMENT_3D ( 'NONE', #56, #128, #78 ) ;
#18 = DIRECTION ( 'NONE',  ( -1.000000000000000000, 0.000000000000000000, 0.000000000000000000 ) ) ;
#19 = DIRECTION ( 'NONE',  ( -1.000000000000000000, 0.000000000000000000, 0.000000000000000000 ) ) ;
#20 = FILL_AREA_STYLE_COLOUR ( '', #211 ) ;
#21 = AXIS2_PLACEMENT_3D ( 'NONE', #66, #102, #19 ) ;
#22 = LENGTH_MEASURE_WITH_UNIT ( LENGTH_MEASURE( 0.02539999999999999897 ), #105 );
#23 = PRODUCT_DEFINITION ( 'UNKNOWN', '', #241, #186 ) ;
#24 = UNCERTAINTY_MEASURE_WITH_UNIT (LENGTH_MEASURE( 1.000000000000000082E-05 ), #103, 'distance_accuracy_value', 'NONE');
#25 = SURFACE_STYLE_USAGE ( .BOTH. , #7 ) ;
#26 = DIRECTION ( 'NONE',  ( 5.816148501619839219E-18, 1.000000000000000000, 0.000000000000000000 ) ) ;
#27 = EDGE_LOOP ( 'NONE', ( #60, #235, #166 ) ) ;
#28 = UNCERTAINTY_MEASURE_WITH_UNIT (LENGTH_MEASURE( 1.000000000000000082E-05 ), #51, 'distance_accuracy_value', 'NONE');
#29 = VERTEX_POINT ( 'NONE', #94 ) ;
#30 = AXIS2_PLACEMENT_3D ( 'NONE', #145, #183, #233 ) ;
#31 = DIRECTION ( 'NONE',  ( 0.5000000000000009992, 0.8660254037844379305, 6.123233995736778362E-17 ) ) ;
#32 = ORIENTED_EDGE ( 'NONE', *, *, #160, .F. ) ;
#33 = CARTESIAN_POINT ( 'NONE',  ( 0.1562500000000000000, 0.2706329386826362149, 1.913510623667737923E-17 ) ) ;
#34 = ORIENTED_EDGE ( 'NONE', *, *, #97, .T. ) ;
#35 = FILL_AREA_STYLE_COLOUR ( '', #98 ) ;
#36 = CIRCLE ( 'NONE', #219, 0.1562499999999996669 ) ;
#37 = DIRECTION ( 'NONE',  ( -0.5000000000000009992, 0.8660254037844379305, 0.000000000000000000 ) ) ;
#38 = EDGE_CURVE ( 'NONE', #210, #187, #44, .T. ) ;
#39 = DIRECTION ( 'NONE',  ( 5.816148501619839219E-18, 1.000000000000000000, 0.000000000000000000 ) ) ;
#40 = PRESENTATION_LAYER_ASSIGNMENT (  '', '', ( #2 ) ) ;
#41 = SURFACE_SIDE_STYLE ('',( #214 ) ) ;
#42 = DIRECTION ( 'NONE',  ( -1.000000000000000000, 0.000000000000000000, 0.000000000000000000 ) ) ;
#43 = CIRCLE ( 'NONE', #135, 0.1562500000000000000 ) ;
#44 = CIRCLE ( 'NONE', #130, 0.1562500000000000000 ) ;
#45 = DIRECTION ( 'NONE',  ( -1.237930494036654098E-16, 1.000000000000000000, -0.000000000000000000 ) ) ;
#46 = AXIS2_PLACEMENT_3D ( 'NONE', #9, #147, #79 ) ;
#47 = LINE ( 'NONE', #123, #126 ) ;
#48 = COLOUR_RGB ( '',1.000000000000000000, 0.000000000000000000, 0.000000000000000000 ) ;
#49 = EDGE_CURVE ( 'NONE', #64, #189, #254, .T. ) ;
#50 = FACE_OUTER_BOUND ( 'NONE', #256, .T. ) ;
#51 =( CONVERSION_BASED_UNIT ( 'INCH', #3 ) LENGTH_UNIT ( ) NAMED_UNIT ( #137 ) );
#52 = CONICAL_SURFACE ( 'NONE', #141, 22.73032555864674720, 0.5235987755983001479 ) ;
#53 = APPLICATION_PROTOCOL_DEFINITION ( 'draft international standard', 'automotive_design', 1998, #228 ) ;
#54 = UNCERTAINTY_MEASURE_WITH_UNIT (LENGTH_MEASURE( 1.000000000000000082E-05 ), #225, 'distance_accuracy_value', 'NONE');
#55 =( CONVERSION_BASED_UNIT ( 'INCH', #75 ) LENGTH_UNIT ( ) NAMED_UNIT ( #222 ) );
#56 = CARTESIAN_POINT ( 'NONE',  ( 0.1562500000000000000, 2.500000000000000000, 0.000000000000000000 ) ) ;
#57 = DIRECTION ( 'NONE',  ( -1.237930494036654098E-16, 1.000000000000000000, -0.000000000000000000 ) ) ;
#58 = ORIENTED_EDGE ( 'NONE', *, *, #63, .F. ) ;
#59 = AXIS2_PLACEMENT_3D ( 'NONE', #151, #191, #13 ) ;
#60 = ORIENTED_EDGE ( 'NONE', *, *, #140, .F. ) ;
#61 = SURFACE_STYLE_FILL_AREA ( #258 ) ;
#62 = VERTEX_POINT ( 'NONE', #208 ) ;
#63 = EDGE_CURVE ( 'NONE', #148, #62, #231, .T. ) ;
#64 = VERTEX_POINT ( 'NONE', #33 ) ;
#65 = MECHANICAL_DESIGN_GEOMETRIC_PRESENTATION_REPRESENTATION (  '', ( #113 ), #73 ) ;
#66 = CARTESIAN_POINT ( 'NONE',  ( 6.123233995736772199E-17, 2.500000000000000000, 0.000000000000000000 ) ) ;
#67 = CARTESIAN_POINT ( 'NONE',  ( 2.289822244732220270E-16, 39.37007874015748143, 0.000000000000000000 ) ) ;
#68 = FILL_AREA_STYLE ('',( #136 ) ) ;
#69 = AXIS2_PLACEMENT_3D ( 'NONE', #134, #248, #242 ) ;
#70 = SURFACE_SIDE_STYLE ('',( #5 ) ) ;
#71 = STYLED_ITEM ( 'NONE', ( #221 ), #116 ) ;
#72 = DIRECTION ( 'NONE',  ( -1.000000000000000000, 0.000000000000000000, 0.000000000000000000 ) ) ;
#73 =( GEOMETRIC_REPRESENTATION_CONTEXT ( 3 ) GLOBAL_UNCERTAINTY_ASSIGNED_CONTEXT ( ( #24 ) ) GLOBAL_UNIT_ASSIGNED_CONTEXT ( ( #103, #100, #196 ) ) REPRESENTATION_CONTEXT ( 'NONE', 'WORKASPACE' ) );
#74 = APPLICATION_PROTOCOL_DEFINITION ( 'draft international standard', 'automotive_design', 1998, #172 ) ;
#75 = LENGTH_MEASURE_WITH_UNIT ( LENGTH_MEASURE( 0.02539999999999999897 ), #109 );
#76 = ORIENTED_EDGE ( 'NONE', *, *, #247, .F. ) ;
#77 = ADVANCED_FACE ( 'NONE', ( #117 ), #171, .F. ) ;
#78 = DIRECTION ( 'NONE',  ( 1.000000000000000000, 1.237930494036654098E-16, 0.000000000000000000 ) ) ;
#79 = DIRECTION ( 'NONE',  ( 1.000000000000000000, 0.000000000000000000, 0.000000000000000000 ) ) ;
#80 = CLOSED_SHELL ( 'NONE', ( #216, #93, #155, #77 ) ) ;
#81 = CARTESIAN_POINT ( 'NONE',  ( 1.574041360807988724E-18, 0.2706329386826362704, 0.000000000000000000 ) ) ;
#82 = PRODUCT_RELATED_PRODUCT_CATEGORY ( 'part', '', ( #213 ) ) ;
#83 = PLANE ( 'NONE',  #59 ) ;
#84 =( NAMED_UNIT ( * ) SI_UNIT ( $, .STERADIAN. ) SOLID_ANGLE_UNIT ( ) );
#85 = MECHANICAL_DESIGN_GEOMETRIC_PRESENTATION_REPRESENTATION (  '', ( #246 ), #143 ) ;
#86 = DIRECTION ( 'NONE',  ( -1.000000000000000000, -2.185478394931415259E-16, 0.000000000000000000 ) ) ;
#87 = MECHANICAL_DESIGN_GEOMETRIC_PRESENTATION_REPRESENTATION (  '', ( #2 ), #227 ) ;
#88 = LENGTH_MEASURE_WITH_UNIT ( LENGTH_MEASURE( 0.02539999999999999897 ), #265 );
#89 = STYLED_ITEM ( 'NONE', ( #124 ), #168 ) ;
#90 =( GEOMETRIC_REPRESENTATION_CONTEXT ( 3 ) GLOBAL_UNCERTAINTY_ASSIGNED_CONTEXT ( ( #182 ) ) GLOBAL_UNIT_ASSIGNED_CONTEXT ( ( #199, #138, #195 ) ) REPRESENTATION_CONTEXT ( 'NONE', 'WORKASPACE' ) );
#91 =( LENGTH_UNIT ( ) NAMED_UNIT ( * ) SI_UNIT ( $, .METRE. ) );
#92 = CARTESIAN_POINT ( 'NONE',  ( -0.1562499999999997224, 2.500000000000000000, 0.000000000000000000 ) ) ;
#93 = ADVANCED_FACE ( 'NONE', ( #260 ), #83, .F. ) ;
#94 = CARTESIAN_POINT ( 'NONE',  ( 0.000000000000000000, 0.000000000000000000, 0.000000000000000000 ) ) ;
#95 = EDGE_LOOP ( 'NONE', ( #32, #110 ) ) ;
#96 = DIRECTION ( 'NONE',  ( -1.000000000000000000, -2.185478394931415259E-16, 0.000000000000000000 ) ) ;
#97 = EDGE_CURVE ( 'NONE', #187, #210, #43, .T. ) ;
#98 = COLOUR_RGB ( '',0.7921568627450980005, 0.8196078431372548767, 0.9333333333333333481 ) ;
#99 = DIRECTION ( 'NONE',  ( -1.237930494036654098E-16, 1.000000000000000000, -0.000000000000000000 ) ) ;
#100 =( NAMED_UNIT ( * ) PLANE_ANGLE_UNIT ( ) SI_UNIT ( $, .RADIAN. ) );
#101 = SURFACE_STYLE_USAGE ( .BOTH. , #245 ) ;
#102 = DIRECTION ( 'NONE',  ( -1.237930494036654098E-16, 1.000000000000000000, -0.000000000000000000 ) ) ;
#103 =( CONVERSION_BASED_UNIT ( 'INCH', #1 ) LENGTH_UNIT ( ) NAMED_UNIT ( #220 ) );
#104 = FILL_AREA_STYLE_COLOUR ( '', #139 ) ;
#105 =( LENGTH_UNIT ( ) NAMED_UNIT ( * ) SI_UNIT ( $, .METRE. ) );
#106 = VECTOR ( 'NONE', #31, 39.37007874015748854 ) ;
#107 = PLANE ( 'NONE',  #121 ) ;
#108 =( NAMED_UNIT ( * ) SI_UNIT ( $, .STERADIAN. ) SOLID_ANGLE_UNIT ( ) );
#109 =( LENGTH_UNIT ( ) NAMED_UNIT ( * ) SI_UNIT ( $, .METRE. ) );
#110 = ORIENTED_EDGE ( 'NONE', *, *, #223, .F. ) ;
#111 = CARTESIAN_POINT ( 'NONE',  ( 0.1562500000000000000, 2.500000000000000000, 1.913510623667737923E-17 ) ) ;
#112 = ORIENTED_EDGE ( 'NONE', *, *, #63, .T. ) ;
#113 = STYLED_ITEM ( 'NONE', ( #215 ), #167 ) ;
#114 = FACE_OUTER_BOUND ( 'NONE', #27, .T. ) ;
#115 = ORIENTED_EDGE ( 'NONE', *, *, #49, .T. ) ;
#116 = ADVANCED_FACE ( 'NONE', ( #157 ), #249, .T. ) ;
#117 = FACE_OUTER_BOUND ( 'NONE', #118, .T. ) ;
#118 = EDGE_LOOP ( 'NONE', ( #234, #169 ) ) ;
#119 = FACE_OUTER_BOUND ( 'NONE', #16, .T. ) ;
#120 = FILL_AREA_STYLE ('',( #35 ) ) ;
#121 = AXIS2_PLACEMENT_3D ( 'NONE', #250, #26, #6 ) ;
#122 =( NAMED_UNIT ( * ) SI_UNIT ( $, .STERADIAN. ) SOLID_ANGLE_UNIT ( ) );
#123 = CARTESIAN_POINT ( 'NONE',  ( 0.000000000000000000, 0.000000000000000000, 0.000000000000000000 ) ) ;
#124 = PRESENTATION_STYLE_ASSIGNMENT (( #203 ) ) ;
#125 =( NAMED_UNIT ( * ) PLANE_ANGLE_UNIT ( ) SI_UNIT ( $, .RADIAN. ) );
#126 = VECTOR ( 'NONE', #37, 39.37007874015748854 ) ;
#127 = PRESENTATION_LAYER_ASSIGNMENT (  '', '', ( #113 ) ) ;
#128 = DIRECTION ( 'NONE',  ( 1.237930494036654098E-16, -1.000000000000000000, 0.000000000000000000 ) ) ;
#129 = ORIENTED_EDGE ( 'NONE', *, *, #160, .T. ) ;
#130 = AXIS2_PLACEMENT_3D ( 'NONE', #81, #194, #8 ) ;
#131 = DIRECTION ( 'NONE',  ( -1.237930494036654098E-16, 1.000000000000000000, -0.000000000000000000 ) ) ;
#132 = CARTESIAN_POINT ( 'NONE',  ( 0.000000000000000000, 0.000000000000000000, 0.000000000000000000 ) ) ;
#133 = CARTESIAN_POINT ( 'NONE',  ( 0.1562499999999998612, 2.500000000000000000, 1.913510623667736998E-17 ) ) ;
#134 = CARTESIAN_POINT ( 'NONE',  ( 6.123233995736772199E-17, 2.500000000000000000, 0.000000000000000000 ) ) ;
#135 = AXIS2_PLACEMENT_3D ( 'NONE', #238, #146, #205 ) ;
#136 = FILL_AREA_STYLE_COLOUR ( '', #239 ) ;
#137 = DIMENSIONAL_EXPONENTS ( 1.000000000000000000, 0.000000000000000000, 0.000000000000000000, 0.000000000000000000, 0.000000000000000000, 0.000000000000000000, 0.000000000000000000 ) ;
#138 =( NAMED_UNIT ( * ) PLANE_ANGLE_UNIT ( ) SI_UNIT ( $, .RADIAN. ) );
#139 = COLOUR_RGB ( '',0.7921568627450980005, 0.8196078431372548767, 0.9333333333333333481 ) ;
#140 = EDGE_CURVE ( 'NONE', #29, #187, #47, .T. ) ;
#141 = AXIS2_PLACEMENT_3D ( 'NONE', #255, #39, #42 ) ;
#142 = CARTESIAN_POINT ( 'NONE',  ( -0.1562499999999999722, 0.2706329386826362149, 0.000000000000000000 ) ) ;
#143 =( GEOMETRIC_REPRESENTATION_CONTEXT ( 3 ) GLOBAL_UNCERTAINTY_ASSIGNED_CONTEXT ( ( #163 ) ) GLOBAL_UNIT_ASSIGNED_CONTEXT ( ( #55, #176, #84 ) ) REPRESENTATION_CONTEXT ( 'NONE', 'WORKASPACE' ) );
#144 = ORIENTED_EDGE ( 'NONE', *, *, #140, .T. ) ;
#145 = CARTESIAN_POINT ( 'NONE',  ( 6.123233995736772199E-17, 2.500000000000000000, 0.000000000000000000 ) ) ;
#146 = DIRECTION ( 'NONE',  ( -5.816148501619839219E-18, -1.000000000000000000, -0.000000000000000000 ) ) ;
#147 = DIRECTION ( 'NONE',  ( 0.000000000000000000, 0.000000000000000000, 1.000000000000000000 ) ) ;
#148 = VERTEX_POINT ( 'NONE', #201 ) ;
#149 = PRESENTATION_STYLE_ASSIGNMENT (( #25 ) ) ;
#150 = EDGE_LOOP ( 'NONE', ( #76, #144, #34 ) ) ;
#151 = CARTESIAN_POINT ( 'NONE',  ( 3.372124867179324756E-16, 0.2706329386826362704, 0.000000000000000000 ) ) ;
#152 = EDGE_CURVE ( 'NONE', #62, #189, #175, .T. ) ;
#153 =( LENGTH_UNIT ( ) NAMED_UNIT ( * ) SI_UNIT ( $, .METRE. ) );
#154 =( LENGTH_UNIT ( ) NAMED_UNIT ( * ) SI_UNIT ( $, .METRE. ) );
#155 = ADVANCED_FACE ( 'NONE', ( #119 ), #240, .T. ) ;
#156 = AXIS2_PLACEMENT_3D ( 'NONE', #251, #188, #72 ) ;
#157 = FACE_OUTER_BOUND ( 'NONE', #150, .T. ) ;
#158 = PRESENTATION_LAYER_ASSIGNMENT (  '', '', ( #71 ) ) ;
#159 =( NAMED_UNIT ( * ) PLANE_ANGLE_UNIT ( ) SI_UNIT ( $, .RADIAN. ) );
#160 = EDGE_CURVE ( 'NONE', #148, #64, #229, .T. ) ;
#161 = PRODUCT_CONTEXT ( 'NONE', #172, 'mechanical' ) ;
#162 = VECTOR ( 'NONE', #131, 39.37007874015748143 ) ;
#163 = UNCERTAINTY_MEASURE_WITH_UNIT (LENGTH_MEASURE( 1.000000000000000082E-05 ), #55, 'distance_accuracy_value', 'NONE');
#164 = ORIENTED_EDGE ( 'NONE', *, *, #38, .F. ) ;
#165 = FACE_OUTER_BOUND ( 'NONE', #253, .T. ) ;
#166 = ORIENTED_EDGE ( 'NONE', *, *, #38, .T. ) ;
#167 = MANIFOLD_SOLID_BREP ( 'Revolve - Tool Body (Pointed)', #80 ) ;
#168 = ADVANCED_FACE ( 'NONE', ( #50 ), #107, .T. ) ;
#169 = ORIENTED_EDGE ( 'NONE', *, *, #173, .T. ) ;
#170 = FILL_AREA_STYLE_COLOUR ( '', #48 ) ;
#171 = PLANE ( 'NONE',  #17 ) ;
#172 = APPLICATION_CONTEXT ( 'automotive_design' ) ;
#173 = EDGE_CURVE ( 'NONE', #189, #62, #181, .T. ) ;
#174 = SURFACE_STYLE_FILL_AREA ( #120 ) ;
#175 = CIRCLE ( 'NONE', #21, 0.1562499999999999445 ) ;
#176 =( NAMED_UNIT ( * ) PLANE_ANGLE_UNIT ( ) SI_UNIT ( $, .RADIAN. ) );
#177 = FILL_AREA_STYLE ('',( #104 ) ) ;
#178 = SURFACE_STYLE_FILL_AREA ( #68 ) ;
#179 = MECHANICAL_DESIGN_GEOMETRIC_PRESENTATION_REPRESENTATION (  '', ( #89 ), #252 ) ;
#180 =( GEOMETRIC_REPRESENTATION_CONTEXT ( 3 ) GLOBAL_UNCERTAINTY_ASSIGNED_CONTEXT ( ( #54 ) ) GLOBAL_UNIT_ASSIGNED_CONTEXT ( ( #225, #125, #122 ) ) REPRESENTATION_CONTEXT ( 'NONE', 'WORKASPACE' ) );
#181 = CIRCLE ( 'NONE', #156, 0.1562499999999999445 ) ;
#182 = UNCERTAINTY_MEASURE_WITH_UNIT (LENGTH_MEASURE( 1.000000000000000082E-05 ), #199, 'distance_accuracy_value', 'NONE');
#183 = DIRECTION ( 'NONE',  ( -1.237930494036654098E-16, 1.000000000000000000, -0.000000000000000000 ) ) ;
#184 = ORIENTED_EDGE ( 'NONE', *, *, #152, .F. ) ;
#185 = PRESENTATION_LAYER_ASSIGNMENT (  '', '', ( #246 ) ) ;
#186 = PRODUCT_DEFINITION_CONTEXT ( 'detailed design', #228, 'design' ) ;
#187 = VERTEX_POINT ( 'NONE', #142 ) ;
#188 = DIRECTION ( 'NONE',  ( -1.237930494036654098E-16, 1.000000000000000000, -0.000000000000000000 ) ) ;
#189 = VERTEX_POINT ( 'NONE', #111 ) ;
#190 = CARTESIAN_POINT ( 'NONE',  ( 0.1562499999999999722, 0.2706329386826362149, 1.913510623667738847E-17 ) ) ;
#191 = DIRECTION ( 'NONE',  ( -1.237930494036654098E-16, 1.000000000000000000, 0.000000000000000000 ) ) ;
#192 = LENGTH_MEASURE_WITH_UNIT ( LENGTH_MEASURE( 0.02539999999999999897 ), #153 );
#193 = AXIS2_PLACEMENT_3D ( 'NONE', #67, #212, #18 ) ;
#194 = DIRECTION ( 'NONE',  ( -5.816148501619839219E-18, -1.000000000000000000, -0.000000000000000000 ) ) ;
#195 =( NAMED_UNIT ( * ) SI_UNIT ( $, .STERADIAN. ) SOLID_ANGLE_UNIT ( ) );
#196 =( NAMED_UNIT ( * ) SI_UNIT ( $, .STERADIAN. ) SOLID_ANGLE_UNIT ( ) );
#197 = PRODUCT_DEFINITION_SHAPE ( 'NONE', 'NONE',  #23 ) ;
#198 = CLOSED_SHELL ( 'NONE', ( #257, #168, #116 ) ) ;
#199 =( CONVERSION_BASED_UNIT ( 'INCH', #88 ) LENGTH_UNIT ( ) NAMED_UNIT ( #206 ) );
#200 = DIMENSIONAL_EXPONENTS ( 1.000000000000000000, 0.000000000000000000, 0.000000000000000000, 0.000000000000000000, 0.000000000000000000, 0.000000000000000000, 0.000000000000000000 ) ;
#201 = CARTESIAN_POINT ( 'NONE',  ( -0.1562499999999993339, 0.2706329386826361594, 0.000000000000000000 ) ) ;
#202 = PRESENTATION_LAYER_ASSIGNMENT (  '', '', ( #89 ) ) ;
#203 = SURFACE_STYLE_USAGE ( .BOTH. , #70 ) ;
#204 = ADVANCED_BREP_SHAPE_REPRESENTATION ( '84774', ( #263, #167, #46 ), #180 ) ;
#205 = DIRECTION ( 'NONE',  ( 1.000000000000000000, 0.000000000000000000, 0.000000000000000000 ) ) ;
#206 = DIMENSIONAL_EXPONENTS ( 1.000000000000000000, 0.000000000000000000, 0.000000000000000000, 0.000000000000000000, 0.000000000000000000, 0.000000000000000000, 0.000000000000000000 ) ;
#207 = ORIENTED_EDGE ( 'NONE', *, *, #173, .F. ) ;
#208 = CARTESIAN_POINT ( 'NONE',  ( -0.1562499999999998612, 2.500000000000000000, 0.000000000000000000 ) ) ;
#209 = SURFACE_STYLE_USAGE ( .BOTH. , #261 ) ;
#210 = VERTEX_POINT ( 'NONE', #190 ) ;
#211 = COLOUR_RGB ( '',1.000000000000000000, 0.000000000000000000, 0.000000000000000000 ) ;
#212 = DIRECTION ( 'NONE',  ( 5.816148501619839219E-18, 1.000000000000000000, 0.000000000000000000 ) ) ;
#213 = PRODUCT ( '84774', '84774', '', ( #161 ) ) ;
#214 = SURFACE_STYLE_FILL_AREA ( #177 ) ;
#215 = PRESENTATION_STYLE_ASSIGNMENT (( #262 ) ) ;
#216 = ADVANCED_FACE ( 'NONE', ( #165 ), #12, .T. ) ;
#217 = PRESENTATION_STYLE_ASSIGNMENT (( #209 ) ) ;
#218 = CARTESIAN_POINT ( 'NONE',  ( 3.372124867179325742E-16, 0.2706329386826362149, 0.000000000000000000 ) ) ;
#219 = AXIS2_PLACEMENT_3D ( 'NONE', #230, #57, #96 ) ;
#220 = DIMENSIONAL_EXPONENTS ( 1.000000000000000000, 0.000000000000000000, 0.000000000000000000, 0.000000000000000000, 0.000000000000000000, 0.000000000000000000, 0.000000000000000000 ) ;
#221 = PRESENTATION_STYLE_ASSIGNMENT (( #101 ) ) ;
#222 = DIMENSIONAL_EXPONENTS ( 1.000000000000000000, 0.000000000000000000, 0.000000000000000000, 0.000000000000000000, 0.000000000000000000, 0.000000000000000000, 0.000000000000000000 ) ;
#223 = EDGE_CURVE ( 'NONE', #64, #148, #36, .T. ) ;
#224 = FILL_AREA_STYLE ('',( #20 ) ) ;
#225 =( CONVERSION_BASED_UNIT ( 'INCH', #22 ) LENGTH_UNIT ( ) NAMED_UNIT ( #244 ) );
#226 = UNCERTAINTY_MEASURE_WITH_UNIT (LENGTH_MEASURE( 1.000000000000000082E-05 ), #264, 'distance_accuracy_value', 'NONE');
#227 =( GEOMETRIC_REPRESENTATION_CONTEXT ( 3 ) GLOBAL_UNCERTAINTY_ASSIGNED_CONTEXT ( ( #226 ) ) GLOBAL_UNIT_ASSIGNED_CONTEXT ( ( #264, #243, #14 ) ) REPRESENTATION_CONTEXT ( 'NONE', 'WORKASPACE' ) );
#228 = APPLICATION_CONTEXT ( 'automotive_design' ) ;
#229 = CIRCLE ( 'NONE', #10, 0.1562499999999996669 ) ;
#230 = CARTESIAN_POINT ( 'NONE',  ( 3.372124867179325742E-16, 0.2706329386826362149, 0.000000000000000000 ) ) ;
#231 = LINE ( 'NONE', #92, #4 ) ;
#232 = SHAPE_DEFINITION_REPRESENTATION ( #197, #204 ) ;
#233 = DIRECTION ( 'NONE',  ( -1.000000000000000000, 0.000000000000000000, 0.000000000000000000 ) ) ;
#234 = ORIENTED_EDGE ( 'NONE', *, *, #152, .T. ) ;
#235 = ORIENTED_EDGE ( 'NONE', *, *, #247, .T. ) ;
#236 = LINE ( 'NONE', #132, #106 ) ;
#237 = ORIENTED_EDGE ( 'NONE', *, *, #223, .T. ) ;
#238 = CARTESIAN_POINT ( 'NONE',  ( 1.574041360807988724E-18, 0.2706329386826362704, 0.000000000000000000 ) ) ;
#239 = COLOUR_RGB ( '',1.000000000000000000, 0.000000000000000000, 0.000000000000000000 ) ;
#240 = CYLINDRICAL_SURFACE ( 'NONE', #69, 0.1562499999999998057 ) ;
#241 = PRODUCT_DEFINITION_FORMATION_WITH_SPECIFIED_SOURCE ( 'ANY', '', #213, .NOT_KNOWN. ) ;
#242 = DIRECTION ( 'NONE',  ( -1.000000000000000000, 0.000000000000000000, 0.000000000000000000 ) ) ;
#243 =( NAMED_UNIT ( * ) PLANE_ANGLE_UNIT ( ) SI_UNIT ( $, .RADIAN. ) );
#244 = DIMENSIONAL_EXPONENTS ( 1.000000000000000000, 0.000000000000000000, 0.000000000000000000, 0.000000000000000000, 0.000000000000000000, 0.000000000000000000, 0.000000000000000000 ) ;
#245 = SURFACE_SIDE_STYLE ('',( #178 ) ) ;
#246 = STYLED_ITEM ( 'NONE', ( #149 ), #257 ) ;
#247 = EDGE_CURVE ( 'NONE', #29, #210, #236, .T. ) ;
#248 = DIRECTION ( 'NONE',  ( -1.237930494036654098E-16, 1.000000000000000000, -0.000000000000000000 ) ) ;
#249 = CONICAL_SURFACE ( 'NONE', #193, 22.73032555864674720, 0.5235987755983001479 ) ;
#250 = CARTESIAN_POINT ( 'NONE',  ( 1.574041360807988724E-18, 0.2706329386826362704, 0.000000000000000000 ) ) ;
#251 = CARTESIAN_POINT ( 'NONE',  ( 6.123233995736772199E-17, 2.500000000000000000, 0.000000000000000000 ) ) ;
#252 =( GEOMETRIC_REPRESENTATION_CONTEXT ( 3 ) GLOBAL_UNCERTAINTY_ASSIGNED_CONTEXT ( ( #28 ) ) GLOBAL_UNIT_ASSIGNED_CONTEXT ( ( #51, #159, #108 ) ) REPRESENTATION_CONTEXT ( 'NONE', 'WORKASPACE' ) );
#253 = EDGE_LOOP ( 'NONE', ( #129, #115, #184, #58 ) ) ;
#254 = LINE ( 'NONE', #133, #162 ) ;
#255 = CARTESIAN_POINT ( 'NONE',  ( 2.289822244732220270E-16, 39.37007874015748143, 0.000000000000000000 ) ) ;
#256 = EDGE_LOOP ( 'NONE', ( #11, #164 ) ) ;
#257 = ADVANCED_FACE ( 'NONE', ( #114 ), #52, .T. ) ;
#258 = FILL_AREA_STYLE ('',( #170 ) ) ;
#259 = ORIENTED_EDGE ( 'NONE', *, *, #49, .F. ) ;
#260 = FACE_OUTER_BOUND ( 'NONE', #95, .T. ) ;
#261 = SURFACE_SIDE_STYLE ('',( #174 ) ) ;
#262 = SURFACE_STYLE_USAGE ( .BOTH. , #41 ) ;
#263 = MANIFOLD_SOLID_BREP ( 'Revolve - Cutting Edge', #198 ) ;
#264 =( CONVERSION_BASED_UNIT ( 'INCH', #192 ) LENGTH_UNIT ( ) NAMED_UNIT ( #200 ) );
#265 =( LENGTH_UNIT ( ) NAMED_UNIT ( * ) SI_UNIT ( $, .METRE. ) );
ENDSEC;
END-ISO-10303-21;
