ISO-10303-21;
HEADER;
FILE_DESCRIPTION (( 'STEP AP214' ),
    '1' );
FILE_NAME ('81944.STEP',
    '2023-06-23T04:07:52',
    ( '' ),
    ( '' ),
    'SwSTEP 2.0',
    'SolidWorks 2023',
    '' );
FILE_SCHEMA (( 'AUTOMOTIVE_DESIGN' ));
ENDSEC;

DATA;
#1 = ADVANCED_FACE ( 'NONE', ( #99 ), #74, .T. ) ;
#2 = CARTESIAN_POINT ( 'NONE',  ( -0.3750000000000001665, 4.000000000000000000, 0.000000000000000000 ) ) ;
#3 = EDGE_CURVE ( 'NONE', #107, #187, #51, .T. ) ;
#4 =( NAMED_UNIT ( * ) SI_UNIT ( $, .STERADIAN. ) SOLID_ANGLE_UNIT ( ) );
#5 = AXIS2_PLACEMENT_3D ( 'NONE', #55, #223, #78 ) ;
#6 = DIRECTION ( 'NONE',  ( -0.000000000000000000, -1.000000000000000000, -0.000000000000000000 ) ) ;
#7 = CARTESIAN_POINT ( 'NONE',  ( 0.000000000000000000, 1.625000000000000000, 0.000000000000000000 ) ) ;
#8 = DIRECTION ( 'NONE',  ( 0.000000000000000000, 0.000000000000000000, -1.000000000000000000 ) ) ;
#9 = CIRCLE ( 'NONE', #286, 0.3750000000000001110 ) ;
#10 = STYLED_ITEM ( 'NONE', ( #233 ), #268 ) ;
#11 = CYLINDRICAL_SURFACE ( 'NONE', #56, 0.3750000000000000555 ) ;
#12 = CARTESIAN_POINT ( 'NONE',  ( 0.000000000000000000, 1.625000000000000000, -0.3750000000000000555 ) ) ;
#13 = ORIENTED_EDGE ( 'NONE', *, *, #103, .F. ) ;
#14 = CARTESIAN_POINT ( 'NONE',  ( 0.000000000000000000, 0.000000000000000000, 0.000000000000000000 ) ) ;
#15 =( NAMED_UNIT ( * ) PLANE_ANGLE_UNIT ( ) SI_UNIT ( $, .RADIAN. ) );
#16 = EDGE_LOOP ( 'NONE', ( #79, #209, #72, #85 ) ) ;
#17 =( CONVERSION_BASED_UNIT ( 'INCH', #270 ) LENGTH_UNIT ( ) NAMED_UNIT ( #146 ) );
#18 = EDGE_LOOP ( 'NONE', ( #104, #156 ) ) ;
#19 =( NAMED_UNIT ( * ) SI_UNIT ( $, .STERADIAN. ) SOLID_ANGLE_UNIT ( ) );
#20 =( LENGTH_UNIT ( ) NAMED_UNIT ( * ) SI_UNIT ( $, .METRE. ) );
#21 = DIRECTION ( 'NONE',  ( -1.000000000000000000, -2.578203787678638882E-17, 0.000000000000000000 ) ) ;
#22 = CIRCLE ( 'NONE', #251, 0.3750000000000000555 ) ;
#23 = CARTESIAN_POINT ( 'NONE',  ( 0.000000000000000000, 0.000000000000000000, 0.000000000000000000 ) ) ;
#24 = EDGE_LOOP ( 'NONE', ( #227, #127, #161, #87 ) ) ;
#25 = CARTESIAN_POINT ( 'NONE',  ( 1.246337769525090092E-34, 1.625000000000000000, 0.000000000000000000 ) ) ;
#26 =( CONVERSION_BASED_UNIT ( 'INCH', #91 ) LENGTH_UNIT ( ) NAMED_UNIT ( #43 ) );
#27 =( GEOMETRIC_REPRESENTATION_CONTEXT ( 3 ) GLOBAL_UNCERTAINTY_ASSIGNED_CONTEXT ( ( #34 ) ) GLOBAL_UNIT_ASSIGNED_CONTEXT ( ( #26, #304, #19 ) ) REPRESENTATION_CONTEXT ( 'NONE', 'WORKASPACE' ) );
#28 =( NAMED_UNIT ( * ) PLANE_ANGLE_UNIT ( ) SI_UNIT ( $, .RADIAN. ) );
#29 = UNCERTAINTY_MEASURE_WITH_UNIT (LENGTH_MEASURE( 1.000000000000000082E-05 ), #184, 'distance_accuracy_value', 'NONE');
#30 = DIRECTION ( 'NONE',  ( -1.000000000000000000, 0.000000000000000000, 0.000000000000000000 ) ) ;
#31 = DIRECTION ( 'NONE',  ( 0.000000000000000000, 0.000000000000000000, -1.000000000000000000 ) ) ;
#32 = DIRECTION ( 'NONE',  ( 0.000000000000000000, 1.000000000000000000, 0.000000000000000000 ) ) ;
#33 = FILL_AREA_STYLE_COLOUR ( '', #250 ) ;
#34 = UNCERTAINTY_MEASURE_WITH_UNIT (LENGTH_MEASURE( 1.000000000000000082E-05 ), #26, 'distance_accuracy_value', 'NONE');
#35 = LINE ( 'NONE', #115, #46 ) ;
#36 = CIRCLE ( 'NONE', #259, 0.3750000000000000555 ) ;
#37 = PRESENTATION_LAYER_ASSIGNMENT (  '', '', ( #10 ) ) ;
#38 = ORIENTED_EDGE ( 'NONE', *, *, #120, .T. ) ;
#39 = CARTESIAN_POINT ( 'NONE',  ( -0.3750000000000001665, 4.000000000000000000, 0.000000000000000000 ) ) ;
#40 = FILL_AREA_STYLE_COLOUR ( '', #101 ) ;
#41 = SURFACE_SIDE_STYLE ('',( #269 ) ) ;
#42 =( GEOMETRIC_REPRESENTATION_CONTEXT ( 3 ) GLOBAL_UNCERTAINTY_ASSIGNED_CONTEXT ( ( #29 ) ) GLOBAL_UNIT_ASSIGNED_CONTEXT ( ( #184, #308, #4 ) ) REPRESENTATION_CONTEXT ( 'NONE', 'WORKASPACE' ) );
#43 = DIMENSIONAL_EXPONENTS ( 1.000000000000000000, 0.000000000000000000, 0.000000000000000000, 0.000000000000000000, 0.000000000000000000, 0.000000000000000000, 0.000000000000000000 ) ;
#44 = EDGE_LOOP ( 'NONE', ( #48, #138 ) ) ;
#45 = FACE_OUTER_BOUND ( 'NONE', #16, .T. ) ;
#46 = VECTOR ( 'NONE', #176, 39.37007874015748143 ) ;
#47 = UNCERTAINTY_MEASURE_WITH_UNIT (LENGTH_MEASURE( 1.000000000000000082E-05 ), #228, 'distance_accuracy_value', 'NONE');
#48 = ORIENTED_EDGE ( 'NONE', *, *, #124, .T. ) ;
#49 = CARTESIAN_POINT ( 'NONE',  ( -6.123233995736766036E-17, 4.000000000000000000, 0.000000000000000000 ) ) ;
#50 = DIRECTION ( 'NONE',  ( -1.000000000000000000, 0.000000000000000000, 0.000000000000000000 ) ) ;
#51 = LINE ( 'NONE', #192, #83 ) ;
#52 = CLOSED_SHELL ( 'NONE', ( #220, #1, #199, #142 ) ) ;
#53 = EDGE_CURVE ( 'NONE', #265, #132, #9, .T. ) ;
#54 = FILL_AREA_STYLE_COLOUR ( '', #108 ) ;
#55 = CARTESIAN_POINT ( 'NONE',  ( 0.000000000000000000, 0.000000000000000000, 0.000000000000000000 ) ) ;
#56 = AXIS2_PLACEMENT_3D ( 'NONE', #14, #136, #82 ) ;
#57 = VERTEX_POINT ( 'NONE', #76 ) ;
#58 = SURFACE_SIDE_STYLE ('',( #150 ) ) ;
#59 = EDGE_CURVE ( 'NONE', #163, #265, #35, .T. ) ;
#60 = FACE_OUTER_BOUND ( 'NONE', #226, .T. ) ;
#61 = AXIS2_PLACEMENT_3D ( 'NONE', #23, #77, #31 ) ;
#62 = FILL_AREA_STYLE_COLOUR ( '', #111 ) ;
#63 = EDGE_LOOP ( 'NONE', ( #114, #185 ) ) ;
#64 = FACE_OUTER_BOUND ( 'NONE', #238, .T. ) ;
#65 = VERTEX_POINT ( 'NONE', #222 ) ;
#66 = EDGE_CURVE ( 'NONE', #65, #163, #89, .T. ) ;
#67 = DIRECTION ( 'NONE',  ( 0.000000000000000000, 0.000000000000000000, -1.000000000000000000 ) ) ;
#68 = DIRECTION ( 'NONE',  ( 0.000000000000000000, 0.000000000000000000, 1.000000000000000000 ) ) ;
#69 = SURFACE_SIDE_STYLE ('',( #262 ) ) ;
#70 = LINE ( 'NONE', #171, #92 ) ;
#71 = COLOUR_RGB ( '',0.7921568627450980005, 0.8196078431372548767, 0.9333333333333333481 ) ;
#72 = ORIENTED_EDGE ( 'NONE', *, *, #236, .T. ) ;
#73 = CARTESIAN_POINT ( 'NONE',  ( 4.592425496802575451E-17, 1.625000000000000000, 0.3750000000000000555 ) ) ;
#74 = PLANE ( 'NONE',  #276 ) ;
#75 = ADVANCED_FACE ( 'NONE', ( #45 ), #194, .T. ) ;
#76 = CARTESIAN_POINT ( 'NONE',  ( 0.000000000000000000, 0.000000000000000000, -0.3750000000000000555 ) ) ;
#77 = DIRECTION ( 'NONE',  ( -0.000000000000000000, -1.000000000000000000, -0.000000000000000000 ) ) ;
#78 = DIRECTION ( 'NONE',  ( 0.000000000000000000, 0.000000000000000000, -1.000000000000000000 ) ) ;
#79 = ORIENTED_EDGE ( 'NONE', *, *, #59, .F. ) ;
#80 = CARTESIAN_POINT ( 'NONE',  ( 1.516480271171051896E-32, 1.625000000000000000, 0.000000000000000000 ) ) ;
#81 = FILL_AREA_STYLE ('',( #217 ) ) ;
#82 = DIRECTION ( 'NONE',  ( 0.000000000000000000, 0.000000000000000000, -1.000000000000000000 ) ) ;
#83 = VECTOR ( 'NONE', #122, 39.37007874015748143 ) ;
#84 =( GEOMETRIC_REPRESENTATION_CONTEXT ( 3 ) GLOBAL_UNCERTAINTY_ASSIGNED_CONTEXT ( ( #281 ) ) GLOBAL_UNIT_ASSIGNED_CONTEXT ( ( #116, #283, #264 ) ) REPRESENTATION_CONTEXT ( 'NONE', 'WORKASPACE' ) );
#85 = ORIENTED_EDGE ( 'NONE', *, *, #53, .F. ) ;
#86 = FILL_AREA_STYLE_COLOUR ( '', #71 ) ;
#87 = ORIENTED_EDGE ( 'NONE', *, *, #196, .F. ) ;
#88 = ORIENTED_EDGE ( 'NONE', *, *, #66, .F. ) ;
#89 = CIRCLE ( 'NONE', #191, 0.3750000000000000555 ) ;
#90 = DIMENSIONAL_EXPONENTS ( 1.000000000000000000, 0.000000000000000000, 0.000000000000000000, 0.000000000000000000, 0.000000000000000000, 0.000000000000000000, 0.000000000000000000 ) ;
#91 = LENGTH_MEASURE_WITH_UNIT ( LENGTH_MEASURE( 0.02539999999999999897 ), #211 );
#92 = VECTOR ( 'NONE', #123, 39.37007874015748143 ) ;
#93 = CARTESIAN_POINT ( 'NONE',  ( 1.516480271171051896E-32, 1.625000000000000000, 0.000000000000000000 ) ) ;
#94 = MECHANICAL_DESIGN_GEOMETRIC_PRESENTATION_REPRESENTATION (  '', ( #271 ), #193 ) ;
#95 = UNCERTAINTY_MEASURE_WITH_UNIT (LENGTH_MEASURE( 1.000000000000000082E-05 ), #263, 'distance_accuracy_value', 'NONE');
#96 = SURFACE_STYLE_FILL_AREA ( #100 ) ;
#97 = DIRECTION ( 'NONE',  ( -0.000000000000000000, -1.000000000000000000, -0.000000000000000000 ) ) ;
#98 = SURFACE_SIDE_STYLE ('',( #121 ) ) ;
#99 = FACE_OUTER_BOUND ( 'NONE', #63, .T. ) ;
#100 = FILL_AREA_STYLE ('',( #54 ) ) ;
#101 = COLOUR_RGB ( '',0.7921568627450980005, 0.8196078431372548767, 0.9333333333333333481 ) ;
#102 = APPLICATION_CONTEXT ( 'automotive_design' ) ;
#103 = EDGE_CURVE ( 'NONE', #57, #187, #309, .T. ) ;
#104 = ORIENTED_EDGE ( 'NONE', *, *, #103, .T. ) ;
#105 = FILL_AREA_STYLE ('',( #62 ) ) ;
#106 = ORIENTED_EDGE ( 'NONE', *, *, #131, .F. ) ;
#107 = VERTEX_POINT ( 'NONE', #73 ) ;
#108 = COLOUR_RGB ( '',1.000000000000000000, 0.000000000000000000, 0.000000000000000000 ) ;
#109 = CARTESIAN_POINT ( 'NONE',  ( 0.000000000000000000, 0.000000000000000000, 0.000000000000000000 ) ) ;
#110 = UNCERTAINTY_MEASURE_WITH_UNIT (LENGTH_MEASURE( 1.000000000000000082E-05 ), #299, 'distance_accuracy_value', 'NONE');
#111 = COLOUR_RGB ( '',1.000000000000000000, 0.000000000000000000, 0.000000000000000000 ) ;
#112 = PLANE ( 'NONE',  #113 ) ;
#113 = AXIS2_PLACEMENT_3D ( 'NONE', #25, #237, #21 ) ;
#114 = ORIENTED_EDGE ( 'NONE', *, *, #120, .F. ) ;
#115 = CARTESIAN_POINT ( 'NONE',  ( 0.3750000000000000555, 4.000000000000000000, 4.592425496802576068E-17 ) ) ;
#116 =( CONVERSION_BASED_UNIT ( 'INCH', #282 ) LENGTH_UNIT ( ) NAMED_UNIT ( #215 ) );
#117 = SURFACE_STYLE_USAGE ( .BOTH. , #69 ) ;
#118 =( LENGTH_UNIT ( ) NAMED_UNIT ( * ) SI_UNIT ( $, .METRE. ) );
#119 = ORIENTED_EDGE ( 'NONE', *, *, #236, .F. ) ;
#120 = EDGE_CURVE ( 'NONE', #249, #107, #36, .T. ) ;
#121 = SURFACE_STYLE_FILL_AREA ( #174 ) ;
#122 = DIRECTION ( 'NONE',  ( -0.000000000000000000, -1.000000000000000000, -0.000000000000000000 ) ) ;
#123 = DIRECTION ( 'NONE',  ( -0.000000000000000000, -1.000000000000000000, -0.000000000000000000 ) ) ;
#124 = EDGE_CURVE ( 'NONE', #132, #265, #151, .T. ) ;
#125 = STYLED_ITEM ( 'NONE', ( #248 ), #199 ) ;
#126 = PRESENTATION_LAYER_ASSIGNMENT (  '', '', ( #235 ) ) ;
#127 = ORIENTED_EDGE ( 'NONE', *, *, #291, .T. ) ;
#128 = PRESENTATION_STYLE_ASSIGNMENT (( #160 ) ) ;
#129 = PRODUCT_DEFINITION_SHAPE ( 'NONE', 'NONE',  #189 ) ;
#130 =( LENGTH_UNIT ( ) NAMED_UNIT ( * ) SI_UNIT ( $, .METRE. ) );
#131 = EDGE_CURVE ( 'NONE', #249, #57, #70, .T. ) ;
#132 = VERTEX_POINT ( 'NONE', #2 ) ;
#133 = FILL_AREA_STYLE ('',( #40 ) ) ;
#134 = DIRECTION ( 'NONE',  ( 0.000000000000000000, 0.000000000000000000, -1.000000000000000000 ) ) ;
#135 = AXIS2_PLACEMENT_3D ( 'NONE', #198, #175, #245 ) ;
#136 = DIRECTION ( 'NONE',  ( -0.000000000000000000, -1.000000000000000000, -0.000000000000000000 ) ) ;
#137 = DIRECTION ( 'NONE',  ( 2.578203787678638882E-17, -1.000000000000000000, 0.000000000000000000 ) ) ;
#138 = ORIENTED_EDGE ( 'NONE', *, *, #53, .T. ) ;
#139 = PRESENTATION_STYLE_ASSIGNMENT (( #210 ) ) ;
#140 = DIRECTION ( 'NONE',  ( 1.000000000000000000, 0.000000000000000000, 0.000000000000000000 ) ) ;
#141 = DIRECTION ( 'NONE',  ( -1.000000000000000000, 0.000000000000000000, 0.000000000000000000 ) ) ;
#142 = ADVANCED_FACE ( 'NONE', ( #147 ), #290, .T. ) ;
#143 = PRESENTATION_LAYER_ASSIGNMENT (  '', '', ( #224 ) ) ;
#144 = PRODUCT_RELATED_PRODUCT_CATEGORY ( 'part', '', ( #157 ) ) ;
#145 = LENGTH_MEASURE_WITH_UNIT ( LENGTH_MEASURE( 0.02539999999999999897 ), #118 );
#146 = DIMENSIONAL_EXPONENTS ( 1.000000000000000000, 0.000000000000000000, 0.000000000000000000, 0.000000000000000000, 0.000000000000000000, 0.000000000000000000, 0.000000000000000000 ) ;
#147 = FACE_OUTER_BOUND ( 'NONE', #18, .T. ) ;
#148 = DIRECTION ( 'NONE',  ( 0.000000000000000000, 0.000000000000000000, -1.000000000000000000 ) ) ;
#149 = PRESENTATION_LAYER_ASSIGNMENT (  '', '', ( #125 ) ) ;
#150 = SURFACE_STYLE_FILL_AREA ( #105 ) ;
#151 = CIRCLE ( 'NONE', #135, 0.3750000000000001110 ) ;
#152 = AXIS2_PLACEMENT_3D ( 'NONE', #109, #68, #140 ) ;
#153 = DIRECTION ( 'NONE',  ( -2.578203787678638882E-17, 1.000000000000000000, -0.000000000000000000 ) ) ;
#154 = LINE ( 'NONE', #39, #298 ) ;
#155 = EDGE_CURVE ( 'NONE', #163, #65, #168, .T. ) ;
#156 = ORIENTED_EDGE ( 'NONE', *, *, #196, .T. ) ;
#157 = PRODUCT ( '81944', '81944', '', ( #190 ) ) ;
#158 = LENGTH_MEASURE_WITH_UNIT ( LENGTH_MEASURE( 0.02539999999999999897 ), #130 );
#159 = ADVANCED_BREP_SHAPE_REPRESENTATION ( '81944', ( #166, #268, #152 ), #84 ) ;
#160 = SURFACE_STYLE_USAGE ( .BOTH. , #58 ) ;
#161 = ORIENTED_EDGE ( 'NONE', *, *, #131, .T. ) ;
#162 = AXIS2_PLACEMENT_3D ( 'NONE', #197, #244, #50 ) ;
#163 = VERTEX_POINT ( 'NONE', #272 ) ;
#164 = FACE_OUTER_BOUND ( 'NONE', #44, .T. ) ;
#165 = SURFACE_STYLE_USAGE ( .BOTH. , #300 ) ;
#166 = MANIFOLD_SOLID_BREP ( 'Revolve - Cutting Edge', #52 ) ;
#167 = DIRECTION ( 'NONE',  ( -0.000000000000000000, -1.000000000000000000, -0.000000000000000000 ) ) ;
#168 = CIRCLE ( 'NONE', #296, 0.3750000000000000555 ) ;
#169 = MECHANICAL_DESIGN_GEOMETRIC_PRESENTATION_REPRESENTATION (  '', ( #235 ), #246 ) ;
#170 = APPLICATION_PROTOCOL_DEFINITION ( 'draft international standard', 'automotive_design', 1998, #102 ) ;
#171 = CARTESIAN_POINT ( 'NONE',  ( 0.000000000000000000, 0.000000000000000000, -0.3750000000000000555 ) ) ;
#172 =( GEOMETRIC_REPRESENTATION_CONTEXT ( 3 ) GLOBAL_UNCERTAINTY_ASSIGNED_CONTEXT ( ( #110 ) ) GLOBAL_UNIT_ASSIGNED_CONTEXT ( ( #299, #278, #243 ) ) REPRESENTATION_CONTEXT ( 'NONE', 'WORKASPACE' ) );
#173 = PRESENTATION_STYLE_ASSIGNMENT (( #266 ) ) ;
#174 = FILL_AREA_STYLE ('',( #33 ) ) ;
#175 = DIRECTION ( 'NONE',  ( -2.578203787678638882E-17, 1.000000000000000000, -0.000000000000000000 ) ) ;
#176 = DIRECTION ( 'NONE',  ( -2.578203787678638882E-17, 1.000000000000000000, -0.000000000000000000 ) ) ;
#177 = AXIS2_PLACEMENT_3D ( 'NONE', #257, #137, #232 ) ;
#178 = SURFACE_STYLE_USAGE ( .BOTH. , #98 ) ;
#179 = PLANE ( 'NONE',  #177 ) ;
#180 = FILL_AREA_STYLE ('',( #86 ) ) ;
#181 = ADVANCED_FACE ( 'NONE', ( #164 ), #179, .F. ) ;
#182 = DIRECTION ( 'NONE',  ( -0.000000000000000000, -1.000000000000000000, -0.000000000000000000 ) ) ;
#183 = AXIS2_PLACEMENT_3D ( 'NONE', #287, #97, #148 ) ;
#184 =( CONVERSION_BASED_UNIT ( 'INCH', #225 ) LENGTH_UNIT ( ) NAMED_UNIT ( #90 ) );
#185 = ORIENTED_EDGE ( 'NONE', *, *, #291, .F. ) ;
#186 =( NAMED_UNIT ( * ) PLANE_ANGLE_UNIT ( ) SI_UNIT ( $, .RADIAN. ) );
#187 = VERTEX_POINT ( 'NONE', #284 ) ;
#188 = COLOUR_RGB ( '',1.000000000000000000, 0.000000000000000000, 0.000000000000000000 ) ;
#189 = PRODUCT_DEFINITION ( 'UNKNOWN', '', #195, #221 ) ;
#190 = PRODUCT_CONTEXT ( 'NONE', #102, 'mechanical' ) ;
#191 = AXIS2_PLACEMENT_3D ( 'NONE', #93, #285, #30 ) ;
#192 = CARTESIAN_POINT ( 'NONE',  ( 4.592425496802575451E-17, 0.000000000000000000, 0.3750000000000000555 ) ) ;
#193 =( GEOMETRIC_REPRESENTATION_CONTEXT ( 3 ) GLOBAL_UNCERTAINTY_ASSIGNED_CONTEXT ( ( #95 ) ) GLOBAL_UNIT_ASSIGNED_CONTEXT ( ( #263, #28, #293 ) ) REPRESENTATION_CONTEXT ( 'NONE', 'WORKASPACE' ) );
#194 = CYLINDRICAL_SURFACE ( 'NONE', #162, 0.3750000000000001110 ) ;
#195 = PRODUCT_DEFINITION_FORMATION_WITH_SPECIFIED_SOURCE ( 'ANY', '', #157, .NOT_KNOWN. ) ;
#196 = EDGE_CURVE ( 'NONE', #187, #57, #201, .T. ) ;
#197 = CARTESIAN_POINT ( 'NONE',  ( -6.123233995736766036E-17, 4.000000000000000000, 0.000000000000000000 ) ) ;
#198 = CARTESIAN_POINT ( 'NONE',  ( -6.123233995736766036E-17, 4.000000000000000000, 0.000000000000000000 ) ) ;
#199 = ADVANCED_FACE ( 'NONE', ( #288 ), #11, .T. ) ;
#200 = SURFACE_SIDE_STYLE ('',( #96 ) ) ;
#201 = CIRCLE ( 'NONE', #61, 0.3750000000000000555 ) ;
#202 = STYLED_ITEM ( 'NONE', ( #139 ), #166 ) ;
#203 = APPLICATION_CONTEXT ( 'automotive_design' ) ;
#204 = ORIENTED_EDGE ( 'NONE', *, *, #66, .T. ) ;
#205 = LENGTH_MEASURE_WITH_UNIT ( LENGTH_MEASURE( 0.02539999999999999897 ), #20 );
#206 = MECHANICAL_DESIGN_GEOMETRIC_PRESENTATION_REPRESENTATION (  '', ( #202 ), #27 ) ;
#207 = SURFACE_STYLE_FILL_AREA ( #180 ) ;
#208 = PRESENTATION_LAYER_ASSIGNMENT (  '', '', ( #202 ) ) ;
#209 = ORIENTED_EDGE ( 'NONE', *, *, #155, .T. ) ;
#210 = SURFACE_STYLE_USAGE ( .BOTH. , #41 ) ;
#211 =( LENGTH_UNIT ( ) NAMED_UNIT ( * ) SI_UNIT ( $, .METRE. ) );
#212 = FACE_OUTER_BOUND ( 'NONE', #292, .T. ) ;
#213 = ORIENTED_EDGE ( 'NONE', *, *, #3, .T. ) ;
#214 =( GEOMETRIC_REPRESENTATION_CONTEXT ( 3 ) GLOBAL_UNCERTAINTY_ASSIGNED_CONTEXT ( ( #289 ) ) GLOBAL_UNIT_ASSIGNED_CONTEXT ( ( #17, #186, #255 ) ) REPRESENTATION_CONTEXT ( 'NONE', 'WORKASPACE' ) );
#215 = DIMENSIONAL_EXPONENTS ( 1.000000000000000000, 0.000000000000000000, 0.000000000000000000, 0.000000000000000000, 0.000000000000000000, 0.000000000000000000, 0.000000000000000000 ) ;
#216 =( LENGTH_UNIT ( ) NAMED_UNIT ( * ) SI_UNIT ( $, .METRE. ) );
#217 = FILL_AREA_STYLE_COLOUR ( '', #188 ) ;
#218 = CLOSED_SHELL ( 'NONE', ( #274, #297, #75, #181 ) ) ;
#219 = DIRECTION ( 'NONE',  ( -2.578203787678638882E-17, 1.000000000000000000, -0.000000000000000000 ) ) ;
#220 = ADVANCED_FACE ( 'NONE', ( #60 ), #273, .T. ) ;
#221 = PRODUCT_DEFINITION_CONTEXT ( 'detailed design', #203, 'design' ) ;
#222 = CARTESIAN_POINT ( 'NONE',  ( -0.3750000000000000555, 1.625000000000000000, 0.000000000000000000 ) ) ;
#223 = DIRECTION ( 'NONE',  ( 0.000000000000000000, -1.000000000000000000, -0.000000000000000000 ) ) ;
#224 = STYLED_ITEM ( 'NONE', ( #230 ), #1 ) ;
#225 = LENGTH_MEASURE_WITH_UNIT ( LENGTH_MEASURE( 0.02539999999999999897 ), #302 );
#226 = EDGE_LOOP ( 'NONE', ( #38, #213, #13, #106 ) ) ;
#227 = ORIENTED_EDGE ( 'NONE', *, *, #3, .F. ) ;
#228 =( CONVERSION_BASED_UNIT ( 'INCH', #158 ) LENGTH_UNIT ( ) NAMED_UNIT ( #279 ) );
#229 = MECHANICAL_DESIGN_GEOMETRIC_PRESENTATION_REPRESENTATION (  '', ( #10 ), #172 ) ;
#230 = PRESENTATION_STYLE_ASSIGNMENT (( #117 ) ) ;
#231 = DIRECTION ( 'NONE',  ( -2.578203787678638882E-17, 1.000000000000000000, -0.000000000000000000 ) ) ;
#232 = DIRECTION ( 'NONE',  ( 1.000000000000000000, 2.578203787678638882E-17, 0.000000000000000000 ) ) ;
#233 = PRESENTATION_STYLE_ASSIGNMENT (( #165 ) ) ;
#234 = SHAPE_DEFINITION_REPRESENTATION ( #129, #159 ) ;
#235 = STYLED_ITEM ( 'NONE', ( #128 ), #220 ) ;
#236 = EDGE_CURVE ( 'NONE', #65, #132, #154, .T. ) ;
#237 = DIRECTION ( 'NONE',  ( -2.578203787678638882E-17, 1.000000000000000000, 0.000000000000000000 ) ) ;
#238 = EDGE_LOOP ( 'NONE', ( #88, #301 ) ) ;
#239 = CARTESIAN_POINT ( 'NONE',  ( 0.000000000000000000, 1.625000000000000000, 0.000000000000000000 ) ) ;
#240 = APPLICATION_PROTOCOL_DEFINITION ( 'draft international standard', 'automotive_design', 1998, #203 ) ;
#241 = PRESENTATION_LAYER_ASSIGNMENT (  '', '', ( #271 ) ) ;
#242 = DIRECTION ( 'NONE',  ( 0.000000000000000000, -0.000000000000000000, 1.000000000000000000 ) ) ;
#243 =( NAMED_UNIT ( * ) SI_UNIT ( $, .STERADIAN. ) SOLID_ANGLE_UNIT ( ) );
#244 = DIRECTION ( 'NONE',  ( -2.578203787678638882E-17, 1.000000000000000000, -0.000000000000000000 ) ) ;
#245 = DIRECTION ( 'NONE',  ( -1.000000000000000000, 0.000000000000000000, 0.000000000000000000 ) ) ;
#246 =( GEOMETRIC_REPRESENTATION_CONTEXT ( 3 ) GLOBAL_UNCERTAINTY_ASSIGNED_CONTEXT ( ( #47 ) ) GLOBAL_UNIT_ASSIGNED_CONTEXT ( ( #228, #15, #295 ) ) REPRESENTATION_CONTEXT ( 'NONE', 'WORKASPACE' ) );
#247 = CARTESIAN_POINT ( 'NONE',  ( 0.000000000000000000, 1.625000000000000000, 0.000000000000000000 ) ) ;
#248 = PRESENTATION_STYLE_ASSIGNMENT (( #178 ) ) ;
#249 = VERTEX_POINT ( 'NONE', #12 ) ;
#250 = COLOUR_RGB ( '',1.000000000000000000, 0.000000000000000000, 0.000000000000000000 ) ;
#251 = AXIS2_PLACEMENT_3D ( 'NONE', #239, #167, #67 ) ;
#252 = DIRECTION ( 'NONE',  ( -1.000000000000000000, 0.000000000000000000, 0.000000000000000000 ) ) ;
#253 = CYLINDRICAL_SURFACE ( 'NONE', #305, 0.3750000000000001110 ) ;
#254 = ORIENTED_EDGE ( 'NONE', *, *, #124, .F. ) ;
#255 =( NAMED_UNIT ( * ) SI_UNIT ( $, .STERADIAN. ) SOLID_ANGLE_UNIT ( ) );
#256 = MECHANICAL_DESIGN_GEOMETRIC_PRESENTATION_REPRESENTATION (  '', ( #125 ), #214 ) ;
#257 = CARTESIAN_POINT ( 'NONE',  ( 0.3750000000000000555, 4.000000000000000000, 0.000000000000000000 ) ) ;
#258 = CARTESIAN_POINT ( 'NONE',  ( 0.000000000000000000, 0.000000000000000000, 0.000000000000000000 ) ) ;
#259 = AXIS2_PLACEMENT_3D ( 'NONE', #247, #6, #8 ) ;
#260 = DIMENSIONAL_EXPONENTS ( 1.000000000000000000, 0.000000000000000000, 0.000000000000000000, 0.000000000000000000, 0.000000000000000000, 0.000000000000000000, 0.000000000000000000 ) ;
#261 = CARTESIAN_POINT ( 'NONE',  ( -6.123233995736766036E-17, 4.000000000000000000, 0.000000000000000000 ) ) ;
#262 = SURFACE_STYLE_FILL_AREA ( #81 ) ;
#263 =( CONVERSION_BASED_UNIT ( 'INCH', #145 ) LENGTH_UNIT ( ) NAMED_UNIT ( #260 ) );
#264 =( NAMED_UNIT ( * ) SI_UNIT ( $, .STERADIAN. ) SOLID_ANGLE_UNIT ( ) );
#265 = VERTEX_POINT ( 'NONE', #303 ) ;
#266 = SURFACE_STYLE_USAGE ( .BOTH. , #200 ) ;
#267 = DIRECTION ( 'NONE',  ( -1.000000000000000000, 0.000000000000000000, 0.000000000000000000 ) ) ;
#268 = MANIFOLD_SOLID_BREP ( 'Revolve - Tool Body (Straight Shanked)', #218 ) ;
#269 = SURFACE_STYLE_FILL_AREA ( #133 ) ;
#270 = LENGTH_MEASURE_WITH_UNIT ( LENGTH_MEASURE( 0.02539999999999999897 ), #294 );
#271 = STYLED_ITEM ( 'NONE', ( #173 ), #142 ) ;
#272 = CARTESIAN_POINT ( 'NONE',  ( 0.3750000000000000555, 1.625000000000000000, 4.592425496802576068E-17 ) ) ;
#273 = CYLINDRICAL_SURFACE ( 'NONE', #277, 0.3750000000000000555 ) ;
#274 = ADVANCED_FACE ( 'NONE', ( #212 ), #253, .T. ) ;
#275 = ORIENTED_EDGE ( 'NONE', *, *, #59, .T. ) ;
#276 = AXIS2_PLACEMENT_3D ( 'NONE', #7, #32, #242 ) ;
#277 = AXIS2_PLACEMENT_3D ( 'NONE', #258, #182, #134 ) ;
#278 =( NAMED_UNIT ( * ) PLANE_ANGLE_UNIT ( ) SI_UNIT ( $, .RADIAN. ) );
#279 = DIMENSIONAL_EXPONENTS ( 1.000000000000000000, 0.000000000000000000, 0.000000000000000000, 0.000000000000000000, 0.000000000000000000, 0.000000000000000000, 0.000000000000000000 ) ;
#280 = MECHANICAL_DESIGN_GEOMETRIC_PRESENTATION_REPRESENTATION (  '', ( #224 ), #42 ) ;
#281 = UNCERTAINTY_MEASURE_WITH_UNIT (LENGTH_MEASURE( 1.000000000000000082E-05 ), #116, 'distance_accuracy_value', 'NONE');
#282 = LENGTH_MEASURE_WITH_UNIT ( LENGTH_MEASURE( 0.02539999999999999897 ), #216 );
#283 =( NAMED_UNIT ( * ) PLANE_ANGLE_UNIT ( ) SI_UNIT ( $, .RADIAN. ) );
#284 = CARTESIAN_POINT ( 'NONE',  ( 4.592425496802575451E-17, 0.000000000000000000, 0.3750000000000000555 ) ) ;
#285 = DIRECTION ( 'NONE',  ( -2.578203787678638882E-17, 1.000000000000000000, -0.000000000000000000 ) ) ;
#286 = AXIS2_PLACEMENT_3D ( 'NONE', #49, #219, #267 ) ;
#287 = CARTESIAN_POINT ( 'NONE',  ( 0.000000000000000000, 0.000000000000000000, 0.000000000000000000 ) ) ;
#288 = FACE_OUTER_BOUND ( 'NONE', #24, .T. ) ;
#289 = UNCERTAINTY_MEASURE_WITH_UNIT (LENGTH_MEASURE( 1.000000000000000082E-05 ), #17, 'distance_accuracy_value', 'NONE');
#290 = PLANE ( 'NONE',  #5 ) ;
#291 = EDGE_CURVE ( 'NONE', #107, #249, #22, .T. ) ;
#292 = EDGE_LOOP ( 'NONE', ( #204, #275, #254, #119 ) ) ;
#293 =( NAMED_UNIT ( * ) SI_UNIT ( $, .STERADIAN. ) SOLID_ANGLE_UNIT ( ) );
#294 =( LENGTH_UNIT ( ) NAMED_UNIT ( * ) SI_UNIT ( $, .METRE. ) );
#295 =( NAMED_UNIT ( * ) SI_UNIT ( $, .STERADIAN. ) SOLID_ANGLE_UNIT ( ) );
#296 = AXIS2_PLACEMENT_3D ( 'NONE', #80, #153, #252 ) ;
#297 = ADVANCED_FACE ( 'NONE', ( #64 ), #112, .F. ) ;
#298 = VECTOR ( 'NONE', #231, 39.37007874015748143 ) ;
#299 =( CONVERSION_BASED_UNIT ( 'INCH', #205 ) LENGTH_UNIT ( ) NAMED_UNIT ( #307 ) );
#300 = SURFACE_SIDE_STYLE ('',( #207 ) ) ;
#301 = ORIENTED_EDGE ( 'NONE', *, *, #155, .F. ) ;
#302 =( LENGTH_UNIT ( ) NAMED_UNIT ( * ) SI_UNIT ( $, .METRE. ) );
#303 = CARTESIAN_POINT ( 'NONE',  ( 0.3750000000000000555, 4.000000000000000000, 4.592425496802576068E-17 ) ) ;
#304 =( NAMED_UNIT ( * ) PLANE_ANGLE_UNIT ( ) SI_UNIT ( $, .RADIAN. ) );
#305 = AXIS2_PLACEMENT_3D ( 'NONE', #261, #306, #141 ) ;
#306 = DIRECTION ( 'NONE',  ( -2.578203787678638882E-17, 1.000000000000000000, -0.000000000000000000 ) ) ;
#307 = DIMENSIONAL_EXPONENTS ( 1.000000000000000000, 0.000000000000000000, 0.000000000000000000, 0.000000000000000000, 0.000000000000000000, 0.000000000000000000, 0.000000000000000000 ) ;
#308 =( NAMED_UNIT ( * ) PLANE_ANGLE_UNIT ( ) SI_UNIT ( $, .RADIAN. ) );
#309 = CIRCLE ( 'NONE', #183, 0.3750000000000000555 ) ;
ENDSEC;
END-ISO-10303-21;
