ISO-10303-21;
HEADER;
FILE_DESCRIPTION (( 'STEP AP214' ),
    '1' );
FILE_NAME ('59783.STEP',
    '2023-07-24T15:38:54',
    ( '' ),
    ( '' ),
    'SwSTEP 2.0',
    'SolidWorks 2023',
    '' );
FILE_SCHEMA (( 'AUTOMOTIVE_DESIGN' ));
ENDSEC;

DATA;
#1 = DIRECTION ( 'NONE',  ( 0.000000000000000000, -0.000000000000000000, 1.000000000000000000 ) ) ;
#2 = LINE ( 'NONE', #89, #357 ) ;
#3 = DIRECTION ( 'NONE',  ( -0.000000000000000000, -1.000000000000000000, -0.000000000000000000 ) ) ;
#4 = MECHANICAL_DESIGN_GEOMETRIC_PRESENTATION_REPRESENTATION (  '', ( #13 ), #53 ) ;
#5 = CIRCLE ( 'NONE', #303, 8.000000000000000000 ) ;
#6 =( NAMED_UNIT ( * ) PLANE_ANGLE_UNIT ( ) SI_UNIT ( $, .RADIAN. ) );
#7 = FILL_AREA_STYLE ('',( #344 ) ) ;
#8 = SURFACE_SIDE_STYLE ('',( #205 ) ) ;
#9 = SURFACE_SIDE_STYLE ('',( #63 ) ) ;
#10 = CARTESIAN_POINT ( 'NONE',  ( 0.000000000000000000, 1.000000000000000000, 0.000000000000000000 ) ) ;
#11 =( NAMED_UNIT ( * ) SI_UNIT ( $, .STERADIAN. ) SOLID_ANGLE_UNIT ( ) );
#12 = MANIFOLD_SOLID_BREP ( 'Revolve - Tool Body (Straight Shanked)', #142 ) ;
#13 = STYLED_ITEM ( 'NONE', ( #65 ), #30 ) ;
#14 = CARTESIAN_POINT ( 'NONE',  ( 4.553649124439118623E-15, 40.00000000000000000, 0.000000000000000000 ) ) ;
#15 =( GEOMETRIC_REPRESENTATION_CONTEXT ( 3 ) GLOBAL_UNCERTAINTY_ASSIGNED_CONTEXT ( ( #249 ) ) GLOBAL_UNIT_ASSIGNED_CONTEXT ( ( #186, #99, #159 ) ) REPRESENTATION_CONTEXT ( 'NONE', 'WORKASPACE' ) );
#16 =( GEOMETRIC_REPRESENTATION_CONTEXT ( 3 ) GLOBAL_UNCERTAINTY_ASSIGNED_CONTEXT ( ( #274 ) ) GLOBAL_UNIT_ASSIGNED_CONTEXT ( ( #181, #178, #11 ) ) REPRESENTATION_CONTEXT ( 'NONE', 'WORKASPACE' ) );
#17 = PRODUCT_DEFINITION ( 'UNKNOWN', '', #33, #188 ) ;
#18 =( NAMED_UNIT ( * ) SI_UNIT ( $, .STERADIAN. ) SOLID_ANGLE_UNIT ( ) );
#19 = PLANE ( 'NONE',  #106 ) ;
#20 = PRODUCT_RELATED_PRODUCT_CATEGORY ( 'part', '', ( #324 ) ) ;
#21 = CARTESIAN_POINT ( 'NONE',  ( -8.000000000000003553, 89.00000000000000000, 0.000000000000000000 ) ) ;
#22 = VECTOR ( 'NONE', #173, 1000.000000000000000 ) ;
#23 = STYLED_ITEM ( 'NONE', ( #40 ), #312 ) ;
#24 = ORIENTED_EDGE ( 'NONE', *, *, #160, .T. ) ;
#25 = EDGE_CURVE ( 'NONE', #329, #107, #91, .T. ) ;
#26 = DIRECTION ( 'NONE',  ( -0.000000000000000000, -1.000000000000000000, -0.000000000000000000 ) ) ;
#27 = EDGE_LOOP ( 'NONE', ( #198, #191 ) ) ;
#28 = VERTEX_POINT ( 'NONE', #146 ) ;
#29 = CARTESIAN_POINT ( 'NONE',  ( -7.999999999999989342, 40.00000000000000000, 0.000000000000000000 ) ) ;
#30 = ADVANCED_FACE ( 'NONE', ( #229 ), #310, .T. ) ;
#31 = CLOSED_SHELL ( 'NONE', ( #30, #343, #235, #239, #312, #37 ) ) ;
#32 = CYLINDRICAL_SURFACE ( 'NONE', #190, 8.000000000000000000 ) ;
#33 = PRODUCT_DEFINITION_FORMATION_WITH_SPECIFIED_SOURCE ( 'ANY', '', #324, .NOT_KNOWN. ) ;
#34 = DIRECTION ( 'NONE',  ( -1.279215233315390572E-16, 1.000000000000000000, -0.000000000000000000 ) ) ;
#35 = SURFACE_STYLE_USAGE ( .BOTH. , #289 ) ;
#36 =( LENGTH_UNIT ( ) NAMED_UNIT ( * ) SI_UNIT ( .MILLI., .METRE. ) );
#37 = ADVANCED_FACE ( 'NONE', ( #118 ), #259, .T. ) ;
#38 =( GEOMETRIC_REPRESENTATION_CONTEXT ( 3 ) GLOBAL_UNCERTAINTY_ASSIGNED_CONTEXT ( ( #354 ) ) GLOBAL_UNIT_ASSIGNED_CONTEXT ( ( #121, #291, #66 ) ) REPRESENTATION_CONTEXT ( 'NONE', 'WORKASPACE' ) );
#39 = ORIENTED_EDGE ( 'NONE', *, *, #56, .T. ) ;
#40 = PRESENTATION_STYLE_ASSIGNMENT (( #271 ) ) ;
#41 = SURFACE_SIDE_STYLE ('',( #79 ) ) ;
#42 = DIRECTION ( 'NONE',  ( 0.000000000000000000, 0.000000000000000000, -1.000000000000000000 ) ) ;
#43 = DIRECTION ( 'NONE',  ( 0.000000000000000000, 0.000000000000000000, -1.000000000000000000 ) ) ;
#44 = UNCERTAINTY_MEASURE_WITH_UNIT (LENGTH_MEASURE( 1.000000000000000082E-05 ), #337, 'distance_accuracy_value', 'NONE');
#45 = DIRECTION ( 'NONE',  ( -1.224646799147353454E-16, 0.000000000000000000, -1.000000000000000000 ) ) ;
#46 = DIRECTION ( 'NONE',  ( 0.000000000000000000, 0.000000000000000000, -1.000000000000000000 ) ) ;
#47 = APPLICATION_PROTOCOL_DEFINITION ( 'draft international standard', 'automotive_design', 1998, #284 ) ;
#48 = PRESENTATION_LAYER_ASSIGNMENT (  '', '', ( #13 ) ) ;
#49 = COLOUR_RGB ( '',1.000000000000000000, 0.000000000000000000, 0.000000000000000000 ) ;
#50 = ORIENTED_EDGE ( 'NONE', *, *, #328, .F. ) ;
#51 = DIRECTION ( 'NONE',  ( 0.000000000000000000, 0.000000000000000000, -1.000000000000000000 ) ) ;
#52 = ORIENTED_EDGE ( 'NONE', *, *, #174, .T. ) ;
#53 =( GEOMETRIC_REPRESENTATION_CONTEXT ( 3 ) GLOBAL_UNCERTAINTY_ASSIGNED_CONTEXT ( ( #321 ) ) GLOBAL_UNIT_ASSIGNED_CONTEXT ( ( #36, #6, #123 ) ) REPRESENTATION_CONTEXT ( 'NONE', 'WORKASPACE' ) );
#54 = AXIS2_PLACEMENT_3D ( 'NONE', #241, #167, #117 ) ;
#55 = FILL_AREA_STYLE_COLOUR ( '', #131 ) ;
#56 = EDGE_CURVE ( 'NONE', #365, #211, #2, .T. ) ;
#57 = FILL_AREA_STYLE ('',( #165 ) ) ;
#58 = SURFACE_STYLE_FILL_AREA ( #116 ) ;
#59 = PRESENTATION_LAYER_ASSIGNMENT (  '', '', ( #336 ) ) ;
#60 = AXIS2_PLACEMENT_3D ( 'NONE', #242, #342, #45 ) ;
#61 = PRESENTATION_STYLE_ASSIGNMENT (( #35 ) ) ;
#62 =( NAMED_UNIT ( * ) PLANE_ANGLE_UNIT ( ) SI_UNIT ( $, .RADIAN. ) );
#63 = SURFACE_STYLE_FILL_AREA ( #7 ) ;
#64 = PRODUCT_DEFINITION_SHAPE ( 'NONE', 'NONE',  #17 ) ;
#65 = PRESENTATION_STYLE_ASSIGNMENT (( #236 ) ) ;
#66 =( NAMED_UNIT ( * ) SI_UNIT ( $, .STERADIAN. ) SOLID_ANGLE_UNIT ( ) );
#67 = SURFACE_STYLE_USAGE ( .BOTH. , #8 ) ;
#68 = ORIENTED_EDGE ( 'NONE', *, *, #316, .T. ) ;
#69 = CARTESIAN_POINT ( 'NONE',  ( 8.000000000000000000, 89.00000000000000000, 9.797174393178825657E-16 ) ) ;
#70 = COLOUR_RGB ( '',0.7921568627450980005, 0.8196078431372548767, 0.9333333333333333481 ) ;
#71 = PRESENTATION_LAYER_ASSIGNMENT (  '', '', ( #318 ) ) ;
#72 =( LENGTH_UNIT ( ) NAMED_UNIT ( * ) SI_UNIT ( .MILLI., .METRE. ) );
#73 = ORIENTED_EDGE ( 'NONE', *, *, #244, .F. ) ;
#74 = CARTESIAN_POINT ( 'NONE',  ( 0.000000000000000000, 40.00000000000000000, -8.000000000000000000 ) ) ;
#75 = DIRECTION ( 'NONE',  ( 0.000000000000000000, 0.000000000000000000, 1.000000000000000000 ) ) ;
#76 =( LENGTH_UNIT ( ) NAMED_UNIT ( * ) SI_UNIT ( .MILLI., .METRE. ) );
#77 = DIRECTION ( 'NONE',  ( -1.279215233315390572E-16, 1.000000000000000000, -0.000000000000000000 ) ) ;
#78 = UNCERTAINTY_MEASURE_WITH_UNIT (LENGTH_MEASURE( 1.000000000000000082E-05 ), #76, 'distance_accuracy_value', 'NONE');
#79 = SURFACE_STYLE_FILL_AREA ( #353 ) ;
#80 = COLOUR_RGB ( '',1.000000000000000000, 0.000000000000000000, 0.000000000000000000 ) ;
#81 = AXIS2_PLACEMENT_3D ( 'NONE', #266, #182, #322 ) ;
#82 = ORIENTED_EDGE ( 'NONE', *, *, #215, .T. ) ;
#83 = EDGE_CURVE ( 'NONE', #175, #147, #231, .T. ) ;
#84 = DIRECTION ( 'NONE',  ( -1.000000000000000000, -1.279215233315390572E-16, 0.000000000000000000 ) ) ;
#85 = EDGE_LOOP ( 'NONE', ( #217, #263, #113, #111 ) ) ;
#86 = AXIS2_PLACEMENT_3D ( 'NONE', #260, #136, #51 ) ;
#87 = DIRECTION ( 'NONE',  ( -1.000000000000000000, 0.000000000000000000, 0.000000000000000000 ) ) ;
#88 = ORIENTED_EDGE ( 'NONE', *, *, #275, .F. ) ;
#89 = CARTESIAN_POINT ( 'NONE',  ( 0.000000000000000000, 0.000000000000000000, -8.000000000000000000 ) ) ;
#90 = CARTESIAN_POINT ( 'NONE',  ( 0.000000000000000000, 1.000000000000000000, 0.000000000000000000 ) ) ;
#91 = CIRCLE ( 'NONE', #255, 8.000000000000001776 ) ;
#92 = STYLED_ITEM ( 'NONE', ( #204 ), #343 ) ;
#93 =( NAMED_UNIT ( * ) PLANE_ANGLE_UNIT ( ) SI_UNIT ( $, .RADIAN. ) );
#94 = CARTESIAN_POINT ( 'NONE',  ( 0.000000000000000000, 1.000000000000000000, 0.000000000000000000 ) ) ;
#95 = ORIENTED_EDGE ( 'NONE', *, *, #160, .F. ) ;
#96 =( GEOMETRIC_REPRESENTATION_CONTEXT ( 3 ) GLOBAL_UNCERTAINTY_ASSIGNED_CONTEXT ( ( #218 ) ) GLOBAL_UNIT_ASSIGNED_CONTEXT ( ( #199, #93, #144 ) ) REPRESENTATION_CONTEXT ( 'NONE', 'WORKASPACE' ) );
#97 = FACE_OUTER_BOUND ( 'NONE', #196, .T. ) ;
#98 = SURFACE_STYLE_USAGE ( .BOTH. , #41 ) ;
#99 =( NAMED_UNIT ( * ) PLANE_ANGLE_UNIT ( ) SI_UNIT ( $, .RADIAN. ) );
#100 =( GEOMETRIC_REPRESENTATION_CONTEXT ( 3 ) GLOBAL_UNCERTAINTY_ASSIGNED_CONTEXT ( ( #132 ) ) GLOBAL_UNIT_ASSIGNED_CONTEXT ( ( #72, #294, #140 ) ) REPRESENTATION_CONTEXT ( 'NONE', 'WORKASPACE' ) );
#101 = DIRECTION ( 'NONE',  ( 1.279215233315390572E-16, -1.000000000000000000, 0.000000000000000000 ) ) ;
#102 = CIRCLE ( 'NONE', #177, 8.000000000000000000 ) ;
#103 = TOROIDAL_SURFACE ( 'NONE', #326, 7.000000000000000000, 1.000000000000000000 ) ;
#104 = EDGE_CURVE ( 'NONE', #107, #329, #348, .T. ) ;
#105 = PRODUCT_CONTEXT ( 'NONE', #284, 'mechanical' ) ;
#106 = AXIS2_PLACEMENT_3D ( 'NONE', #245, #101, #272 ) ;
#107 = VERTEX_POINT ( 'NONE', #21 ) ;
#108 = CARTESIAN_POINT ( 'NONE',  ( 0.000000000000000000, 0.000000000000000000, 0.000000000000000000 ) ) ;
#109 = ORIENTED_EDGE ( 'NONE', *, *, #316, .F. ) ;
#110 = DIRECTION ( 'NONE',  ( -1.279215233315390572E-16, 1.000000000000000000, -0.000000000000000000 ) ) ;
#111 = ORIENTED_EDGE ( 'NONE', *, *, #56, .F. ) ;
#112 = CARTESIAN_POINT ( 'NONE',  ( 4.553649124439119412E-15, 40.00000000000000000, 0.000000000000000000 ) ) ;
#113 = ORIENTED_EDGE ( 'NONE', *, *, #122, .F. ) ;
#114 = LINE ( 'NONE', #309, #277 ) ;
#115 = DIRECTION ( 'NONE',  ( -1.000000000000000000, 0.000000000000000000, 0.000000000000000000 ) ) ;
#116 = FILL_AREA_STYLE ('',( #139 ) ) ;
#117 = DIRECTION ( 'NONE',  ( 0.000000000000000000, 0.000000000000000000, -1.000000000000000000 ) ) ;
#118 = FACE_OUTER_BOUND ( 'NONE', #346, .T. ) ;
#119 = SURFACE_STYLE_FILL_AREA ( #352 ) ;
#120 = DIRECTION ( 'NONE',  ( -0.000000000000000000, -1.000000000000000000, -0.000000000000000000 ) ) ;
#121 =( LENGTH_UNIT ( ) NAMED_UNIT ( * ) SI_UNIT ( .MILLI., .METRE. ) );
#122 = EDGE_CURVE ( 'NONE', #211, #147, #161, .T. ) ;
#123 =( NAMED_UNIT ( * ) SI_UNIT ( $, .STERADIAN. ) SOLID_ANGLE_UNIT ( ) );
#124 = ORIENTED_EDGE ( 'NONE', *, *, #304, .F. ) ;
#125 = DIRECTION ( 'NONE',  ( -0.000000000000000000, -1.000000000000000000, -0.000000000000000000 ) ) ;
#126 = MECHANICAL_DESIGN_GEOMETRIC_PRESENTATION_REPRESENTATION (  '', ( #318 ), #338 ) ;
#127 = DIRECTION ( 'NONE',  ( -1.279215233315390572E-16, 1.000000000000000000, -0.000000000000000000 ) ) ;
#128 = DIRECTION ( 'NONE',  ( -1.279215233315390572E-16, 1.000000000000000000, 0.000000000000000000 ) ) ;
#129 = DIRECTION ( 'NONE',  ( 0.000000000000000000, 0.000000000000000000, 1.000000000000000000 ) ) ;
#130 = PLANE ( 'NONE',  #54 ) ;
#131 = COLOUR_RGB ( '',1.000000000000000000, 0.000000000000000000, 0.000000000000000000 ) ;
#132 = UNCERTAINTY_MEASURE_WITH_UNIT (LENGTH_MEASURE( 1.000000000000000082E-05 ), #72, 'distance_accuracy_value', 'NONE');
#133 = SHAPE_DEFINITION_REPRESENTATION ( #64, #232 ) ;
#134 = AXIS2_PLACEMENT_3D ( 'NONE', #108, #333, #43 ) ;
#135 = MECHANICAL_DESIGN_GEOMETRIC_PRESENTATION_REPRESENTATION (  '', ( #92 ), #38 ) ;
#136 = DIRECTION ( 'NONE',  ( -0.000000000000000000, -1.000000000000000000, -0.000000000000000000 ) ) ;
#137 = ORIENTED_EDGE ( 'NONE', *, *, #262, .F. ) ;
#138 = ORIENTED_EDGE ( 'NONE', *, *, #253, .T. ) ;
#139 = FILL_AREA_STYLE_COLOUR ( '', #213 ) ;
#140 =( NAMED_UNIT ( * ) SI_UNIT ( $, .STERADIAN. ) SOLID_ANGLE_UNIT ( ) );
#141 = AXIS2_PLACEMENT_3D ( 'NONE', #296, #233, #1 ) ;
#142 = CLOSED_SHELL ( 'NONE', ( #206, #227, #183, #145 ) ) ;
#143 = VECTOR ( 'NONE', #110, 1000.000000000000000 ) ;
#144 =( NAMED_UNIT ( * ) SI_UNIT ( $, .STERADIAN. ) SOLID_ANGLE_UNIT ( ) );
#145 = ADVANCED_FACE ( 'NONE', ( #243 ), #19, .F. ) ;
#146 = CARTESIAN_POINT ( 'NONE',  ( 8.000000000000000000, 40.00000000000000000, 9.797174393178825657E-16 ) ) ;
#147 = VERTEX_POINT ( 'NONE', #247 ) ;
#148 = COLOUR_RGB ( '',1.000000000000000000, 0.000000000000000000, 0.000000000000000000 ) ;
#149 = DIRECTION ( 'NONE',  ( -0.000000000000000000, -1.000000000000000000, -0.000000000000000000 ) ) ;
#150 = EDGE_CURVE ( 'NONE', #293, #28, #311, .T. ) ;
#151 = FILL_AREA_STYLE ('',( #290 ) ) ;
#152 = ORIENTED_EDGE ( 'NONE', *, *, #150, .F. ) ;
#153 = CARTESIAN_POINT ( 'NONE',  ( 0.000000000000000000, 1.000000000000000000, -7.000000000000000000 ) ) ;
#154 = DIRECTION ( 'NONE',  ( -1.000000000000000000, 0.000000000000000000, 0.000000000000000000 ) ) ;
#155 = SURFACE_STYLE_USAGE ( .BOTH. , #9 ) ;
#156 = AXIS2_PLACEMENT_3D ( 'NONE', #356, #214, #359 ) ;
#157 = STYLED_ITEM ( 'NONE', ( #61 ), #239 ) ;
#158 = FILL_AREA_STYLE_COLOUR ( '', #49 ) ;
#159 =( NAMED_UNIT ( * ) SI_UNIT ( $, .STERADIAN. ) SOLID_ANGLE_UNIT ( ) );
#160 = EDGE_CURVE ( 'NONE', #211, #248, #185, .T. ) ;
#161 = CIRCLE ( 'NONE', #269, 8.000000000000000000 ) ;
#162 = AXIS2_PLACEMENT_3D ( 'NONE', #222, #193, #46 ) ;
#163 = EDGE_LOOP ( 'NONE', ( #152, #88 ) ) ;
#164 = COLOUR_RGB ( '',1.000000000000000000, 0.000000000000000000, 0.000000000000000000 ) ;
#165 = FILL_AREA_STYLE_COLOUR ( '', #70 ) ;
#166 = EDGE_LOOP ( 'NONE', ( #50, #363, #24, #308 ) ) ;
#167 = DIRECTION ( 'NONE',  ( 0.000000000000000000, -1.000000000000000000, -0.000000000000000000 ) ) ;
#168 = PRESENTATION_STYLE_ASSIGNMENT (( #332 ) ) ;
#169 = FACE_OUTER_BOUND ( 'NONE', #335, .T. ) ;
#170 = PRESENTATION_LAYER_ASSIGNMENT (  '', '', ( #234 ) ) ;
#171 = AXIS2_PLACEMENT_3D ( 'NONE', #14, #128, #84 ) ;
#172 = FILL_AREA_STYLE_COLOUR ( '', #148 ) ;
#173 = DIRECTION ( 'NONE',  ( -0.000000000000000000, -1.000000000000000000, -0.000000000000000000 ) ) ;
#174 = EDGE_CURVE ( 'NONE', #248, #283, #299, .T. ) ;
#175 = VERTEX_POINT ( 'NONE', #210 ) ;
#176 = MECHANICAL_DESIGN_GEOMETRIC_PRESENTATION_REPRESENTATION (  '', ( #336 ), #100 ) ;
#177 = AXIS2_PLACEMENT_3D ( 'NONE', #90, #252, #368 ) ;
#178 =( NAMED_UNIT ( * ) PLANE_ANGLE_UNIT ( ) SI_UNIT ( $, .RADIAN. ) );
#179 = DIRECTION ( 'NONE',  ( 0.000000000000000000, 0.000000000000000000, -1.000000000000000000 ) ) ;
#180 = ORIENTED_EDGE ( 'NONE', *, *, #25, .F. ) ;
#181 =( LENGTH_UNIT ( ) NAMED_UNIT ( * ) SI_UNIT ( .MILLI., .METRE. ) );
#182 = DIRECTION ( 'NONE',  ( -0.000000000000000000, -1.000000000000000000, -0.000000000000000000 ) ) ;
#183 = ADVANCED_FACE ( 'NONE', ( #97 ), #267, .T. ) ;
#184 = DIRECTION ( 'NONE',  ( -1.000000000000000000, 0.000000000000000000, 0.000000000000000000 ) ) ;
#185 = CIRCLE ( 'NONE', #362, 1.000000000000000000 ) ;
#186 =( LENGTH_UNIT ( ) NAMED_UNIT ( * ) SI_UNIT ( .MILLI., .METRE. ) );
#187 = ORIENTED_EDGE ( 'NONE', *, *, #328, .T. ) ;
#188 = PRODUCT_DEFINITION_CONTEXT ( 'detailed design', #339, 'design' ) ;
#189 = PRESENTATION_STYLE_ASSIGNMENT (( #98 ) ) ;
#190 = AXIS2_PLACEMENT_3D ( 'NONE', #203, #149, #264 ) ;
#191 = ORIENTED_EDGE ( 'NONE', *, *, #25, .T. ) ;
#192 =( LENGTH_UNIT ( ) NAMED_UNIT ( * ) SI_UNIT ( .MILLI., .METRE. ) );
#193 = DIRECTION ( 'NONE',  ( -0.000000000000000000, -1.000000000000000000, -0.000000000000000000 ) ) ;
#194 = SURFACE_STYLE_FILL_AREA ( #57 ) ;
#195 = PRESENTATION_LAYER_ASSIGNMENT (  '', '', ( #23 ) ) ;
#196 = EDGE_LOOP ( 'NONE', ( #278, #208, #360, #180 ) ) ;
#197 = FACE_OUTER_BOUND ( 'NONE', #166, .T. ) ;
#198 = ORIENTED_EDGE ( 'NONE', *, *, #104, .T. ) ;
#199 =( LENGTH_UNIT ( ) NAMED_UNIT ( * ) SI_UNIT ( .MILLI., .METRE. ) );
#200 = DIRECTION ( 'NONE',  ( -0.000000000000000000, -1.000000000000000000, -0.000000000000000000 ) ) ;
#201 = MECHANICAL_DESIGN_GEOMETRIC_PRESENTATION_REPRESENTATION (  '', ( #234 ), #279 ) ;
#202 = STYLED_ITEM ( 'NONE', ( #189 ), #235 ) ;
#203 = CARTESIAN_POINT ( 'NONE',  ( 0.000000000000000000, 0.000000000000000000, 0.000000000000000000 ) ) ;
#204 = PRESENTATION_STYLE_ASSIGNMENT (( #155 ) ) ;
#205 = SURFACE_STYLE_FILL_AREA ( #151 ) ;
#206 = ADVANCED_FACE ( 'NONE', ( #301 ), #355, .T. ) ;
#207 = SURFACE_STYLE_FILL_AREA ( #261 ) ;
#208 = ORIENTED_EDGE ( 'NONE', *, *, #275, .T. ) ;
#209 = MECHANICAL_DESIGN_GEOMETRIC_PRESENTATION_REPRESENTATION (  '', ( #202 ), #15 ) ;
#210 = CARTESIAN_POINT ( 'NONE',  ( 9.797174393178825657E-16, 40.00000000000000000, 8.000000000000000000 ) ) ;
#211 = VERTEX_POINT ( 'NONE', #298 ) ;
#212 = DIRECTION ( 'NONE',  ( -1.000000000000000000, 0.000000000000000000, 0.000000000000000000 ) ) ;
#213 = COLOUR_RGB ( '',0.7921568627450980005, 0.8196078431372548767, 0.9333333333333333481 ) ;
#214 = DIRECTION ( 'NONE',  ( -1.279215233315390572E-16, 1.000000000000000000, -0.000000000000000000 ) ) ;
#215 = EDGE_CURVE ( 'NONE', #283, #248, #287, .T. ) ;
#216 = DIRECTION ( 'NONE',  ( 1.000000000000000000, 0.000000000000000000, 0.000000000000000000 ) ) ;
#217 = ORIENTED_EDGE ( 'NONE', *, *, #244, .T. ) ;
#218 = UNCERTAINTY_MEASURE_WITH_UNIT (LENGTH_MEASURE( 1.000000000000000082E-05 ), #199, 'distance_accuracy_value', 'NONE');
#219 = AXIS2_PLACEMENT_3D ( 'NONE', #292, #120, #179 ) ;
#220 = AXIS2_PLACEMENT_3D ( 'NONE', #112, #224, #87 ) ;
#221 = CARTESIAN_POINT ( 'NONE',  ( -1.714505518806293652E-15, 89.00000000000000000, 0.000000000000000000 ) ) ;
#222 = CARTESIAN_POINT ( 'NONE',  ( 0.000000000000000000, 0.000000000000000000, 0.000000000000000000 ) ) ;
#223 = SURFACE_STYLE_USAGE ( .BOTH. , #340 ) ;
#224 = DIRECTION ( 'NONE',  ( -1.279215233315390572E-16, 1.000000000000000000, -0.000000000000000000 ) ) ;
#225 = TOROIDAL_SURFACE ( 'NONE', #86, 7.000000000000000000, 1.000000000000000000 ) ;
#226 = EDGE_LOOP ( 'NONE', ( #52, #82 ) ) ;
#227 = ADVANCED_FACE ( 'NONE', ( #268 ), #302, .F. ) ;
#228 = DIRECTION ( 'NONE',  ( -1.279215233315390572E-16, 1.000000000000000000, -0.000000000000000000 ) ) ;
#229 = FACE_OUTER_BOUND ( 'NONE', #85, .T. ) ;
#230 = SURFACE_STYLE_FILL_AREA ( #366 ) ;
#231 = LINE ( 'NONE', #341, #22 ) ;
#232 = ADVANCED_BREP_SHAPE_REPRESENTATION ( '59783', ( #257, #12, #370 ), #16 ) ;
#233 = DIRECTION ( 'NONE',  ( 0.000000000000000000, 1.000000000000000000, 0.000000000000000000 ) ) ;
#234 = STYLED_ITEM ( 'NONE', ( #168 ), #12 ) ;
#235 = ADVANCED_FACE ( 'NONE', ( #323 ), #130, .T. ) ;
#236 = SURFACE_STYLE_USAGE ( .BOTH. , #345 ) ;
#237 = SURFACE_SIDE_STYLE ('',( #119 ) ) ;
#238 = CARTESIAN_POINT ( 'NONE',  ( -1.714505518806293849E-15, 89.00000000000000000, 0.000000000000000000 ) ) ;
#239 = ADVANCED_FACE ( 'NONE', ( #197 ), #225, .T. ) ;
#240 = CIRCLE ( 'NONE', #81, 8.000000000000000000 ) ;
#241 = CARTESIAN_POINT ( 'NONE',  ( 0.000000000000000000, 0.000000000000000000, 0.000000000000000000 ) ) ;
#242 = CARTESIAN_POINT ( 'NONE',  ( 8.572527594031473190E-16, 1.000000000000000000, 7.000000000000000000 ) ) ;
#243 = FACE_OUTER_BOUND ( 'NONE', #27, .T. ) ;
#244 = EDGE_CURVE ( 'NONE', #365, #175, #5, .T. ) ;
#245 = CARTESIAN_POINT ( 'NONE',  ( 8.000000000000000000, 89.00000000000000000, 0.000000000000000000 ) ) ;
#246 = CIRCLE ( 'NONE', #60, 1.000000000000000000 ) ;
#247 = CARTESIAN_POINT ( 'NONE',  ( 9.797174393178825657E-16, 1.000000000000000000, 8.000000000000000000 ) ) ;
#248 = VERTEX_POINT ( 'NONE', #364 ) ;
#249 = UNCERTAINTY_MEASURE_WITH_UNIT (LENGTH_MEASURE( 1.000000000000000082E-05 ), #186, 'distance_accuracy_value', 'NONE');
#250 = CARTESIAN_POINT ( 'NONE',  ( 0.000000000000000000, 0.000000000000000000, 0.000000000000000000 ) ) ;
#251 = DIRECTION ( 'NONE',  ( 0.000000000000000000, 0.000000000000000000, -1.000000000000000000 ) ) ;
#252 = DIRECTION ( 'NONE',  ( -0.000000000000000000, -1.000000000000000000, -0.000000000000000000 ) ) ;
#253 = EDGE_CURVE ( 'NONE', #28, #329, #258, .T. ) ;
#254 = EDGE_LOOP ( 'NONE', ( #265, #187, #295, #95 ) ) ;
#255 = AXIS2_PLACEMENT_3D ( 'NONE', #221, #34, #115 ) ;
#256 = PRESENTATION_LAYER_ASSIGNMENT (  '', '', ( #157 ) ) ;
#257 = MANIFOLD_SOLID_BREP ( 'Revolve - Cutting Edge', #31 ) ;
#258 = LINE ( 'NONE', #286, #143 ) ;
#259 = PLANE ( 'NONE',  #141 ) ;
#260 = CARTESIAN_POINT ( 'NONE',  ( 0.000000000000000000, 1.000000000000000000, 0.000000000000000000 ) ) ;
#261 = FILL_AREA_STYLE ('',( #314 ) ) ;
#262 = EDGE_CURVE ( 'NONE', #147, #211, #102, .T. ) ;
#263 = ORIENTED_EDGE ( 'NONE', *, *, #83, .T. ) ;
#264 = DIRECTION ( 'NONE',  ( 0.000000000000000000, 0.000000000000000000, -1.000000000000000000 ) ) ;
#265 = ORIENTED_EDGE ( 'NONE', *, *, #122, .T. ) ;
#266 = CARTESIAN_POINT ( 'NONE',  ( 0.000000000000000000, 40.00000000000000000, 0.000000000000000000 ) ) ;
#267 = CYLINDRICAL_SURFACE ( 'NONE', #331, 7.999999999999998224 ) ;
#268 = FACE_OUTER_BOUND ( 'NONE', #163, .T. ) ;
#269 = AXIS2_PLACEMENT_3D ( 'NONE', #10, #125, #349 ) ;
#270 = COLOUR_RGB ( '',1.000000000000000000, 0.000000000000000000, 0.000000000000000000 ) ;
#271 = SURFACE_STYLE_USAGE ( .BOTH. , #237 ) ;
#272 = DIRECTION ( 'NONE',  ( 1.000000000000000000, 1.279215233315390572E-16, 0.000000000000000000 ) ) ;
#273 = APPLICATION_PROTOCOL_DEFINITION ( 'draft international standard', 'automotive_design', 1998, #339 ) ;
#274 = UNCERTAINTY_MEASURE_WITH_UNIT (LENGTH_MEASURE( 1.000000000000000082E-05 ), #181, 'distance_accuracy_value', 'NONE');
#275 = EDGE_CURVE ( 'NONE', #28, #293, #305, .T. ) ;
#276 = DIRECTION ( 'NONE',  ( -1.000000000000000000, 0.000000000000000000, 0.000000000000000000 ) ) ;
#277 = VECTOR ( 'NONE', #228, 1000.000000000000000 ) ;
#278 = ORIENTED_EDGE ( 'NONE', *, *, #253, .F. ) ;
#279 =( GEOMETRIC_REPRESENTATION_CONTEXT ( 3 ) GLOBAL_UNCERTAINTY_ASSIGNED_CONTEXT ( ( #358 ) ) GLOBAL_UNIT_ASSIGNED_CONTEXT ( ( #192, #62, #288 ) ) REPRESENTATION_CONTEXT ( 'NONE', 'WORKASPACE' ) );
#280 = CARTESIAN_POINT ( 'NONE',  ( 0.000000000000000000, 40.00000000000000000, 0.000000000000000000 ) ) ;
#281 = ORIENTED_EDGE ( 'NONE', *, *, #150, .T. ) ;
#282 =( NAMED_UNIT ( * ) PLANE_ANGLE_UNIT ( ) SI_UNIT ( $, .RADIAN. ) );
#283 = VERTEX_POINT ( 'NONE', #307 ) ;
#284 = APPLICATION_CONTEXT ( 'automotive_design' ) ;
#285 =( NAMED_UNIT ( * ) SI_UNIT ( $, .STERADIAN. ) SOLID_ANGLE_UNIT ( ) );
#286 = CARTESIAN_POINT ( 'NONE',  ( 7.999999999999996447, 89.00000000000000000, 9.797174393178823685E-16 ) ) ;
#287 = CIRCLE ( 'NONE', #162, 7.000000000000000000 ) ;
#288 =( NAMED_UNIT ( * ) SI_UNIT ( $, .STERADIAN. ) SOLID_ANGLE_UNIT ( ) );
#289 = SURFACE_SIDE_STYLE ('',( #230 ) ) ;
#290 = FILL_AREA_STYLE_COLOUR ( '', #80 ) ;
#291 =( NAMED_UNIT ( * ) PLANE_ANGLE_UNIT ( ) SI_UNIT ( $, .RADIAN. ) );
#292 = CARTESIAN_POINT ( 'NONE',  ( 0.000000000000000000, 0.000000000000000000, 0.000000000000000000 ) ) ;
#293 = VERTEX_POINT ( 'NONE', #29 ) ;
#294 =( NAMED_UNIT ( * ) PLANE_ANGLE_UNIT ( ) SI_UNIT ( $, .RADIAN. ) );
#295 = ORIENTED_EDGE ( 'NONE', *, *, #174, .F. ) ;
#296 = CARTESIAN_POINT ( 'NONE',  ( 0.000000000000000000, 40.00000000000000000, 0.000000000000000000 ) ) ;
#297 = CARTESIAN_POINT ( 'NONE',  ( -1.714505518806293652E-15, 89.00000000000000000, 0.000000000000000000 ) ) ;
#298 = CARTESIAN_POINT ( 'NONE',  ( 0.000000000000000000, 1.000000000000000000, -8.000000000000000000 ) ) ;
#299 = CIRCLE ( 'NONE', #134, 7.000000000000000000 ) ;
#300 = PRESENTATION_LAYER_ASSIGNMENT (  '', '', ( #92 ) ) ;
#301 = FACE_OUTER_BOUND ( 'NONE', #306, .T. ) ;
#302 = PLANE ( 'NONE',  #171 ) ;
#303 = AXIS2_PLACEMENT_3D ( 'NONE', #280, #26, #251 ) ;
#304 = EDGE_CURVE ( 'NONE', #293, #107, #114, .T. ) ;
#305 = CIRCLE ( 'NONE', #220, 7.999999999999994671 ) ;
#306 = EDGE_LOOP ( 'NONE', ( #281, #138, #319, #124 ) ) ;
#307 = CARTESIAN_POINT ( 'NONE',  ( 9.184850993605147944E-16, 0.000000000000000000, 7.000000000000000000 ) ) ;
#308 = ORIENTED_EDGE ( 'NONE', *, *, #215, .F. ) ;
#309 = CARTESIAN_POINT ( 'NONE',  ( -8.000000000000000000, 89.00000000000000000, 0.000000000000000000 ) ) ;
#310 = CYLINDRICAL_SURFACE ( 'NONE', #219, 8.000000000000000000 ) ;
#311 = CIRCLE ( 'NONE', #156, 7.999999999999994671 ) ;
#312 = ADVANCED_FACE ( 'NONE', ( #169 ), #32, .T. ) ;
#313 = PRESENTATION_LAYER_ASSIGNMENT (  '', '', ( #202 ) ) ;
#314 = FILL_AREA_STYLE_COLOUR ( '', #164 ) ;
#315 = FACE_OUTER_BOUND ( 'NONE', #254, .T. ) ;
#316 = EDGE_CURVE ( 'NONE', #175, #365, #240, .T. ) ;
#317 = PRESENTATION_STYLE_ASSIGNMENT (( #67 ) ) ;
#318 = STYLED_ITEM ( 'NONE', ( #334 ), #257 ) ;
#319 = ORIENTED_EDGE ( 'NONE', *, *, #104, .F. ) ;
#320 = DIRECTION ( 'NONE',  ( -1.279215233315390572E-16, 1.000000000000000000, -0.000000000000000000 ) ) ;
#321 = UNCERTAINTY_MEASURE_WITH_UNIT (LENGTH_MEASURE( 1.000000000000000082E-05 ), #36, 'distance_accuracy_value', 'NONE');
#322 = DIRECTION ( 'NONE',  ( 0.000000000000000000, 0.000000000000000000, -1.000000000000000000 ) ) ;
#323 = FACE_OUTER_BOUND ( 'NONE', #226, .T. ) ;
#324 = PRODUCT ( '59783', '59783', '', ( #105 ) ) ;
#325 = MECHANICAL_DESIGN_GEOMETRIC_PRESENTATION_REPRESENTATION (  '', ( #157 ), #96 ) ;
#326 = AXIS2_PLACEMENT_3D ( 'NONE', #94, #3, #42 ) ;
#327 = CARTESIAN_POINT ( 'NONE',  ( -1.714505518806293849E-15, 89.00000000000000000, 0.000000000000000000 ) ) ;
#328 = EDGE_CURVE ( 'NONE', #147, #283, #246, .T. ) ;
#329 = VERTEX_POINT ( 'NONE', #69 ) ;
#330 = AXIS2_PLACEMENT_3D ( 'NONE', #297, #127, #276 ) ;
#331 = AXIS2_PLACEMENT_3D ( 'NONE', #327, #77, #184 ) ;
#332 = SURFACE_STYLE_USAGE ( .BOTH. , #367 ) ;
#333 = DIRECTION ( 'NONE',  ( -0.000000000000000000, -1.000000000000000000, -0.000000000000000000 ) ) ;
#334 = PRESENTATION_STYLE_ASSIGNMENT (( #223 ) ) ;
#335 = EDGE_LOOP ( 'NONE', ( #361, #68, #39, #137 ) ) ;
#336 = STYLED_ITEM ( 'NONE', ( #317 ), #37 ) ;
#337 =( LENGTH_UNIT ( ) NAMED_UNIT ( * ) SI_UNIT ( .MILLI., .METRE. ) );
#338 =( GEOMETRIC_REPRESENTATION_CONTEXT ( 3 ) GLOBAL_UNCERTAINTY_ASSIGNED_CONTEXT ( ( #44 ) ) GLOBAL_UNIT_ASSIGNED_CONTEXT ( ( #337, #282, #285 ) ) REPRESENTATION_CONTEXT ( 'NONE', 'WORKASPACE' ) );
#339 = APPLICATION_CONTEXT ( 'automotive_design' ) ;
#340 = SURFACE_SIDE_STYLE ('',( #58 ) ) ;
#341 = CARTESIAN_POINT ( 'NONE',  ( 9.797174393178825657E-16, 0.000000000000000000, 8.000000000000000000 ) ) ;
#342 = DIRECTION ( 'NONE',  ( 1.000000000000000000, 0.000000000000000000, -1.224646799147353207E-16 ) ) ;
#343 = ADVANCED_FACE ( 'NONE', ( #315 ), #103, .T. ) ;
#344 = FILL_AREA_STYLE_COLOUR ( '', #270 ) ;
#345 = SURFACE_SIDE_STYLE ('',( #207 ) ) ;
#346 = EDGE_LOOP ( 'NONE', ( #73, #109 ) ) ;
#347 =( NAMED_UNIT ( * ) PLANE_ANGLE_UNIT ( ) SI_UNIT ( $, .RADIAN. ) );
#348 = CIRCLE ( 'NONE', #330, 8.000000000000001776 ) ;
#349 = DIRECTION ( 'NONE',  ( 0.000000000000000000, 0.000000000000000000, -1.000000000000000000 ) ) ;
#350 =( GEOMETRIC_REPRESENTATION_CONTEXT ( 3 ) GLOBAL_UNCERTAINTY_ASSIGNED_CONTEXT ( ( #78 ) ) GLOBAL_UNIT_ASSIGNED_CONTEXT ( ( #76, #347, #18 ) ) REPRESENTATION_CONTEXT ( 'NONE', 'WORKASPACE' ) );
#351 = MECHANICAL_DESIGN_GEOMETRIC_PRESENTATION_REPRESENTATION (  '', ( #23 ), #350 ) ;
#352 = FILL_AREA_STYLE ('',( #172 ) ) ;
#353 = FILL_AREA_STYLE ('',( #158 ) ) ;
#354 = UNCERTAINTY_MEASURE_WITH_UNIT (LENGTH_MEASURE( 1.000000000000000082E-05 ), #121, 'distance_accuracy_value', 'NONE');
#355 = CYLINDRICAL_SURFACE ( 'NONE', #369, 7.999999999999998224 ) ;
#356 = CARTESIAN_POINT ( 'NONE',  ( 4.553649124439119412E-15, 40.00000000000000000, 0.000000000000000000 ) ) ;
#357 = VECTOR ( 'NONE', #200, 1000.000000000000000 ) ;
#358 = UNCERTAINTY_MEASURE_WITH_UNIT (LENGTH_MEASURE( 1.000000000000000082E-05 ), #192, 'distance_accuracy_value', 'NONE');
#359 = DIRECTION ( 'NONE',  ( -1.000000000000000000, 0.000000000000000000, 0.000000000000000000 ) ) ;
#360 = ORIENTED_EDGE ( 'NONE', *, *, #304, .T. ) ;
#361 = ORIENTED_EDGE ( 'NONE', *, *, #83, .F. ) ;
#362 = AXIS2_PLACEMENT_3D ( 'NONE', #153, #212, #75 ) ;
#363 = ORIENTED_EDGE ( 'NONE', *, *, #262, .T. ) ;
#364 = CARTESIAN_POINT ( 'NONE',  ( 0.000000000000000000, 0.000000000000000000, -7.000000000000000000 ) ) ;
#365 = VERTEX_POINT ( 'NONE', #74 ) ;
#366 = FILL_AREA_STYLE ('',( #55 ) ) ;
#367 = SURFACE_SIDE_STYLE ('',( #194 ) ) ;
#368 = DIRECTION ( 'NONE',  ( 0.000000000000000000, 0.000000000000000000, -1.000000000000000000 ) ) ;
#369 = AXIS2_PLACEMENT_3D ( 'NONE', #238, #320, #154 ) ;
#370 = AXIS2_PLACEMENT_3D ( 'NONE', #250, #129, #216 ) ;
ENDSEC;
END-ISO-10303-21;
