ISO-10303-21;
HEADER;
FILE_DESCRIPTION (( 'STEP AP214' ),
    '1' );
FILE_NAME ('24092.STEP',
    '2023-06-22T16:56:22',
    ( '' ),
    ( '' ),
    'SwSTEP 2.0',
    'SolidWorks 2023',
    '' );
FILE_SCHEMA (( 'AUTOMOTIVE_DESIGN' ));
ENDSEC;

DATA;
#1 = CARTESIAN_POINT ( 'NONE',  ( 2.449293598294706414E-16, 2.000000000000000000, 0.000000000000000000 ) ) ;
#2 = AXIS2_PLACEMENT_3D ( 'NONE', #190, #56, #147 ) ;
#3 = ORIENTED_EDGE ( 'NONE', *, *, #117, .T. ) ;
#4 = SURFACE_STYLE_USAGE ( .BOTH. , #20 ) ;
#5 = UNCERTAINTY_MEASURE_WITH_UNIT (LENGTH_MEASURE( 1.000000000000000082E-05 ), #202, 'distance_accuracy_value', 'NONE');
#6 = ORIENTED_EDGE ( 'NONE', *, *, #259, .F. ) ;
#7 = ORIENTED_EDGE ( 'NONE', *, *, #276, .T. ) ;
#8 = DIRECTION ( 'NONE',  ( 1.567547902908612085E-16, 1.000000000000000000, -0.000000000000000000 ) ) ;
#9 = DIRECTION ( 'NONE',  ( -0.000000000000000000, -1.000000000000000000, -0.000000000000000000 ) ) ;
#10 =( NAMED_UNIT ( * ) SI_UNIT ( $, .STERADIAN. ) SOLID_ANGLE_UNIT ( ) );
#11 = CYLINDRICAL_SURFACE ( 'NONE', #254, 0.1562500000000000000 ) ;
#12 = CARTESIAN_POINT ( 'NONE',  ( 1.919692521807178203E-33, 0.4374999999999998890, 0.000000000000000000 ) ) ;
#13 =( NAMED_UNIT ( * ) PLANE_ANGLE_UNIT ( ) SI_UNIT ( $, .RADIAN. ) );
#14 = DIMENSIONAL_EXPONENTS ( 1.000000000000000000, 0.000000000000000000, 0.000000000000000000, 0.000000000000000000, 0.000000000000000000, 0.000000000000000000, 0.000000000000000000 ) ;
#15 = EDGE_CURVE ( 'NONE', #124, #32, #269, .T. ) ;
#16 = DIRECTION ( 'NONE',  ( 1.567547902908612085E-16, 1.000000000000000000, -0.000000000000000000 ) ) ;
#17 = AXIS2_PLACEMENT_3D ( 'NONE', #304, #252, #71 ) ;
#18 = DIMENSIONAL_EXPONENTS ( 1.000000000000000000, 0.000000000000000000, 0.000000000000000000, 0.000000000000000000, 0.000000000000000000, 0.000000000000000000, 0.000000000000000000 ) ;
#19 = SURFACE_SIDE_STYLE ('',( #281 ) ) ;
#20 = SURFACE_SIDE_STYLE ('',( #119 ) ) ;
#21 = EDGE_CURVE ( 'NONE', #101, #167, #161, .T. ) ;
#22 = PRESENTATION_LAYER_ASSIGNMENT (  '', '', ( #206 ) ) ;
#23 = CIRCLE ( 'NONE', #180, 0.1562499999999998057 ) ;
#24 = AXIS2_PLACEMENT_3D ( 'NONE', #129, #297, #184 ) ;
#25 = ORIENTED_EDGE ( 'NONE', *, *, #117, .F. ) ;
#26 = PLANE ( 'NONE',  #24 ) ;
#27 = CIRCLE ( 'NONE', #196, 0.1562500000000000278 ) ;
#28 = SURFACE_STYLE_USAGE ( .BOTH. , #234 ) ;
#29 = FACE_OUTER_BOUND ( 'NONE', #48, .T. ) ;
#30 = EDGE_LOOP ( 'NONE', ( #263, #289 ) ) ;
#31 = PRESENTATION_STYLE_ASSIGNMENT (( #103 ) ) ;
#32 = VERTEX_POINT ( 'NONE', #118 ) ;
#33 = CARTESIAN_POINT ( 'NONE',  ( 0.000000000000000000, 0.000000000000000000, 0.000000000000000000 ) ) ;
#34 = ORIENTED_EDGE ( 'NONE', *, *, #15, .F. ) ;
#35 = CARTESIAN_POINT ( 'NONE',  ( 0.000000000000000000, 0.000000000000000000, -0.1562500000000000000 ) ) ;
#36 = DIRECTION ( 'NONE',  ( -0.000000000000000000, -1.000000000000000000, -0.000000000000000000 ) ) ;
#37 =( NAMED_UNIT ( * ) SI_UNIT ( $, .STERADIAN. ) SOLID_ANGLE_UNIT ( ) );
#38 =( CONVERSION_BASED_UNIT ( 'INCH', #227 ) LENGTH_UNIT ( ) NAMED_UNIT ( #305 ) );
#39 = AXIS2_PLACEMENT_3D ( 'NONE', #245, #243, #122 ) ;
#40 =( CONVERSION_BASED_UNIT ( 'INCH', #58 ) LENGTH_UNIT ( ) NAMED_UNIT ( #66 ) );
#41 = DIRECTION ( 'NONE',  ( 0.000000000000000000, 0.000000000000000000, -1.000000000000000000 ) ) ;
#42 = FACE_OUTER_BOUND ( 'NONE', #145, .T. ) ;
#43 = MANIFOLD_SOLID_BREP ( 'Revolve - Tool Body (Straight Shanked)', #89 ) ;
#44 = EDGE_CURVE ( 'NONE', #101, #124, #298, .T. ) ;
#45 = FACE_OUTER_BOUND ( 'NONE', #241, .T. ) ;
#46 =( GEOMETRIC_REPRESENTATION_CONTEXT ( 3 ) GLOBAL_UNCERTAINTY_ASSIGNED_CONTEXT ( ( #133 ) ) GLOBAL_UNIT_ASSIGNED_CONTEXT ( ( #74, #112, #69 ) ) REPRESENTATION_CONTEXT ( 'NONE', 'WORKASPACE' ) );
#47 = SURFACE_STYLE_USAGE ( .BOTH. , #19 ) ;
#48 = EDGE_LOOP ( 'NONE', ( #25, #7, #80, #215 ) ) ;
#49 = CARTESIAN_POINT ( 'NONE',  ( -0.1562499999999995559, 2.000000000000000000, 0.000000000000000000 ) ) ;
#50 = DIRECTION ( 'NONE',  ( 1.567547902908612085E-16, 1.000000000000000000, -0.000000000000000000 ) ) ;
#51 = AXIS2_PLACEMENT_3D ( 'NONE', #62, #226, #176 ) ;
#52 = ORIENTED_EDGE ( 'NONE', *, *, #91, .F. ) ;
#53 = SURFACE_SIDE_STYLE ('',( #172 ) ) ;
#54 = VERTEX_POINT ( 'NONE', #49 ) ;
#55 = FILL_AREA_STYLE ('',( #214 ) ) ;
#56 = DIRECTION ( 'NONE',  ( -0.000000000000000000, -1.000000000000000000, -0.000000000000000000 ) ) ;
#57 = DIRECTION ( 'NONE',  ( 1.567547902908612085E-16, 1.000000000000000000, -0.000000000000000000 ) ) ;
#58 = LENGTH_MEASURE_WITH_UNIT ( LENGTH_MEASURE( 0.02539999999999999897 ), #301 );
#59 = STYLED_ITEM ( 'NONE', ( #286 ), #230 ) ;
#60 = COLOUR_RGB ( '',1.000000000000000000, 0.000000000000000000, 0.000000000000000000 ) ;
#61 = SURFACE_STYLE_FILL_AREA ( #239 ) ;
#62 = CARTESIAN_POINT ( 'NONE',  ( 0.000000000000000000, 0.4374999999999998890, 0.000000000000000000 ) ) ;
#63 = DIRECTION ( 'NONE',  ( 1.567547902908612085E-16, 1.000000000000000000, -0.000000000000000000 ) ) ;
#64 = MECHANICAL_DESIGN_GEOMETRIC_PRESENTATION_REPRESENTATION (  '', ( #206 ), #224 ) ;
#65 = PRESENTATION_LAYER_ASSIGNMENT (  '', '', ( #189 ) ) ;
#66 = DIMENSIONAL_EXPONENTS ( 1.000000000000000000, 0.000000000000000000, 0.000000000000000000, 0.000000000000000000, 0.000000000000000000, 0.000000000000000000, 0.000000000000000000 ) ;
#67 = PRODUCT_CONTEXT ( 'NONE', #213, 'mechanical' ) ;
#68 = PRESENTATION_STYLE_ASSIGNMENT (( #47 ) ) ;
#69 =( NAMED_UNIT ( * ) SI_UNIT ( $, .STERADIAN. ) SOLID_ANGLE_UNIT ( ) );
#70 = COLOUR_RGB ( '',1.000000000000000000, 0.000000000000000000, 0.000000000000000000 ) ;
#71 = DIRECTION ( 'NONE',  ( -1.000000000000000000, 0.000000000000000000, 0.000000000000000000 ) ) ;
#72 = ADVANCED_FACE ( 'NONE', ( #42 ), #197, .F. ) ;
#73 = EDGE_LOOP ( 'NONE', ( #162, #232, #186, #6 ) ) ;
#74 =( CONVERSION_BASED_UNIT ( 'INCH', #255 ) LENGTH_UNIT ( ) NAMED_UNIT ( #18 ) );
#75 =( NAMED_UNIT ( * ) PLANE_ANGLE_UNIT ( ) SI_UNIT ( $, .RADIAN. ) );
#76 = AXIS2_PLACEMENT_3D ( 'NONE', #192, #16, #131 ) ;
#77 = PRODUCT_DEFINITION_FORMATION_WITH_SPECIFIED_SOURCE ( 'ANY', '', #258, .NOT_KNOWN. ) ;
#78 = ORIENTED_EDGE ( 'NONE', *, *, #21, .F. ) ;
#79 = SURFACE_SIDE_STYLE ('',( #61 ) ) ;
#80 = ORIENTED_EDGE ( 'NONE', *, *, #44, .T. ) ;
#81 = CARTESIAN_POINT ( 'NONE',  ( 0.000000000000000000, 0.4374999999999998890, 0.000000000000000000 ) ) ;
#82 = AXIS2_PLACEMENT_3D ( 'NONE', #12, #63, #201 ) ;
#83 =( GEOMETRIC_REPRESENTATION_CONTEXT ( 3 ) GLOBAL_UNCERTAINTY_ASSIGNED_CONTEXT ( ( #198 ) ) GLOBAL_UNIT_ASSIGNED_CONTEXT ( ( #265, #75, #95 ) ) REPRESENTATION_CONTEXT ( 'NONE', 'WORKASPACE' ) );
#84 = CARTESIAN_POINT ( 'NONE',  ( 0.000000000000000000, 0.000000000000000000, 0.000000000000000000 ) ) ;
#85 = ADVANCED_FACE ( 'NONE', ( #268 ), #300, .T. ) ;
#86 = DIRECTION ( 'NONE',  ( 0.000000000000000000, 0.000000000000000000, -1.000000000000000000 ) ) ;
#87 = FILL_AREA_STYLE_COLOUR ( '', #187 ) ;
#88 = CARTESIAN_POINT ( 'NONE',  ( 0.000000000000000000, 0.4374999999999998890, 0.000000000000000000 ) ) ;
#89 = CLOSED_SHELL ( 'NONE', ( #175, #72, #85, #256 ) ) ;
#90 = STYLED_ITEM ( 'NONE', ( #68 ), #246 ) ;
#91 = EDGE_CURVE ( 'NONE', #261, #128, #153, .T. ) ;
#92 = DIRECTION ( 'NONE',  ( -1.000000000000000000, 0.000000000000000000, 0.000000000000000000 ) ) ;
#93 = ORIENTED_EDGE ( 'NONE', *, *, #207, .F. ) ;
#94 = ORIENTED_EDGE ( 'NONE', *, *, #272, .F. ) ;
#95 =( NAMED_UNIT ( * ) SI_UNIT ( $, .STERADIAN. ) SOLID_ANGLE_UNIT ( ) );
#96 = EDGE_LOOP ( 'NONE', ( #143, #238 ) ) ;
#97 =( CONVERSION_BASED_UNIT ( 'INCH', #216 ) LENGTH_UNIT ( ) NAMED_UNIT ( #113 ) );
#98 = PRODUCT_RELATED_PRODUCT_CATEGORY ( 'part', '', ( #258 ) ) ;
#99 = ADVANCED_BREP_SHAPE_REPRESENTATION ( '24092', ( #246, #43, #138 ), #225 ) ;
#100 = EDGE_LOOP ( 'NONE', ( #94, #183, #240, #93 ) ) ;
#101 = VERTEX_POINT ( 'NONE', #222 ) ;
#102 = CARTESIAN_POINT ( 'NONE',  ( 0.000000000000000000, 0.000000000000000000, -0.1562500000000000000 ) ) ;
#103 = SURFACE_STYLE_USAGE ( .BOTH. , #79 ) ;
#104 = FILL_AREA_STYLE_COLOUR ( '', #70 ) ;
#105 = VECTOR ( 'NONE', #57, 39.37007874015748143 ) ;
#106 = SHAPE_DEFINITION_REPRESENTATION ( #288, #99 ) ;
#107 = DIRECTION ( 'NONE',  ( -0.000000000000000000, -1.000000000000000000, -0.000000000000000000 ) ) ;
#108 = FILL_AREA_STYLE_COLOUR ( '', #270 ) ;
#109 = DIMENSIONAL_EXPONENTS ( 1.000000000000000000, 0.000000000000000000, 0.000000000000000000, 0.000000000000000000, 0.000000000000000000, 0.000000000000000000, 0.000000000000000000 ) ;
#110 = PRESENTATION_LAYER_ASSIGNMENT (  '', '', ( #132 ) ) ;
#111 = COLOUR_RGB ( '',1.000000000000000000, 0.000000000000000000, 0.000000000000000000 ) ;
#112 =( NAMED_UNIT ( * ) PLANE_ANGLE_UNIT ( ) SI_UNIT ( $, .RADIAN. ) );
#113 = DIMENSIONAL_EXPONENTS ( 1.000000000000000000, 0.000000000000000000, 0.000000000000000000, 0.000000000000000000, 0.000000000000000000, 0.000000000000000000, 0.000000000000000000 ) ;
#114 = FACE_OUTER_BOUND ( 'NONE', #73, .T. ) ;
#115 = EDGE_CURVE ( 'NONE', #128, #261, #27, .T. ) ;
#116 = CIRCLE ( 'NONE', #148, 0.1562499999999998057 ) ;
#117 = EDGE_CURVE ( 'NONE', #167, #32, #194, .T. ) ;
#118 = CARTESIAN_POINT ( 'NONE',  ( 1.913510623667739463E-17, 0.000000000000000000, 0.1562500000000000000 ) ) ;
#119 = SURFACE_STYLE_FILL_AREA ( #306 ) ;
#120 = CIRCLE ( 'NONE', #39, 0.1562500000000000278 ) ;
#121 = PRESENTATION_STYLE_ASSIGNMENT (( #28 ) ) ;
#122 = DIRECTION ( 'NONE',  ( 0.000000000000000000, 0.000000000000000000, -1.000000000000000000 ) ) ;
#123 = UNCERTAINTY_MEASURE_WITH_UNIT (LENGTH_MEASURE( 1.000000000000000082E-05 ), #38, 'distance_accuracy_value', 'NONE');
#124 = VERTEX_POINT ( 'NONE', #35 ) ;
#125 =( LENGTH_UNIT ( ) NAMED_UNIT ( * ) SI_UNIT ( $, .METRE. ) );
#126 = ORIENTED_EDGE ( 'NONE', *, *, #44, .F. ) ;
#127 = AXIS2_PLACEMENT_3D ( 'NONE', #88, #178, #283 ) ;
#128 = VERTEX_POINT ( 'NONE', #150 ) ;
#129 = CARTESIAN_POINT ( 'NONE',  ( 0.1562500000000000278, 2.000000000000000000, 0.000000000000000000 ) ) ;
#130 =( LENGTH_UNIT ( ) NAMED_UNIT ( * ) SI_UNIT ( $, .METRE. ) );
#131 = DIRECTION ( 'NONE',  ( -1.000000000000000000, 0.000000000000000000, 0.000000000000000000 ) ) ;
#132 = STYLED_ITEM ( 'NONE', ( #156 ), #155 ) ;
#133 = UNCERTAINTY_MEASURE_WITH_UNIT (LENGTH_MEASURE( 1.000000000000000082E-05 ), #74, 'distance_accuracy_value', 'NONE');
#134 =( NAMED_UNIT ( * ) PLANE_ANGLE_UNIT ( ) SI_UNIT ( $, .RADIAN. ) );
#135 = PRESENTATION_LAYER_ASSIGNMENT (  '', '', ( #90 ) ) ;
#136 =( NAMED_UNIT ( * ) SI_UNIT ( $, .STERADIAN. ) SOLID_ANGLE_UNIT ( ) );
#137 =( LENGTH_UNIT ( ) NAMED_UNIT ( * ) SI_UNIT ( $, .METRE. ) );
#138 = AXIS2_PLACEMENT_3D ( 'NONE', #274, #177, #280 ) ;
#139 = ORIENTED_EDGE ( 'NONE', *, *, #276, .F. ) ;
#140 =( NAMED_UNIT ( * ) SI_UNIT ( $, .STERADIAN. ) SOLID_ANGLE_UNIT ( ) );
#141 = FILL_AREA_STYLE_COLOUR ( '', #170 ) ;
#142 =( NAMED_UNIT ( * ) PLANE_ANGLE_UNIT ( ) SI_UNIT ( $, .RADIAN. ) );
#143 = ORIENTED_EDGE ( 'NONE', *, *, #164, .T. ) ;
#144 = PLANE ( 'NONE',  #308 ) ;
#145 = EDGE_LOOP ( 'NONE', ( #52, #287 ) ) ;
#146 = LENGTH_MEASURE_WITH_UNIT ( LENGTH_MEASURE( 0.02539999999999999897 ), #188 );
#147 = DIRECTION ( 'NONE',  ( 0.000000000000000000, 0.000000000000000000, -1.000000000000000000 ) ) ;
#148 = AXIS2_PLACEMENT_3D ( 'NONE', #205, #163, #92 ) ;
#149 = DIRECTION ( 'NONE',  ( 1.567547902908612085E-16, 1.000000000000000000, -0.000000000000000000 ) ) ;
#150 = CARTESIAN_POINT ( 'NONE',  ( 0.1562500000000000278, 0.4374999999999998890, 1.913510623667738847E-17 ) ) ;
#151 = PRODUCT_DEFINITION_CONTEXT ( 'detailed design', #160, 'design' ) ;
#152 = FACE_OUTER_BOUND ( 'NONE', #292, .T. ) ;
#153 = CIRCLE ( 'NONE', #51, 0.1562500000000000278 ) ;
#154 = VECTOR ( 'NONE', #8, 39.37007874015748143 ) ;
#155 = ADVANCED_FACE ( 'NONE', ( #152 ), #199, .T. ) ;
#156 = PRESENTATION_STYLE_ASSIGNMENT (( #299 ) ) ;
#157 = DIRECTION ( 'NONE',  ( 0.000000000000000000, -1.000000000000000000, -0.000000000000000000 ) ) ;
#158 =( GEOMETRIC_REPRESENTATION_CONTEXT ( 3 ) GLOBAL_UNCERTAINTY_ASSIGNED_CONTEXT ( ( #185 ) ) GLOBAL_UNIT_ASSIGNED_CONTEXT ( ( #97, #267, #195 ) ) REPRESENTATION_CONTEXT ( 'NONE', 'WORKASPACE' ) );
#159 =( LENGTH_UNIT ( ) NAMED_UNIT ( * ) SI_UNIT ( $, .METRE. ) );
#160 = APPLICATION_CONTEXT ( 'automotive_design' ) ;
#161 = CIRCLE ( 'NONE', #253, 0.1562500000000000278 ) ;
#162 = ORIENTED_EDGE ( 'NONE', *, *, #91, .T. ) ;
#163 = DIRECTION ( 'NONE',  ( 1.567547902908612085E-16, 1.000000000000000000, -0.000000000000000000 ) ) ;
#164 = EDGE_CURVE ( 'NONE', #54, #296, #116, .T. ) ;
#165 = FACE_OUTER_BOUND ( 'NONE', #96, .T. ) ;
#166 = AXIS2_PLACEMENT_3D ( 'NONE', #277, #107, #41 ) ;
#167 = VERTEX_POINT ( 'NONE', #262 ) ;
#168 = DIRECTION ( 'NONE',  ( -1.000000000000000000, 0.000000000000000000, 0.000000000000000000 ) ) ;
#169 = PRESENTATION_STYLE_ASSIGNMENT (( #273 ) ) ;
#170 = COLOUR_RGB ( '',0.7921568627450980005, 0.8196078431372548767, 0.9333333333333333481 ) ;
#171 =( LENGTH_UNIT ( ) NAMED_UNIT ( * ) SI_UNIT ( $, .METRE. ) );
#172 = SURFACE_STYLE_FILL_AREA ( #55 ) ;
#173 = CARTESIAN_POINT ( 'NONE',  ( 0.000000000000000000, 0.000000000000000000, 0.000000000000000000 ) ) ;
#174 = DIRECTION ( 'NONE',  ( -0.000000000000000000, -1.000000000000000000, -0.000000000000000000 ) ) ;
#175 = ADVANCED_FACE ( 'NONE', ( #114 ), #236, .T. ) ;
#176 = DIRECTION ( 'NONE',  ( -1.000000000000000000, 0.000000000000000000, 0.000000000000000000 ) ) ;
#177 = DIRECTION ( 'NONE',  ( 0.000000000000000000, 0.000000000000000000, 1.000000000000000000 ) ) ;
#178 = DIRECTION ( 'NONE',  ( 0.000000000000000000, 1.000000000000000000, 0.000000000000000000 ) ) ;
#179 = APPLICATION_PROTOCOL_DEFINITION ( 'draft international standard', 'automotive_design', 1998, #160 ) ;
#180 = AXIS2_PLACEMENT_3D ( 'NONE', #1, #50, #181 ) ;
#181 = DIRECTION ( 'NONE',  ( -1.000000000000000000, 0.000000000000000000, 0.000000000000000000 ) ) ;
#182 = FILL_AREA_STYLE ('',( #141 ) ) ;
#183 = ORIENTED_EDGE ( 'NONE', *, *, #115, .T. ) ;
#184 = DIRECTION ( 'NONE',  ( 1.000000000000000000, -1.567547902908612085E-16, 0.000000000000000000 ) ) ;
#185 = UNCERTAINTY_MEASURE_WITH_UNIT (LENGTH_MEASURE( 1.000000000000000082E-05 ), #97, 'distance_accuracy_value', 'NONE');
#186 = ORIENTED_EDGE ( 'NONE', *, *, #164, .F. ) ;
#187 = COLOUR_RGB ( '',1.000000000000000000, 0.000000000000000000, 0.000000000000000000 ) ;
#188 =( LENGTH_UNIT ( ) NAMED_UNIT ( * ) SI_UNIT ( $, .METRE. ) );
#189 = STYLED_ITEM ( 'NONE', ( #31 ), #291 ) ;
#190 = CARTESIAN_POINT ( 'NONE',  ( 0.000000000000000000, 0.000000000000000000, 0.000000000000000000 ) ) ;
#191 = FILL_AREA_STYLE_COLOUR ( '', #60 ) ;
#192 = CARTESIAN_POINT ( 'NONE',  ( 2.449293598294706414E-16, 2.000000000000000000, 0.000000000000000000 ) ) ;
#193 = CARTESIAN_POINT ( 'NONE',  ( 0.1562500000000001665, 2.000000000000000000, 1.913510623667738539E-17 ) ) ;
#194 = LINE ( 'NONE', #275, #264 ) ;
#195 =( NAMED_UNIT ( * ) SI_UNIT ( $, .STERADIAN. ) SOLID_ANGLE_UNIT ( ) );
#196 = AXIS2_PLACEMENT_3D ( 'NONE', #81, #149, #168 ) ;
#197 = PLANE ( 'NONE',  #82 ) ;
#198 = UNCERTAINTY_MEASURE_WITH_UNIT (LENGTH_MEASURE( 1.000000000000000082E-05 ), #265, 'distance_accuracy_value', 'NONE');
#199 = CYLINDRICAL_SURFACE ( 'NONE', #231, 0.1562500000000000000 ) ;
#200 = CARTESIAN_POINT ( 'NONE',  ( 0.1562500000000000278, 2.000000000000000000, 1.913510623667738847E-17 ) ) ;
#201 = DIRECTION ( 'NONE',  ( -1.000000000000000000, 1.567547902908612085E-16, 0.000000000000000000 ) ) ;
#202 =( CONVERSION_BASED_UNIT ( 'INCH', #204 ) LENGTH_UNIT ( ) NAMED_UNIT ( #249 ) );
#203 = MECHANICAL_DESIGN_GEOMETRIC_PRESENTATION_REPRESENTATION (  '', ( #211 ), #83 ) ;
#204 = LENGTH_MEASURE_WITH_UNIT ( LENGTH_MEASURE( 0.02539999999999999897 ), #137 );
#205 = CARTESIAN_POINT ( 'NONE',  ( 2.449293598294706414E-16, 2.000000000000000000, 0.000000000000000000 ) ) ;
#206 = STYLED_ITEM ( 'NONE', ( #121 ), #43 ) ;
#207 = EDGE_CURVE ( 'NONE', #296, #54, #23, .T. ) ;
#208 = SURFACE_STYLE_FILL_AREA ( #182 ) ;
#209 = PRODUCT_DEFINITION ( 'UNKNOWN', '', #77, #151 ) ;
#210 = VECTOR ( 'NONE', #174, 39.37007874015748143 ) ;
#211 = STYLED_ITEM ( 'NONE', ( #169 ), #266 ) ;
#212 = DIRECTION ( 'NONE',  ( 0.000000000000000000, 0.000000000000000000, -1.000000000000000000 ) ) ;
#213 = APPLICATION_CONTEXT ( 'automotive_design' ) ;
#214 = FILL_AREA_STYLE_COLOUR ( '', #111 ) ;
#215 = ORIENTED_EDGE ( 'NONE', *, *, #309, .F. ) ;
#216 = LENGTH_MEASURE_WITH_UNIT ( LENGTH_MEASURE( 0.02539999999999999897 ), #125 );
#217 = ORIENTED_EDGE ( 'NONE', *, *, #21, .T. ) ;
#218 = CARTESIAN_POINT ( 'NONE',  ( -0.1562499999999996947, 2.000000000000000000, 0.000000000000000000 ) ) ;
#219 = CARTESIAN_POINT ( 'NONE',  ( 0.000000000000000000, 0.4374999999999998890, 0.000000000000000000 ) ) ;
#220 = DIRECTION ( 'NONE',  ( 0.000000000000000000, 0.000000000000000000, -1.000000000000000000 ) ) ;
#221 = LINE ( 'NONE', #218, #154 ) ;
#222 = CARTESIAN_POINT ( 'NONE',  ( 0.000000000000000000, 0.4374999999999998890, -0.1562500000000000278 ) ) ;
#223 =( CONVERSION_BASED_UNIT ( 'INCH', #247 ) LENGTH_UNIT ( ) NAMED_UNIT ( #109 ) );
#224 =( GEOMETRIC_REPRESENTATION_CONTEXT ( 3 ) GLOBAL_UNCERTAINTY_ASSIGNED_CONTEXT ( ( #237 ) ) GLOBAL_UNIT_ASSIGNED_CONTEXT ( ( #40, #134, #10 ) ) REPRESENTATION_CONTEXT ( 'NONE', 'WORKASPACE' ) );
#225 =( GEOMETRIC_REPRESENTATION_CONTEXT ( 3 ) GLOBAL_UNCERTAINTY_ASSIGNED_CONTEXT ( ( #295 ) ) GLOBAL_UNIT_ASSIGNED_CONTEXT ( ( #223, #251, #136 ) ) REPRESENTATION_CONTEXT ( 'NONE', 'WORKASPACE' ) );
#226 = DIRECTION ( 'NONE',  ( 1.567547902908612085E-16, 1.000000000000000000, -0.000000000000000000 ) ) ;
#227 = LENGTH_MEASURE_WITH_UNIT ( LENGTH_MEASURE( 0.02539999999999999897 ), #171 );
#228 = MECHANICAL_DESIGN_GEOMETRIC_PRESENTATION_REPRESENTATION (  '', ( #90 ), #46 ) ;
#229 = FILL_AREA_STYLE ('',( #108 ) ) ;
#230 = ADVANCED_FACE ( 'NONE', ( #45 ), #233, .T. ) ;
#231 = AXIS2_PLACEMENT_3D ( 'NONE', #84, #260, #212 ) ;
#232 = ORIENTED_EDGE ( 'NONE', *, *, #272, .T. ) ;
#233 = PLANE ( 'NONE',  #127 ) ;
#234 = SURFACE_SIDE_STYLE ('',( #208 ) ) ;
#235 = MECHANICAL_DESIGN_GEOMETRIC_PRESENTATION_REPRESENTATION (  '', ( #132 ), #282 ) ;
#236 = CYLINDRICAL_SURFACE ( 'NONE', #17, 0.1562499999999999445 ) ;
#237 = UNCERTAINTY_MEASURE_WITH_UNIT (LENGTH_MEASURE( 1.000000000000000082E-05 ), #40, 'distance_accuracy_value', 'NONE');
#238 = ORIENTED_EDGE ( 'NONE', *, *, #207, .T. ) ;
#239 = FILL_AREA_STYLE ('',( #191 ) ) ;
#240 = ORIENTED_EDGE ( 'NONE', *, *, #259, .T. ) ;
#241 = EDGE_LOOP ( 'NONE', ( #78, #139 ) ) ;
#242 = CIRCLE ( 'NONE', #166, 0.1562500000000000000 ) ;
#243 = DIRECTION ( 'NONE',  ( -0.000000000000000000, -1.000000000000000000, -0.000000000000000000 ) ) ;
#244 = DIRECTION ( 'NONE',  ( -0.000000000000000000, -1.000000000000000000, -0.000000000000000000 ) ) ;
#245 = CARTESIAN_POINT ( 'NONE',  ( 0.000000000000000000, 0.4374999999999998890, 0.000000000000000000 ) ) ;
#246 = MANIFOLD_SOLID_BREP ( 'Revolve - Cutting Edge', #307 ) ;
#247 = LENGTH_MEASURE_WITH_UNIT ( LENGTH_MEASURE( 0.02539999999999999897 ), #130 );
#248 = SURFACE_SIDE_STYLE ('',( #279 ) ) ;
#249 = DIMENSIONAL_EXPONENTS ( 1.000000000000000000, 0.000000000000000000, 0.000000000000000000, 0.000000000000000000, 0.000000000000000000, 0.000000000000000000, 0.000000000000000000 ) ;
#250 = FILL_AREA_STYLE ('',( #104 ) ) ;
#251 =( NAMED_UNIT ( * ) PLANE_ANGLE_UNIT ( ) SI_UNIT ( $, .RADIAN. ) );
#252 = DIRECTION ( 'NONE',  ( 1.567547902908612085E-16, 1.000000000000000000, -0.000000000000000000 ) ) ;
#253 = AXIS2_PLACEMENT_3D ( 'NONE', #219, #9, #285 ) ;
#254 = AXIS2_PLACEMENT_3D ( 'NONE', #33, #36, #220 ) ;
#255 = LENGTH_MEASURE_WITH_UNIT ( LENGTH_MEASURE( 0.02539999999999999897 ), #159 );
#256 = ADVANCED_FACE ( 'NONE', ( #165 ), #26, .F. ) ;
#257 =( GEOMETRIC_REPRESENTATION_CONTEXT ( 3 ) GLOBAL_UNCERTAINTY_ASSIGNED_CONTEXT ( ( #5 ) ) GLOBAL_UNIT_ASSIGNED_CONTEXT ( ( #202, #142, #140 ) ) REPRESENTATION_CONTEXT ( 'NONE', 'WORKASPACE' ) );
#258 = PRODUCT ( '24092', '24092', '', ( #67 ) ) ;
#259 = EDGE_CURVE ( 'NONE', #261, #54, #221, .T. ) ;
#260 = DIRECTION ( 'NONE',  ( -0.000000000000000000, -1.000000000000000000, -0.000000000000000000 ) ) ;
#261 = VERTEX_POINT ( 'NONE', #271 ) ;
#262 = CARTESIAN_POINT ( 'NONE',  ( 1.913510623667739771E-17, 0.4374999999999998890, 0.1562500000000000278 ) ) ;
#263 = ORIENTED_EDGE ( 'NONE', *, *, #15, .T. ) ;
#264 = VECTOR ( 'NONE', #244, 39.37007874015748143 ) ;
#265 =( CONVERSION_BASED_UNIT ( 'INCH', #146 ) LENGTH_UNIT ( ) NAMED_UNIT ( #14 ) );
#266 = ADVANCED_FACE ( 'NONE', ( #29 ), #11, .T. ) ;
#267 =( NAMED_UNIT ( * ) PLANE_ANGLE_UNIT ( ) SI_UNIT ( $, .RADIAN. ) );
#268 = FACE_OUTER_BOUND ( 'NONE', #100, .T. ) ;
#269 = CIRCLE ( 'NONE', #2, 0.1562500000000000000 ) ;
#270 = COLOUR_RGB ( '',0.7921568627450980005, 0.8196078431372548767, 0.9333333333333333481 ) ;
#271 = CARTESIAN_POINT ( 'NONE',  ( -0.1562500000000000278, 0.4374999999999998890, 0.000000000000000000 ) ) ;
#272 = EDGE_CURVE ( 'NONE', #128, #296, #294, .T. ) ;
#273 = SURFACE_STYLE_USAGE ( .BOTH. , #53 ) ;
#274 = CARTESIAN_POINT ( 'NONE',  ( 0.000000000000000000, 0.000000000000000000, 0.000000000000000000 ) ) ;
#275 = CARTESIAN_POINT ( 'NONE',  ( 1.913510623667739463E-17, 0.000000000000000000, 0.1562500000000000000 ) ) ;
#276 = EDGE_CURVE ( 'NONE', #167, #101, #120, .T. ) ;
#277 = CARTESIAN_POINT ( 'NONE',  ( 0.000000000000000000, 0.000000000000000000, 0.000000000000000000 ) ) ;
#278 = PRESENTATION_LAYER_ASSIGNMENT (  '', '', ( #59 ) ) ;
#279 = SURFACE_STYLE_FILL_AREA ( #250 ) ;
#280 = DIRECTION ( 'NONE',  ( 1.000000000000000000, 0.000000000000000000, 0.000000000000000000 ) ) ;
#281 = SURFACE_STYLE_FILL_AREA ( #229 ) ;
#282 =( GEOMETRIC_REPRESENTATION_CONTEXT ( 3 ) GLOBAL_UNCERTAINTY_ASSIGNED_CONTEXT ( ( #123 ) ) GLOBAL_UNIT_ASSIGNED_CONTEXT ( ( #38, #13, #37 ) ) REPRESENTATION_CONTEXT ( 'NONE', 'WORKASPACE' ) );
#283 = DIRECTION ( 'NONE',  ( 0.000000000000000000, -0.000000000000000000, 1.000000000000000000 ) ) ;
#284 = MECHANICAL_DESIGN_GEOMETRIC_PRESENTATION_REPRESENTATION (  '', ( #189 ), #158 ) ;
#285 = DIRECTION ( 'NONE',  ( 0.000000000000000000, 0.000000000000000000, -1.000000000000000000 ) ) ;
#286 = PRESENTATION_STYLE_ASSIGNMENT (( #4 ) ) ;
#287 = ORIENTED_EDGE ( 'NONE', *, *, #115, .F. ) ;
#288 = PRODUCT_DEFINITION_SHAPE ( 'NONE', 'NONE',  #209 ) ;
#289 = ORIENTED_EDGE ( 'NONE', *, *, #309, .T. ) ;
#290 = FACE_OUTER_BOUND ( 'NONE', #30, .T. ) ;
#291 = ADVANCED_FACE ( 'NONE', ( #290 ), #144, .T. ) ;
#292 = EDGE_LOOP ( 'NONE', ( #217, #3, #34, #126 ) ) ;
#293 = MECHANICAL_DESIGN_GEOMETRIC_PRESENTATION_REPRESENTATION (  '', ( #59 ), #257 ) ;
#294 = LINE ( 'NONE', #193, #105 ) ;
#295 = UNCERTAINTY_MEASURE_WITH_UNIT (LENGTH_MEASURE( 1.000000000000000082E-05 ), #223, 'distance_accuracy_value', 'NONE');
#296 = VERTEX_POINT ( 'NONE', #200 ) ;
#297 = DIRECTION ( 'NONE',  ( -1.567547902908612085E-16, -1.000000000000000000, 0.000000000000000000 ) ) ;
#298 = LINE ( 'NONE', #102, #210 ) ;
#299 = SURFACE_STYLE_USAGE ( .BOTH. , #248 ) ;
#300 = CYLINDRICAL_SURFACE ( 'NONE', #76, 0.1562499999999999445 ) ;
#301 =( LENGTH_UNIT ( ) NAMED_UNIT ( * ) SI_UNIT ( $, .METRE. ) );
#302 = APPLICATION_PROTOCOL_DEFINITION ( 'draft international standard', 'automotive_design', 1998, #213 ) ;
#303 = PRESENTATION_LAYER_ASSIGNMENT (  '', '', ( #211 ) ) ;
#304 = CARTESIAN_POINT ( 'NONE',  ( 2.449293598294706414E-16, 2.000000000000000000, 0.000000000000000000 ) ) ;
#305 = DIMENSIONAL_EXPONENTS ( 1.000000000000000000, 0.000000000000000000, 0.000000000000000000, 0.000000000000000000, 0.000000000000000000, 0.000000000000000000, 0.000000000000000000 ) ;
#306 = FILL_AREA_STYLE ('',( #87 ) ) ;
#307 = CLOSED_SHELL ( 'NONE', ( #155, #230, #266, #291 ) ) ;
#308 = AXIS2_PLACEMENT_3D ( 'NONE', #173, #157, #86 ) ;
#309 = EDGE_CURVE ( 'NONE', #32, #124, #242, .T. ) ;
ENDSEC;
END-ISO-10303-21;
