ISO-10303-21;
HEADER;
FILE_DESCRIPTION (( 'STEP AP214' ),
    '1' );
FILE_NAME ('Micro_RSCM-040-1.STEP',
    '2021-09-03T17:56:06',
    ( '' ),
    ( '' ),
    'SwSTEP 2.0',
    'SolidWorks 2020',
    '' );
FILE_SCHEMA (( 'AUTOMOTIVE_DESIGN' ));
ENDSEC;

DATA;
#1 = LINE ( 'NONE', #59, #112 ) ;
#2 = COLOUR_RGB ( '',0.7921568627450980005, 0.8196078431372548767, 0.9333333333333333481 ) ;
#3 = ORIENTED_EDGE ( 'NONE', *, *, #115, .F. ) ;
#4 = AXIS2_PLACEMENT_3D ( 'NONE', #91, #66, #10 ) ;
#5 = ORIENTED_EDGE ( 'NONE', *, *, #43, .T. ) ;
#6 = ORIENTED_EDGE ( 'NONE', *, *, #213, .F. ) ;
#7 = ORIENTED_EDGE ( 'NONE', *, *, #82, .T. ) ;
#8 = VECTOR ( 'NONE', #138, 39.37007874015748854 ) ;
#9 = DIRECTION ( 'NONE',  ( 1.000000000000000000, 0.0000000000000000000, 0.0000000000000000000 ) ) ;
#10 = DIRECTION ( 'NONE',  ( -1.000000000000000000, 0.0000000000000000000, 0.0000000000000000000 ) ) ;
#11 = DIRECTION ( 'NONE',  ( -0.0000000000000000000, -0.0000000000000000000, -1.000000000000000000 ) ) ;
#12 = ORIENTED_EDGE ( 'NONE', *, *, #79, .F. ) ;
#13 = EDGE_CURVE ( 'NONE', #203, #167, #98, .T. ) ;
#14 = VERTEX_POINT ( 'NONE', #208 ) ;
#15 = CONICAL_SURFACE ( 'NONE', #234, 0.06374000000000018540, 0.7853981633974522758 ) ;
#16 = CARTESIAN_POINT ( 'NONE',  ( -0.07874000000000000443, 0.0000000000000000000, 1.953504000000000129 ) ) ;
#17 = CARTESIAN_POINT ( 'NONE',  ( 0.0000000000000000000, 0.0000000000000000000, 0.0000000000000000000 ) ) ;
#18 = LINE ( 'NONE', #78, #8 ) ;
#19 = AXIS2_PLACEMENT_3D ( 'NONE', #89, #235, #55 ) ;
#20 =( NAMED_UNIT ( * ) SI_UNIT ( $, .STERADIAN. ) SOLID_ANGLE_UNIT ( ) );
#21 = COLOUR_RGB ( '',0.7921568627450980005, 0.8196078431372548767, 0.9333333333333333481 ) ;
#22 =( NAMED_UNIT ( * ) SI_UNIT ( $, .STERADIAN. ) SOLID_ANGLE_UNIT ( ) );
#23 = CIRCLE ( 'NONE', #87, 0.06374000000000018540 ) ;
#24 = PRODUCT_DEFINITION_CONTEXT ( 'detailed design', #164, 'design' ) ;
#25 = ORIENTED_EDGE ( 'NONE', *, *, #168, .T. ) ;
#26 = PRODUCT_CONTEXT ( 'NONE', #198, 'mechanical' ) ;
#27 = CARTESIAN_POINT ( 'NONE',  ( 0.0000000000000000000, 0.0000000000000000000, 0.0000000000000000000 ) ) ;
#28 = PLANE ( 'NONE',  #69 ) ;
#29 = PRESENTATION_LAYER_ASSIGNMENT (  '', '', ( #223 ) ) ;
#30 =( NAMED_UNIT ( * ) PLANE_ANGLE_UNIT ( ) SI_UNIT ( $, .RADIAN. ) );
#31 = CARTESIAN_POINT ( 'NONE',  ( 0.07874000000000000443, 9.642868896486258509E-18, 1.968503999999999809 ) ) ;
#32 = EDGE_LOOP ( 'NONE', ( #132, #42 ) ) ;
#33 = EDGE_LOOP ( 'NONE', ( #5, #186 ) ) ;
#34 = LENGTH_MEASURE_WITH_UNIT ( LENGTH_MEASURE( 0.02539999999999999897 ), #51 );
#35 = DIRECTION ( 'NONE',  ( 0.0000000000000000000, 0.0000000000000000000, -1.000000000000000000 ) ) ;
#36 = CARTESIAN_POINT ( 'NONE',  ( 0.0000000000000000000, 0.0000000000000000000, 1.968503999999999809 ) ) ;
#37 = AXIS2_PLACEMENT_3D ( 'NONE', #99, #180, #227 ) ;
#38 = DIRECTION ( 'NONE',  ( 0.7071067811865502373, 8.659560562354966138E-17, -0.7071067811865446862 ) ) ;
#39 = LENGTH_MEASURE_WITH_UNIT ( LENGTH_MEASURE( 0.02539999999999999897 ), #199 );
#40 = AXIS2_PLACEMENT_3D ( 'NONE', #113, #90, #86 ) ;
#41 = UNCERTAINTY_MEASURE_WITH_UNIT (LENGTH_MEASURE( 1.000000000000000082E-05 ), #184, 'distance_accuracy_value', 'NONE');
#42 = ORIENTED_EDGE ( 'NONE', *, *, #115, .T. ) ;
#43 = EDGE_CURVE ( 'NONE', #122, #136, #231, .T. ) ;
#44 = CIRCLE ( 'NONE', #37, 0.07874000000000000443 ) ;
#45 = PRESENTATION_STYLE_ASSIGNMENT (( #220 ) ) ;
#46 = ORIENTED_EDGE ( 'NONE', *, *, #147, .T. ) ;
#47 = LENGTH_MEASURE_WITH_UNIT ( LENGTH_MEASURE( 0.02539999999999999897 ), #74 );
#48 = FACE_OUTER_BOUND ( 'NONE', #155, .T. ) ;
#49 = VECTOR ( 'NONE', #130, 39.37007874015748143 ) ;
#50 = ADVANCED_FACE ( 'NONE', ( #152 ), #76, .T. ) ;
#51 =( LENGTH_UNIT ( ) NAMED_UNIT ( * ) SI_UNIT ( $, .METRE. ) );
#52 = DIRECTION ( 'NONE',  ( 0.5000000000000013323, 0.0000000000000000000, 0.8660254037844377084 ) ) ;
#53 = ADVANCED_FACE ( 'NONE', ( #226 ), #28, .F. ) ;
#54 = CARTESIAN_POINT ( 'NONE',  ( -0.07874000000000000443, 0.0000000000000000000, 1.968503999999999809 ) ) ;
#55 = DIRECTION ( 'NONE',  ( 1.000000000000000000, 0.0000000000000000000, -0.0000000000000000000 ) ) ;
#56 = DIMENSIONAL_EXPONENTS ( 1.000000000000000000, 0.0000000000000000000, 0.0000000000000000000, 0.0000000000000000000, 0.0000000000000000000, 0.0000000000000000000, 0.0000000000000000000 ) ;
#57 = ADVANCED_FACE ( 'NONE', ( #154 ), #191, .T. ) ;
#58 = VECTOR ( 'NONE', #224, 39.37007874015748854 ) ;
#59 = CARTESIAN_POINT ( 'NONE',  ( 0.06374000000000018540, 7.805898697765251255E-18, 1.968503999999999809 ) ) ;
#60 = DIRECTION ( 'NONE',  ( 0.0000000000000000000, 0.0000000000000000000, 1.000000000000000000 ) ) ;
#61 = AXIS2_PLACEMENT_3D ( 'NONE', #27, #70, #72 ) ;
#62 = VERTEX_POINT ( 'NONE', #146 ) ;
#63 = APPLICATION_PROTOCOL_DEFINITION ( 'draft international standard', 'automotive_design', 1998, #164 ) ;
#64 =( NAMED_UNIT ( * ) PLANE_ANGLE_UNIT ( ) SI_UNIT ( $, .RADIAN. ) );
#65 = CARTESIAN_POINT ( 'NONE',  ( 0.0000000000000000000, 0.0000000000000000000, 1.968503999999999809 ) ) ;
#66 = DIRECTION ( 'NONE',  ( -0.0000000000000000000, -0.0000000000000000000, -1.000000000000000000 ) ) ;
#67 = LINE ( 'NONE', #237, #58 ) ;
#68 = ORIENTED_EDGE ( 'NONE', *, *, #102, .F. ) ;
#69 = AXIS2_PLACEMENT_3D ( 'NONE', #17, #243, #107 ) ;
#70 = DIRECTION ( 'NONE',  ( -0.0000000000000000000, -0.0000000000000000000, -1.000000000000000000 ) ) ;
#71 = DIRECTION ( 'NONE',  ( 1.000000000000000000, 0.0000000000000000000, 0.0000000000000000000 ) ) ;
#72 = DIRECTION ( 'NONE',  ( -1.000000000000000000, 0.0000000000000000000, 0.0000000000000000000 ) ) ;
#73 = VERTEX_POINT ( 'NONE', #188 ) ;
#74 =( LENGTH_UNIT ( ) NAMED_UNIT ( * ) SI_UNIT ( $, .METRE. ) );
#75 = EDGE_LOOP ( 'NONE', ( #170, #219, #68, #85 ) ) ;
#76 = CONICAL_SURFACE ( 'NONE', #233, 0.003936999999999995191, 0.5235987755983005920 ) ;
#77 = CARTESIAN_POINT ( 'NONE',  ( -0.07874000000000000443, 0.0000000000000000000, 0.1295625965585742445 ) ) ;
#78 = CARTESIAN_POINT ( 'NONE',  ( -0.06374000000000018540, 0.0000000000000000000, 1.968503999999999809 ) ) ;
#79 = EDGE_CURVE ( 'NONE', #167, #203, #163, .T. ) ;
#80 = SURFACE_SIDE_STYLE ('',( #141 ) ) ;
#81 = DIRECTION ( 'NONE',  ( -1.000000000000000000, 0.0000000000000000000, 0.0000000000000000000 ) ) ;
#82 = EDGE_CURVE ( 'NONE', #14, #167, #190, .T. ) ;
#83 = DIMENSIONAL_EXPONENTS ( 1.000000000000000000, 0.0000000000000000000, 0.0000000000000000000, 0.0000000000000000000, 0.0000000000000000000, 0.0000000000000000000, 0.0000000000000000000 ) ;
#84 = ORIENTED_EDGE ( 'NONE', *, *, #217, .T. ) ;
#85 = ORIENTED_EDGE ( 'NONE', *, *, #217, .F. ) ;
#86 = DIRECTION ( 'NONE',  ( -1.000000000000000000, 0.0000000000000000000, 0.0000000000000000000 ) ) ;
#87 = AXIS2_PLACEMENT_3D ( 'NONE', #65, #95, #221 ) ;
#88 = FILL_AREA_STYLE ('',( #135 ) ) ;
#89 = CARTESIAN_POINT ( 'NONE',  ( 0.0000000000000000000, 0.0000000000000000000, 1.968503999999999809 ) ) ;
#90 = DIRECTION ( 'NONE',  ( -0.0000000000000000000, -0.0000000000000000000, -1.000000000000000000 ) ) ;
#91 = CARTESIAN_POINT ( 'NONE',  ( 0.0000000000000000000, 0.0000000000000000000, 0.1295625965585742445 ) ) ;
#92 = CARTESIAN_POINT ( 'NONE',  ( 0.0000000000000000000, 0.0000000000000000000, 1.953504000000000129 ) ) ;
#93 = CARTESIAN_POINT ( 'NONE',  ( 0.0000000000000000000, 0.0000000000000000000, 1.968503999999999809 ) ) ;
#94 = CONICAL_SURFACE ( 'NONE', #121, 0.003936999999999995191, 0.5235987755983005920 ) ;
#95 = DIRECTION ( 'NONE',  ( 0.0000000000000000000, 0.0000000000000000000, 1.000000000000000000 ) ) ;
#96 = DIRECTION ( 'NONE',  ( 0.0000000000000000000, 0.0000000000000000000, -1.000000000000000000 ) ) ;
#97 = DIRECTION ( 'NONE',  ( -0.0000000000000000000, -0.0000000000000000000, -1.000000000000000000 ) ) ;
#98 = CIRCLE ( 'NONE', #4, 0.07874000000000000443 ) ;
#99 = CARTESIAN_POINT ( 'NONE',  ( 0.0000000000000000000, 0.0000000000000000000, 1.953504000000000129 ) ) ;
#100 = DIMENSIONAL_EXPONENTS ( 1.000000000000000000, 0.0000000000000000000, 0.0000000000000000000, 0.0000000000000000000, 0.0000000000000000000, 0.0000000000000000000, 0.0000000000000000000 ) ;
#101 = APPLICATION_PROTOCOL_DEFINITION ( 'draft international standard', 'automotive_design', 1998, #198 ) ;
#102 = EDGE_CURVE ( 'NONE', #106, #14, #156, .T. ) ;
#103 = AXIS2_PLACEMENT_3D ( 'NONE', #236, #60, #161 ) ;
#104 = EDGE_CURVE ( 'NONE', #73, #62, #116, .T. ) ;
#105 = EDGE_LOOP ( 'NONE', ( #6, #185, #84, #222 ) ) ;
#106 = VERTEX_POINT ( 'NONE', #16 ) ;
#107 = DIRECTION ( 'NONE',  ( 1.000000000000000000, 0.0000000000000000000, -0.0000000000000000000 ) ) ;
#108 = EDGE_LOOP ( 'NONE', ( #111, #150, #46, #166 ) ) ;
#109 = MANIFOLD_SOLID_BREP ( 'Cut-Revolve1', #174 ) ;
#110 =( NAMED_UNIT ( * ) SI_UNIT ( $, .STERADIAN. ) SOLID_ANGLE_UNIT ( ) );
#111 = ORIENTED_EDGE ( 'NONE', *, *, #143, .F. ) ;
#112 = VECTOR ( 'NONE', #38, 39.37007874015748854 ) ;
#113 = CARTESIAN_POINT ( 'NONE',  ( 0.0000000000000000000, 0.0000000000000000000, 0.0000000000000000000 ) ) ;
#114 = FACE_OUTER_BOUND ( 'NONE', #189, .T. ) ;
#115 = EDGE_CURVE ( 'NONE', #62, #73, #139, .T. ) ;
#116 = CIRCLE ( 'NONE', #40, 0.003936999999999995191 ) ;
#117 = DIRECTION ( 'NONE',  ( 0.0000000000000000000, 0.0000000000000000000, -1.000000000000000000 ) ) ;
#118 = UNCERTAINTY_MEASURE_WITH_UNIT (LENGTH_MEASURE( 1.000000000000000082E-05 ), #181, 'distance_accuracy_value', 'NONE');
#119 = PRESENTATION_STYLE_ASSIGNMENT (( #229 ) ) ;
#120 = DIRECTION ( 'NONE',  ( -1.000000000000000000, 0.0000000000000000000, 0.0000000000000000000 ) ) ;
#121 = AXIS2_PLACEMENT_3D ( 'NONE', #244, #201, #158 ) ;
#122 = VERTEX_POINT ( 'NONE', #134 ) ;
#123 = STYLED_ITEM ( 'NONE', ( #45 ), #109 ) ;
#124 = PRODUCT_DEFINITION ( 'UNKNOWN', '', #157, #24 ) ;
#125 = AXIS2_PLACEMENT_3D ( 'NONE', #92, #35, #9 ) ;
#126 = ORIENTED_EDGE ( 'NONE', *, *, #13, .T. ) ;
#127 = UNCERTAINTY_MEASURE_WITH_UNIT (LENGTH_MEASURE( 1.000000000000000082E-05 ), #129, 'distance_accuracy_value', 'NONE');
#128 = EDGE_CURVE ( 'NONE', #136, #122, #23, .T. ) ;
#129 =( CONVERSION_BASED_UNIT ( 'INCH', #34 ) LENGTH_UNIT ( ) NAMED_UNIT ( #100 ) );
#130 = DIRECTION ( 'NONE',  ( -0.0000000000000000000, -0.0000000000000000000, -1.000000000000000000 ) ) ;
#131 = AXIS2_PLACEMENT_3D ( 'NONE', #36, #117, #81 ) ;
#132 = ORIENTED_EDGE ( 'NONE', *, *, #104, .T. ) ;
#133 = ORIENTED_EDGE ( 'NONE', *, *, #143, .T. ) ;
#134 = CARTESIAN_POINT ( 'NONE',  ( -0.06374000000000018540, 0.0000000000000000000, 1.968503999999999809 ) ) ;
#135 = FILL_AREA_STYLE_COLOUR ( '', #2 ) ;
#136 = VERTEX_POINT ( 'NONE', #149 ) ;
#137 = CYLINDRICAL_SURFACE ( 'NONE', #218, 0.07874000000000000443 ) ;
#138 = DIRECTION ( 'NONE',  ( -0.7071067811865502373, 0.0000000000000000000, -0.7071067811865446862 ) ) ;
#139 = CIRCLE ( 'NONE', #61, 0.003936999999999995191 ) ;
#140 = ADVANCED_FACE ( 'NONE', ( #48 ), #192, .T. ) ;
#141 = SURFACE_STYLE_FILL_AREA ( #248 ) ;
#142 = CARTESIAN_POINT ( 'NONE',  ( 0.0000000000000000000, 0.0000000000000000000, 1.968503999999999809 ) ) ;
#143 = EDGE_CURVE ( 'NONE', #62, #203, #67, .T. ) ;
#144 = PRODUCT_DEFINITION_SHAPE ( 'NONE', 'NONE',  #124 ) ;
#145 = ORIENTED_EDGE ( 'NONE', *, *, #147, .F. ) ;
#146 = CARTESIAN_POINT ( 'NONE',  ( -0.003936999999999995191, 5.062506170655285717E-18, 0.0000000000000000000 ) ) ;
#147 = EDGE_CURVE ( 'NONE', #73, #167, #242, .T. ) ;
#148 = ORIENTED_EDGE ( 'NONE', *, *, #13, .F. ) ;
#149 = CARTESIAN_POINT ( 'NONE',  ( 0.06374000000000018540, 8.724383797125754882E-18, 1.968503999999999809 ) ) ;
#150 = ORIENTED_EDGE ( 'NONE', *, *, #104, .F. ) ;
#151 =( GEOMETRIC_REPRESENTATION_CONTEXT ( 3 ) GLOBAL_UNCERTAINTY_ASSIGNED_CONTEXT ( ( #127 ) ) GLOBAL_UNIT_ASSIGNED_CONTEXT ( ( #129, #64, #110 ) ) REPRESENTATION_CONTEXT ( 'NONE', 'WORKASPACE' ) );
#152 = FACE_OUTER_BOUND ( 'NONE', #178, .T. ) ;
#153 = CARTESIAN_POINT ( 'NONE',  ( 0.003936999999999995191, 0.0000000000000000000, 0.0000000000000000000 ) ) ;
#154 = FACE_OUTER_BOUND ( 'NONE', #33, .T. ) ;
#155 = EDGE_LOOP ( 'NONE', ( #197, #7, #148, #193 ) ) ;
#156 = CIRCLE ( 'NONE', #125, 0.07874000000000000443 ) ;
#157 = PRODUCT_DEFINITION_FORMATION_WITH_SPECIFIED_SOURCE ( 'ANY', '', #215, .NOT_KNOWN. ) ;
#158 = DIRECTION ( 'NONE',  ( 1.000000000000000000, 0.0000000000000000000, 0.0000000000000000000 ) ) ;
#159 = DIRECTION ( 'NONE',  ( -0.0000000000000000000, -0.0000000000000000000, -1.000000000000000000 ) ) ;
#160 = VECTOR ( 'NONE', #52, 39.37007874015748854 ) ;
#161 = DIRECTION ( 'NONE',  ( 1.000000000000000000, 0.0000000000000000000, 0.0000000000000000000 ) ) ;
#162 = SHAPE_DEFINITION_REPRESENTATION ( #144, #187 ) ;
#163 = CIRCLE ( 'NONE', #195, 0.07874000000000000443 ) ;
#164 = APPLICATION_CONTEXT ( 'automotive_design' ) ;
#165 = PRODUCT_RELATED_PRODUCT_CATEGORY ( 'part', '', ( #215 ) ) ;
#166 = ORIENTED_EDGE ( 'NONE', *, *, #79, .T. ) ;
#167 = VERTEX_POINT ( 'NONE', #232 ) ;
#168 = EDGE_CURVE ( 'NONE', #106, #203, #245, .T. ) ;
#169 = MECHANICAL_DESIGN_GEOMETRIC_PRESENTATION_REPRESENTATION (  '', ( #223 ), #179 ) ;
#170 = ORIENTED_EDGE ( 'NONE', *, *, #128, .F. ) ;
#171 = DIRECTION ( 'NONE',  ( -1.000000000000000000, 0.0000000000000000000, 0.0000000000000000000 ) ) ;
#172 = ORIENTED_EDGE ( 'NONE', *, *, #207, .T. ) ;
#173 = SURFACE_SIDE_STYLE ('',( #205 ) ) ;
#174 = CLOSED_SHELL ( 'NONE', ( #50, #241, #140, #249, #57, #246, #176, #53 ) ) ;
#175 = CARTESIAN_POINT ( 'NONE',  ( 0.0000000000000000000, 0.0000000000000000000, 0.1295625965585742445 ) ) ;
#176 = ADVANCED_FACE ( 'NONE', ( #214 ), #94, .T. ) ;
#177 = FILL_AREA_STYLE_COLOUR ( '', #21 ) ;
#178 = EDGE_LOOP ( 'NONE', ( #3, #133, #126, #145 ) ) ;
#179 =( GEOMETRIC_REPRESENTATION_CONTEXT ( 3 ) GLOBAL_UNCERTAINTY_ASSIGNED_CONTEXT ( ( #41 ) ) GLOBAL_UNIT_ASSIGNED_CONTEXT ( ( #184, #30, #22 ) ) REPRESENTATION_CONTEXT ( 'NONE', 'WORKASPACE' ) );
#180 = DIRECTION ( 'NONE',  ( 0.0000000000000000000, 0.0000000000000000000, -1.000000000000000000 ) ) ;
#181 =( CONVERSION_BASED_UNIT ( 'INCH', #39 ) LENGTH_UNIT ( ) NAMED_UNIT ( #56 ) );
#182 = CARTESIAN_POINT ( 'NONE',  ( 0.0000000000000000000, 0.0000000000000000000, 1.968503999999999809 ) ) ;
#183 = AXIS2_PLACEMENT_3D ( 'NONE', #196, #11, #171 ) ;
#184 =( CONVERSION_BASED_UNIT ( 'INCH', #47 ) LENGTH_UNIT ( ) NAMED_UNIT ( #83 ) );
#185 = ORIENTED_EDGE ( 'NONE', *, *, #43, .F. ) ;
#186 = ORIENTED_EDGE ( 'NONE', *, *, #128, .T. ) ;
#187 = ADVANCED_BREP_SHAPE_REPRESENTATION ( 'Micro_RSCM-040-1', ( #109, #103 ), #200 ) ;
#188 = CARTESIAN_POINT ( 'NONE',  ( 0.003936999999999995191, 0.0000000000000000000, 0.0000000000000000000 ) ) ;
#189 = EDGE_LOOP ( 'NONE', ( #209, #172, #25, #12 ) ) ;
#190 = LINE ( 'NONE', #31, #49 ) ;
#191 = PLANE ( 'NONE',  #19 ) ;
#192 = CYLINDRICAL_SURFACE ( 'NONE', #183, 0.07874000000000000443 ) ;
#193 = ORIENTED_EDGE ( 'NONE', *, *, #168, .F. ) ;
#194 = DIRECTION ( 'NONE',  ( -0.0000000000000000000, -0.0000000000000000000, -1.000000000000000000 ) ) ;
#195 = AXIS2_PLACEMENT_3D ( 'NONE', #175, #194, #210 ) ;
#196 = CARTESIAN_POINT ( 'NONE',  ( 0.0000000000000000000, 0.0000000000000000000, 1.968503999999999809 ) ) ;
#197 = ORIENTED_EDGE ( 'NONE', *, *, #102, .T. ) ;
#198 = APPLICATION_CONTEXT ( 'automotive_design' ) ;
#199 =( LENGTH_UNIT ( ) NAMED_UNIT ( * ) SI_UNIT ( $, .METRE. ) );
#200 =( GEOMETRIC_REPRESENTATION_CONTEXT ( 3 ) GLOBAL_UNCERTAINTY_ASSIGNED_CONTEXT ( ( #118 ) ) GLOBAL_UNIT_ASSIGNED_CONTEXT ( ( #181, #228, #20 ) ) REPRESENTATION_CONTEXT ( 'NONE', 'WORKASPACE' ) );
#201 = DIRECTION ( 'NONE',  ( 0.0000000000000000000, 0.0000000000000000000, 1.000000000000000000 ) ) ;
#202 = AXIS2_PLACEMENT_3D ( 'NONE', #93, #206, #240 ) ;
#203 = VERTEX_POINT ( 'NONE', #77 ) ;
#204 = VECTOR ( 'NONE', #97, 39.37007874015748143 ) ;
#205 = SURFACE_STYLE_FILL_AREA ( #88 ) ;
#206 = DIRECTION ( 'NONE',  ( 0.0000000000000000000, 0.0000000000000000000, 1.000000000000000000 ) ) ;
#207 = EDGE_CURVE ( 'NONE', #14, #106, #44, .T. ) ;
#208 = CARTESIAN_POINT ( 'NONE',  ( 0.07874000000000000443, 9.642868896486258509E-18, 1.953504000000000129 ) ) ;
#209 = ORIENTED_EDGE ( 'NONE', *, *, #82, .F. ) ;
#210 = DIRECTION ( 'NONE',  ( -1.000000000000000000, 0.0000000000000000000, 0.0000000000000000000 ) ) ;
#211 = PRESENTATION_LAYER_ASSIGNMENT (  '', '', ( #123 ) ) ;
#212 = FACE_OUTER_BOUND ( 'NONE', #105, .T. ) ;
#213 = EDGE_CURVE ( 'NONE', #136, #14, #1, .T. ) ;
#214 = FACE_OUTER_BOUND ( 'NONE', #108, .T. ) ;
#215 = PRODUCT ( 'Micro_RSCM-040-1', 'Micro_RSCM-040-1', '', ( #26 ) ) ;
#216 = DIRECTION ( 'NONE',  ( -1.000000000000000000, 0.0000000000000000000, 0.0000000000000000000 ) ) ;
#217 = EDGE_CURVE ( 'NONE', #122, #106, #18, .T. ) ;
#218 = AXIS2_PLACEMENT_3D ( 'NONE', #182, #159, #216 ) ;
#219 = ORIENTED_EDGE ( 'NONE', *, *, #213, .T. ) ;
#220 = SURFACE_STYLE_USAGE ( .BOTH. , #173 ) ;
#221 = DIRECTION ( 'NONE',  ( 1.000000000000000000, 0.0000000000000000000, 0.0000000000000000000 ) ) ;
#222 = ORIENTED_EDGE ( 'NONE', *, *, #207, .F. ) ;
#223 = STYLED_ITEM ( 'NONE', ( #119 ), #187 ) ;
#224 = DIRECTION ( 'NONE',  ( -0.5000000000000013323, 6.123233995736782060E-17, 0.8660254037844377084 ) ) ;
#225 = DIRECTION ( 'NONE',  ( 0.0000000000000000000, 0.0000000000000000000, 1.000000000000000000 ) ) ;
#226 = FACE_OUTER_BOUND ( 'NONE', #32, .T. ) ;
#227 = DIRECTION ( 'NONE',  ( 1.000000000000000000, 0.0000000000000000000, 0.0000000000000000000 ) ) ;
#228 =( NAMED_UNIT ( * ) PLANE_ANGLE_UNIT ( ) SI_UNIT ( $, .RADIAN. ) );
#229 = SURFACE_STYLE_USAGE ( .BOTH. , #80 ) ;
#230 = CONICAL_SURFACE ( 'NONE', #131, 0.06374000000000018540, 0.7853981633974522758 ) ;
#231 = CIRCLE ( 'NONE', #202, 0.06374000000000018540 ) ;
#232 = CARTESIAN_POINT ( 'NONE',  ( 0.07874000000000000443, 9.642868896486258509E-18, 0.1295625965585742445 ) ) ;
#233 = AXIS2_PLACEMENT_3D ( 'NONE', #238, #225, #71 ) ;
#234 = AXIS2_PLACEMENT_3D ( 'NONE', #142, #96, #120 ) ;
#235 = DIRECTION ( 'NONE',  ( 0.0000000000000000000, 0.0000000000000000000, 1.000000000000000000 ) ) ;
#236 = CARTESIAN_POINT ( 'NONE',  ( 0.0000000000000000000, 0.0000000000000000000, 0.0000000000000000000 ) ) ;
#237 = CARTESIAN_POINT ( 'NONE',  ( -0.003936999999999995191, 4.821434448243123477E-19, 0.0000000000000000000 ) ) ;
#238 = CARTESIAN_POINT ( 'NONE',  ( 0.0000000000000000000, 0.0000000000000000000, 0.0000000000000000000 ) ) ;
#239 = MECHANICAL_DESIGN_GEOMETRIC_PRESENTATION_REPRESENTATION (  '', ( #123 ), #151 ) ;
#240 = DIRECTION ( 'NONE',  ( 1.000000000000000000, 0.0000000000000000000, 0.0000000000000000000 ) ) ;
#241 = ADVANCED_FACE ( 'NONE', ( #247 ), #230, .T. ) ;
#242 = LINE ( 'NONE', #153, #160 ) ;
#243 = DIRECTION ( 'NONE',  ( 0.0000000000000000000, 0.0000000000000000000, 1.000000000000000000 ) ) ;
#244 = CARTESIAN_POINT ( 'NONE',  ( 0.0000000000000000000, 0.0000000000000000000, 0.0000000000000000000 ) ) ;
#245 = LINE ( 'NONE', #54, #204 ) ;
#246 = ADVANCED_FACE ( 'NONE', ( #212 ), #15, .T. ) ;
#247 = FACE_OUTER_BOUND ( 'NONE', #75, .T. ) ;
#248 = FILL_AREA_STYLE ('',( #177 ) ) ;
#249 = ADVANCED_FACE ( 'NONE', ( #114 ), #137, .T. ) ;
ENDSEC;
END-ISO-10303-21;
