ISO-10303-21;
HEADER;
FILE_DESCRIPTION (( 'STEP AP214' ),
    '1' );
FILE_NAME ('Micro_SBMM-020-210X.STEP',
    '2021-09-02T17:04:22',
    ( '' ),
    ( '' ),
    'SwSTEP 2.0',
    'SolidWorks 2020',
    '' );
FILE_SCHEMA (( 'AUTOMOTIVE_DESIGN' ));
ENDSEC;

DATA;
#1 = DIRECTION ( 'NONE',  ( -0.0000000000000000000, -0.0000000000000000000, -1.000000000000000000 ) ) ;
#2 = ORIENTED_EDGE ( 'NONE', *, *, #245, .F. ) ;
#3 = DIRECTION ( 'NONE',  ( -0.0000000000000000000, -0.0000000000000000000, -1.000000000000000000 ) ) ;
#4 = VERTEX_POINT ( 'NONE', #178 ) ;
#5 = FILL_AREA_STYLE_COLOUR ( '', #187 ) ;
#6 = EDGE_LOOP ( 'NONE', ( #190, #56, #114, #81 ) ) ;
#7 = COLOUR_RGB ( '',0.7921568627450980005, 0.8196078431372548767, 0.9333333333333333481 ) ;
#8 = SURFACE_SIDE_STYLE ('',( #208 ) ) ;
#9 = FACE_OUTER_BOUND ( 'NONE', #64, .T. ) ;
#10 = CIRCLE ( 'NONE', #36, 0.1031099999999991745 ) ;
#11 = STYLED_ITEM ( 'NONE', ( #263 ), #333 ) ;
#12 = CARTESIAN_POINT ( 'NONE',  ( 0.0000000000000000000, 0.0000000000000000000, 0.06928860975630385388 ) ) ;
#13 = CYLINDRICAL_SURFACE ( 'NONE', #272, 0.02559049999999996397 ) ;
#14 = DIRECTION ( 'NONE',  ( -1.000000000000000000, 0.0000000000000000000, 0.0000000000000000000 ) ) ;
#15 = CARTESIAN_POINT ( 'NONE',  ( 0.1181100000000000344, 1.446430334472939084E-17, 2.952755999999999936 ) ) ;
#16 = PRESENTATION_STYLE_ASSIGNMENT (( #299 ) ) ;
#17 = CONICAL_SURFACE ( 'NONE', #96, 0.1031099999999991745, 0.7853981633974500554 ) ;
#18 = DIRECTION ( 'NONE',  ( -0.0000000000000000000, -0.0000000000000000000, -1.000000000000000000 ) ) ;
#19 = CARTESIAN_POINT ( 'NONE',  ( -0.1181100000000000344, 0.0000000000000000000, 2.937755999999999368 ) ) ;
#20 = CARTESIAN_POINT ( 'NONE',  ( 0.0000000000000000000, 0.0000000000000000000, 0.03937000000000000915 ) ) ;
#21 = AXIS2_PLACEMENT_3D ( 'NONE', #168, #41, #194 ) ;
#22 = VERTEX_POINT ( 'NONE', #63 ) ;
#23 = ADVANCED_FACE ( 'NONE', ( #280 ), #199, .T. ) ;
#24 = DIRECTION ( 'NONE',  ( 1.000000000000000000, 0.0000000000000000000, 0.0000000000000000000 ) ) ;
#25 = APPLICATION_CONTEXT ( 'automotive_design' ) ;
#26 = CARTESIAN_POINT ( 'NONE',  ( 0.0000000000000000000, 0.0000000000000000000, 2.937755999999999368 ) ) ;
#27 = ORIENTED_EDGE ( 'NONE', *, *, #220, .T. ) ;
#28 = ADVANCED_FACE ( 'NONE', ( #237 ), #13, .T. ) ;
#29 = DIRECTION ( 'NONE',  ( 0.09001749462147050351, 0.0000000000000000000, 0.9959401842791932857 ) ) ;
#30 = AXIS2_PLACEMENT_3D ( 'NONE', #26, #221, #130 ) ;
#31 =( GEOMETRIC_REPRESENTATION_CONTEXT ( 3 ) GLOBAL_UNCERTAINTY_ASSIGNED_CONTEXT ( ( #198 ) ) GLOBAL_UNIT_ASSIGNED_CONTEXT ( ( #58, #323, #321 ) ) REPRESENTATION_CONTEXT ( 'NONE', 'WORKASPACE' ) );
#32 = VERTEX_POINT ( 'NONE', #105 ) ;
#33 = DIRECTION ( 'NONE',  ( -1.000000000000000000, 0.0000000000000000000, 0.0000000000000000000 ) ) ;
#34 = ORIENTED_EDGE ( 'NONE', *, *, #89, .F. ) ;
#35 = EDGE_LOOP ( 'NONE', ( #123, #40, #38, #183 ) ) ;
#36 = AXIS2_PLACEMENT_3D ( 'NONE', #244, #97, #69 ) ;
#37 = CIRCLE ( 'NONE', #318, 0.02559049999999998132 ) ;
#38 = ORIENTED_EDGE ( 'NONE', *, *, #234, .T. ) ;
#39 = VECTOR ( 'NONE', #29, 39.37007874015748854 ) ;
#40 = ORIENTED_EDGE ( 'NONE', *, *, #262, .T. ) ;
#41 = DIRECTION ( 'NONE',  ( 0.0000000000000000000, 0.0000000000000000000, -1.000000000000000000 ) ) ;
#42 = APPLICATION_CONTEXT ( 'automotive_design' ) ;
#43 = CARTESIAN_POINT ( 'NONE',  ( 0.0000000000000000000, 0.0000000000000000000, 0.06928860975630385388 ) ) ;
#44 = AXIS2_PLACEMENT_3D ( 'NONE', #157, #163, #266 ) ;
#45 = DIRECTION ( 'NONE',  ( -0.7071067811865486830, 0.0000000000000000000, -0.7071067811865462405 ) ) ;
#46 = ORIENTED_EDGE ( 'NONE', *, *, #120, .F. ) ;
#47 = CARTESIAN_POINT ( 'NONE',  ( 0.0000000000000000000, 0.0000000000000000000, 0.06928860975630385388 ) ) ;
#48 = ORIENTED_EDGE ( 'NONE', *, *, #132, .T. ) ;
#49 = LINE ( 'NONE', #177, #238 ) ;
#50 = AXIS2_PLACEMENT_3D ( 'NONE', #43, #239, #296 ) ;
#51 = PRESENTATION_LAYER_ASSIGNMENT (  '', '', ( #11 ) ) ;
#52 = FACE_OUTER_BOUND ( 'NONE', #154, .T. ) ;
#53 = DIRECTION ( 'NONE',  ( -0.0000000000000000000, -0.0000000000000000000, -1.000000000000000000 ) ) ;
#54 = DIRECTION ( 'NONE',  ( -0.0000000000000000000, -0.0000000000000000000, -1.000000000000000000 ) ) ;
#55 = CARTESIAN_POINT ( 'NONE',  ( 0.02559049999999998132, 3.133932391358031704E-18, 0.06928860975630385388 ) ) ;
#56 = ORIENTED_EDGE ( 'NONE', *, *, #124, .F. ) ;
#57 = EDGE_LOOP ( 'NONE', ( #110, #227, #243, #345, #258 ) ) ;
#58 =( CONVERSION_BASED_UNIT ( 'INCH', #287 ) LENGTH_UNIT ( ) NAMED_UNIT ( #241 ) );
#59 = ADVANCED_FACE ( 'NONE', ( #180 ), #94, .T. ) ;
#60 = VECTOR ( 'NONE', #80, 39.37007874015748143 ) ;
#61 = AXIS2_PLACEMENT_3D ( 'NONE', #176, #277, #136 ) ;
#62 = DIRECTION ( 'NONE',  ( -0.0000000000000000000, -0.0000000000000000000, -1.000000000000000000 ) ) ;
#63 = CARTESIAN_POINT ( 'NONE',  ( 0.0000000000000000000, 0.02559049999999999173, 0.06928860975630385388 ) ) ;
#64 = EDGE_LOOP ( 'NONE', ( #253, #292, #34, #46 ) ) ;
#65 = PRODUCT ( 'Micro_SBMM-020-210X', 'Micro_SBMM-020-210X', '', ( #185 ) ) ;
#66 = AXIS2_PLACEMENT_3D ( 'NONE', #340, #1, #279 ) ;
#67 = ADVANCED_FACE ( 'NONE', ( #71 ), #93, .T. ) ;
#68 = CARTESIAN_POINT ( 'NONE',  ( 3.133932391358032860E-18, -0.02559049999999999173, 0.06928860975630385388 ) ) ;
#69 = DIRECTION ( 'NONE',  ( 1.000000000000000000, 0.0000000000000000000, 0.0000000000000000000 ) ) ;
#70 = AXIS2_PLACEMENT_3D ( 'NONE', #305, #106, #246 ) ;
#71 = FACE_OUTER_BOUND ( 'NONE', #341, .T. ) ;
#72 = MANIFOLD_SOLID_BREP ( 'Cut-Revolve3', #302 ) ;
#73 = DIRECTION ( 'NONE',  ( 1.000000000000000000, 0.0000000000000000000, 0.0000000000000000000 ) ) ;
#74 = DIRECTION ( 'NONE',  ( 0.7071067811865486830, 8.659560562354947649E-17, -0.7071067811865462405 ) ) ;
#75 = DIRECTION ( 'NONE',  ( -0.09001749462147050351, 1.102396366554479456E-17, 0.9959401842791932857 ) ) ;
#76 = AXIS2_PLACEMENT_3D ( 'NONE', #103, #126, #122 ) ;
#77 = VERTEX_POINT ( 'NONE', #117 ) ;
#78 = DIRECTION ( 'NONE',  ( 0.0000000000000000000, 0.0000000000000000000, 1.000000000000000000 ) ) ;
#79 = VERTEX_POINT ( 'NONE', #147 ) ;
#80 = DIRECTION ( 'NONE',  ( -0.0000000000000000000, -0.0000000000000000000, -1.000000000000000000 ) ) ;
#81 = ORIENTED_EDGE ( 'NONE', *, *, #132, .F. ) ;
#82 = EDGE_CURVE ( 'NONE', #77, #172, #298, .T. ) ;
#83 = DIRECTION ( 'NONE',  ( 0.0000000000000000000, 0.0000000000000000000, 1.000000000000000000 ) ) ;
#84 = VECTOR ( 'NONE', #74, 39.37007874015748854 ) ;
#85 = VERTEX_POINT ( 'NONE', #269 ) ;
#86 =( LENGTH_UNIT ( ) NAMED_UNIT ( * ) SI_UNIT ( $, .METRE. ) );
#87 = EDGE_CURVE ( 'NONE', #22, #224, #267, .T. ) ;
#88 = EDGE_CURVE ( 'NONE', #32, #85, #10, .T. ) ;
#89 = EDGE_CURVE ( 'NONE', #95, #4, #283, .T. ) ;
#90 = VECTOR ( 'NONE', #75, 39.37007874015748854 ) ;
#91 = ORIENTED_EDGE ( 'NONE', *, *, #201, .F. ) ;
#92 = VERTEX_POINT ( 'NONE', #68 ) ;
#93 = SPHERICAL_SURFACE ( 'NONE', #135, 0.03936999999999999528 ) ;
#94 = PLANE ( 'NONE',  #159 ) ;
#95 = VERTEX_POINT ( 'NONE', #19 ) ;
#96 = AXIS2_PLACEMENT_3D ( 'NONE', #233, #261, #290 ) ;
#97 = DIRECTION ( 'NONE',  ( 0.0000000000000000000, 0.0000000000000000000, 1.000000000000000000 ) ) ;
#98 = DIRECTION ( 'NONE',  ( -1.000000000000000000, 0.0000000000000000000, 0.0000000000000000000 ) ) ;
#99 = DIRECTION ( 'NONE',  ( 1.000000000000000000, 0.0000000000000000000, 0.0000000000000000000 ) ) ;
#100 = CARTESIAN_POINT ( 'NONE',  ( 0.0000000000000000000, 0.0000000000000000000, 1.547998148936168050 ) ) ;
#101 = VECTOR ( 'NONE', #45, 39.37007874015748854 ) ;
#102 = ORIENTED_EDGE ( 'NONE', *, *, #328, .T. ) ;
#103 = CARTESIAN_POINT ( 'NONE',  ( 0.0000000000000000000, 0.0000000000000000000, 0.03937000000000000915 ) ) ;
#104 = EDGE_CURVE ( 'NONE', #4, #338, #240, .T. ) ;
#105 = CARTESIAN_POINT ( 'NONE',  ( -0.1031099999999991745, 0.0000000000000000000, 2.952755999999999936 ) ) ;
#106 = DIRECTION ( 'NONE',  ( -0.0000000000000000000, -0.0000000000000000000, -1.000000000000000000 ) ) ;
#107 = ORIENTED_EDGE ( 'NONE', *, *, #201, .T. ) ;
#108 = FILL_AREA_STYLE ('',( #5 ) ) ;
#109 = CIRCLE ( 'NONE', #260, 0.02559049999999998132 ) ;
#110 = ORIENTED_EDGE ( 'NONE', *, *, #293, .F. ) ;
#111 = CARTESIAN_POINT ( 'NONE',  ( -0.1181100000000000344, 0.0000000000000000000, 1.417323000000000333 ) ) ;
#112 = AXIS2_PLACEMENT_3D ( 'NONE', #203, #83, #99 ) ;
#113 =( LENGTH_UNIT ( ) NAMED_UNIT ( * ) SI_UNIT ( $, .METRE. ) );
#114 = ORIENTED_EDGE ( 'NONE', *, *, #142, .T. ) ;
#115 = DIRECTION ( 'NONE',  ( 1.000000000000000000, 0.0000000000000000000, 0.0000000000000000000 ) ) ;
#116 = DIRECTION ( 'NONE',  ( 0.0000000000000000000, 1.000000000000000000, 0.0000000000000000000 ) ) ;
#117 = CARTESIAN_POINT ( 'NONE',  ( -0.02559049999999995356, 8.799117868043711275E-18, 0.3937009999999999676 ) ) ;
#118 = DIMENSIONAL_EXPONENTS ( 1.000000000000000000, 0.0000000000000000000, 0.0000000000000000000, 0.0000000000000000000, 0.0000000000000000000, 0.0000000000000000000, 0.0000000000000000000 ) ;
#119 =( CONVERSION_BASED_UNIT ( 'INCH', #270 ) LENGTH_UNIT ( ) NAMED_UNIT ( #141 ) );
#120 = EDGE_CURVE ( 'NONE', #32, #95, #214, .T. ) ;
#121 = FILL_AREA_STYLE_COLOUR ( '', #7 ) ;
#122 = DIRECTION ( 'NONE',  ( 0.0000000000000000000, 1.000000000000000000, 0.0000000000000000000 ) ) ;
#123 = ORIENTED_EDGE ( 'NONE', *, *, #300, .F. ) ;
#124 = EDGE_CURVE ( 'NONE', #79, #77, #193, .T. ) ;
#125 = LINE ( 'NONE', #313, #39 ) ;
#126 = DIRECTION ( 'NONE',  ( 1.000000000000000000, 0.0000000000000000000, 0.0000000000000000000 ) ) ;
#127 = ORIENTED_EDGE ( 'NONE', *, *, #87, .F. ) ;
#128 = CYLINDRICAL_SURFACE ( 'NONE', #218, 0.1181100000000000344 ) ;
#129 = DIRECTION ( 'NONE',  ( -1.000000000000000000, 0.0000000000000000000, 0.0000000000000000000 ) ) ;
#130 = DIRECTION ( 'NONE',  ( 1.000000000000000000, 0.0000000000000000000, 0.0000000000000000000 ) ) ;
#131 = ORIENTED_EDGE ( 'NONE', *, *, #88, .F. ) ;
#132 = EDGE_CURVE ( 'NONE', #309, #338, #308, .T. ) ;
#133 =( NAMED_UNIT ( * ) SI_UNIT ( $, .STERADIAN. ) SOLID_ANGLE_UNIT ( ) );
#134 = ORIENTED_EDGE ( 'NONE', *, *, #297, .T. ) ;
#135 = AXIS2_PLACEMENT_3D ( 'NONE', #334, #215, #116 ) ;
#136 = DIRECTION ( 'NONE',  ( 1.000000000000000000, 0.0000000000000000000, 0.0000000000000000000 ) ) ;
#137 = ORIENTED_EDGE ( 'NONE', *, *, #273, .F. ) ;
#138 = EDGE_CURVE ( 'NONE', #85, #32, #336, .T. ) ;
#139 = AXIS2_PLACEMENT_3D ( 'NONE', #335, #304, #73 ) ;
#140 =( LENGTH_UNIT ( ) NAMED_UNIT ( * ) SI_UNIT ( $, .METRE. ) );
#141 = DIMENSIONAL_EXPONENTS ( 1.000000000000000000, 0.0000000000000000000, 0.0000000000000000000, 0.0000000000000000000, 0.0000000000000000000, 0.0000000000000000000, 0.0000000000000000000 ) ;
#142 = EDGE_CURVE ( 'NONE', #79, #338, #125, .T. ) ;
#143 = SURFACE_STYLE_FILL_AREA ( #274 ) ;
#144 = CONICAL_SURFACE ( 'NONE', #112, 0.1299209999999998144, 0.09013951093658492675 ) ;
#145 = CARTESIAN_POINT ( 'NONE',  ( 0.0000000000000000000, 0.0000000000000000000, 0.3937009999999999676 ) ) ;
#146 = PRODUCT_DEFINITION_SHAPE ( 'NONE', 'NONE',  #170 ) ;
#147 = CARTESIAN_POINT ( 'NONE',  ( 0.02559049999999995356, 0.0000000000000000000, 0.3937009999999999676 ) ) ;
#148 = CYLINDRICAL_SURFACE ( 'NONE', #236, 0.02559049999999996397 ) ;
#149 = AXIS2_PLACEMENT_3D ( 'NONE', #276, #3, #98 ) ;
#150 = DIRECTION ( 'NONE',  ( -0.0000000000000000000, -0.0000000000000000000, -1.000000000000000000 ) ) ;
#151 = FACE_OUTER_BOUND ( 'NONE', #6, .T. ) ;
#152 = ORIENTED_EDGE ( 'NONE', *, *, #259, .F. ) ;
#153 = CARTESIAN_POINT ( 'NONE',  ( -0.1299209999999998144, 1.591073367920230651E-17, 1.547998148936168050 ) ) ;
#154 = EDGE_LOOP ( 'NONE', ( #152, #27, #282, #202 ) ) ;
#155 = DIRECTION ( 'NONE',  ( -0.0000000000000000000, -0.0000000000000000000, -1.000000000000000000 ) ) ;
#156 = ORIENTED_EDGE ( 'NONE', *, *, #89, .T. ) ;
#157 = CARTESIAN_POINT ( 'NONE',  ( 0.0000000000000000000, 0.0000000000000000000, 2.952755999999999936 ) ) ;
#158 =( NAMED_UNIT ( * ) PLANE_ANGLE_UNIT ( ) SI_UNIT ( $, .RADIAN. ) );
#159 = AXIS2_PLACEMENT_3D ( 'NONE', #330, #327, #242 ) ;
#160 = PRODUCT_DEFINITION_FORMATION_WITH_SPECIFIED_SOURCE ( 'ANY', '', #65, .NOT_KNOWN. ) ;
#161 = LENGTH_MEASURE_WITH_UNIT ( LENGTH_MEASURE( 0.02539999999999999897 ), #113 );
#162 = CARTESIAN_POINT ( 'NONE',  ( 0.0000000000000000000, 0.0000000000000000000, 0.03937000000000000915 ) ) ;
#163 = DIRECTION ( 'NONE',  ( 0.0000000000000000000, 0.0000000000000000000, -1.000000000000000000 ) ) ;
#164 = ORIENTED_EDGE ( 'NONE', *, *, #104, .F. ) ;
#165 = ADVANCED_FACE ( 'NONE', ( #252 ), #128, .T. ) ;
#166 = SURFACE_SIDE_STYLE ('',( #143 ) ) ;
#167 = EDGE_CURVE ( 'NONE', #85, #4, #226, .T. ) ;
#168 = CARTESIAN_POINT ( 'NONE',  ( 0.0000000000000000000, 0.0000000000000000000, 2.937755999999999368 ) ) ;
#169 = AXIS2_PLACEMENT_3D ( 'NONE', #20, #311, #78 ) ;
#170 = PRODUCT_DEFINITION ( 'UNKNOWN', '', #160, #278 ) ;
#171 = CARTESIAN_POINT ( 'NONE',  ( 0.0000000000000000000, 0.0000000000000000000, 2.952755999999999936 ) ) ;
#172 = VERTEX_POINT ( 'NONE', #250 ) ;
#173 = ADVANCED_FACE ( 'NONE', ( #151 ), #144, .T. ) ;
#174 =( GEOMETRIC_REPRESENTATION_CONTEXT ( 3 ) GLOBAL_UNCERTAINTY_ASSIGNED_CONTEXT ( ( #342 ) ) GLOBAL_UNIT_ASSIGNED_CONTEXT ( ( #119, #301, #216 ) ) REPRESENTATION_CONTEXT ( 'NONE', 'WORKASPACE' ) );
#175 = CIRCLE ( 'NONE', #303, 0.03936999999999999528 ) ;
#176 = CARTESIAN_POINT ( 'NONE',  ( 0.0000000000000000000, 0.0000000000000000000, 1.417323000000000333 ) ) ;
#177 = CARTESIAN_POINT ( 'NONE',  ( 0.02559049999999996397, 3.133932391358030164E-18, 0.0000000000000000000 ) ) ;
#178 = CARTESIAN_POINT ( 'NONE',  ( 0.1181100000000000344, 1.446430334472939084E-17, 2.937755999999999368 ) ) ;
#179 = FACE_OUTER_BOUND ( 'NONE', #35, .T. ) ;
#180 = FACE_OUTER_BOUND ( 'NONE', #316, .T. ) ;
#181 = AXIS2_PLACEMENT_3D ( 'NONE', #171, #275, #115 ) ;
#182 = LINE ( 'NONE', #153, #90 ) ;
#183 = ORIENTED_EDGE ( 'NONE', *, *, #273, .T. ) ;
#184 = APPLICATION_PROTOCOL_DEFINITION ( 'draft international standard', 'automotive_design', 1998, #25 ) ;
#185 = PRODUCT_CONTEXT ( 'NONE', #25, 'mechanical' ) ;
#186 = CONICAL_SURFACE ( 'NONE', #322, 0.1299209999999998144, 0.09013951093658492675 ) ;
#187 = COLOUR_RGB ( '',0.7921568627450980005, 0.8196078431372548767, 0.9333333333333333481 ) ;
#188 = DIRECTION ( 'NONE',  ( 1.000000000000000000, 0.0000000000000000000, 0.0000000000000000000 ) ) ;
#189 = ORIENTED_EDGE ( 'NONE', *, *, #167, .F. ) ;
#190 = ORIENTED_EDGE ( 'NONE', *, *, #220, .F. ) ;
#191 = CARTESIAN_POINT ( 'NONE',  ( -0.02559049999999996397, 0.0000000000000000000, 0.0000000000000000000 ) ) ;
#192 = ADVANCED_FACE ( 'NONE', ( #248 ), #205, .T. ) ;
#193 = CIRCLE ( 'NONE', #212, 0.02559049999999995356 ) ;
#194 = DIRECTION ( 'NONE',  ( 1.000000000000000000, 0.0000000000000000000, 0.0000000000000000000 ) ) ;
#195 = CARTESIAN_POINT ( 'NONE',  ( 0.0000000000000000000, 0.0000000000000000000, 0.0000000000000000000 ) ) ;
#196 = DIRECTION ( 'NONE',  ( -0.0000000000000000000, -0.0000000000000000000, -1.000000000000000000 ) ) ;
#197 = EDGE_LOOP ( 'NONE', ( #189, #131, #294, #2 ) ) ;
#198 = UNCERTAINTY_MEASURE_WITH_UNIT (LENGTH_MEASURE( 1.000000000000000082E-05 ), #58, 'distance_accuracy_value', 'NONE');
#199 = CONICAL_SURFACE ( 'NONE', #44, 0.1031099999999991745, 0.7853981633974500554 ) ;
#200 = FACE_OUTER_BOUND ( 'NONE', #57, .T. ) ;
#201 = EDGE_CURVE ( 'NONE', #95, #309, #307, .T. ) ;
#202 = ORIENTED_EDGE ( 'NONE', *, *, #142, .F. ) ;
#203 = CARTESIAN_POINT ( 'NONE',  ( 0.0000000000000000000, 0.0000000000000000000, 1.547998148936168050 ) ) ;
#204 = EDGE_LOOP ( 'NONE', ( #164, #251, #107, #48 ) ) ;
#205 = CYLINDRICAL_SURFACE ( 'NONE', #66, 0.1181100000000000344 ) ;
#206 = VERTEX_POINT ( 'NONE', #255 ) ;
#207 = CIRCLE ( 'NONE', #149, 0.02559049999999995356 ) ;
#208 = SURFACE_STYLE_FILL_AREA ( #108 ) ;
#209 = ORIENTED_EDGE ( 'NONE', *, *, #87, .T. ) ;
#210 = CARTESIAN_POINT ( 'NONE',  ( 0.0000000000000000000, 0.0000000000000000000, 0.0000000000000000000 ) ) ;
#211 = APPLICATION_PROTOCOL_DEFINITION ( 'draft international standard', 'automotive_design', 1998, #42 ) ;
#212 = AXIS2_PLACEMENT_3D ( 'NONE', #145, #18, #14 ) ;
#213 = CARTESIAN_POINT ( 'NONE',  ( 0.0000000000000000000, 0.0000000000000000000, 0.0000000000000000000 ) ) ;
#214 = LINE ( 'NONE', #271, #101 ) ;
#215 = DIRECTION ( 'NONE',  ( 1.000000000000000000, 0.0000000000000000000, 0.0000000000000000000 ) ) ;
#216 =( NAMED_UNIT ( * ) SI_UNIT ( $, .STERADIAN. ) SOLID_ANGLE_UNIT ( ) );
#217 = DIRECTION ( 'NONE',  ( -0.0000000000000000000, -0.0000000000000000000, -1.000000000000000000 ) ) ;
#218 = AXIS2_PLACEMENT_3D ( 'NONE', #315, #53, #223 ) ;
#219 = DIRECTION ( 'NONE',  ( 0.0000000000000000000, 0.0000000000000000000, 1.000000000000000000 ) ) ;
#220 = EDGE_CURVE ( 'NONE', #77, #309, #182, .T. ) ;
#221 = DIRECTION ( 'NONE',  ( 0.0000000000000000000, 0.0000000000000000000, -1.000000000000000000 ) ) ;
#222 = ADVANCED_FACE ( 'NONE', ( #179 ), #339, .T. ) ;
#223 = DIRECTION ( 'NONE',  ( -1.000000000000000000, 0.0000000000000000000, 0.0000000000000000000 ) ) ;
#224 = VERTEX_POINT ( 'NONE', #55 ) ;
#225 = PRESENTATION_LAYER_ASSIGNMENT (  '', '', ( #317 ) ) ;
#226 = LINE ( 'NONE', #281, #84 ) ;
#227 = ORIENTED_EDGE ( 'NONE', *, *, #124, .T. ) ;
#228 = DIRECTION ( 'NONE',  ( -1.000000000000000000, 0.0000000000000000000, 0.0000000000000000000 ) ) ;
#229 = ORIENTED_EDGE ( 'NONE', *, *, #88, .T. ) ;
#230 = CARTESIAN_POINT ( 'NONE',  ( 0.1181100000000000344, 1.446430334472939084E-17, 1.417323000000000333 ) ) ;
#231 = ORIENTED_EDGE ( 'NONE', *, *, #138, .T. ) ;
#232 = DIRECTION ( 'NONE',  ( 0.0000000000000000000, 0.0000000000000000000, 1.000000000000000000 ) ) ;
#233 = CARTESIAN_POINT ( 'NONE',  ( 0.0000000000000000000, 0.0000000000000000000, 2.952755999999999936 ) ) ;
#234 = EDGE_CURVE ( 'NONE', #172, #22, #109, .T. ) ;
#235 = DIRECTION ( 'NONE',  ( 1.000000000000000000, 1.224646799147353207E-16, -0.0000000000000000000 ) ) ;
#236 = AXIS2_PLACEMENT_3D ( 'NONE', #195, #196, #228 ) ;
#237 = FACE_OUTER_BOUND ( 'NONE', #268, .T. ) ;
#238 = VECTOR ( 'NONE', #150, 39.37007874015748143 ) ;
#239 = DIRECTION ( 'NONE',  ( -0.0000000000000000000, -0.0000000000000000000, -1.000000000000000000 ) ) ;
#240 = LINE ( 'NONE', #15, #295 ) ;
#241 = DIMENSIONAL_EXPONENTS ( 1.000000000000000000, 0.0000000000000000000, 0.0000000000000000000, 0.0000000000000000000, 0.0000000000000000000, 0.0000000000000000000, 0.0000000000000000000 ) ;
#242 = DIRECTION ( 'NONE',  ( 1.000000000000000000, 0.0000000000000000000, -0.0000000000000000000 ) ) ;
#243 = ORIENTED_EDGE ( 'NONE', *, *, #82, .T. ) ;
#244 = CARTESIAN_POINT ( 'NONE',  ( 0.0000000000000000000, 0.0000000000000000000, 2.952755999999999936 ) ) ;
#245 = EDGE_CURVE ( 'NONE', #4, #95, #344, .T. ) ;
#246 = DIRECTION ( 'NONE',  ( -1.000000000000000000, 0.0000000000000000000, 0.0000000000000000000 ) ) ;
#247 = AXIS2_PLACEMENT_3D ( 'NONE', #210, #232, #188 ) ;
#248 = FACE_OUTER_BOUND ( 'NONE', #256, .T. ) ;
#249 = ADVANCED_FACE ( 'NONE', ( #200 ), #148, .T. ) ;
#250 = CARTESIAN_POINT ( 'NONE',  ( -0.02559049999999998132, 0.0000000000000000000, 0.06928860975630385388 ) ) ;
#251 = ORIENTED_EDGE ( 'NONE', *, *, #245, .T. ) ;
#252 = FACE_OUTER_BOUND ( 'NONE', #204, .T. ) ;
#253 = ORIENTED_EDGE ( 'NONE', *, *, #138, .F. ) ;
#254 = MECHANICAL_DESIGN_GEOMETRIC_PRESENTATION_REPRESENTATION (  '', ( #317 ), #174 ) ;
#255 = CARTESIAN_POINT ( 'NONE',  ( 0.0000000000000000000, 2.410717224121564242E-18, 1.707404996040164512E-17 ) ) ;
#256 = EDGE_LOOP ( 'NONE', ( #156, #314, #134, #91 ) ) ;
#257 =( CONVERSION_BASED_UNIT ( 'INCH', #161 ) LENGTH_UNIT ( ) NAMED_UNIT ( #118 ) );
#258 = ORIENTED_EDGE ( 'NONE', *, *, #328, .F. ) ;
#259 = EDGE_CURVE ( 'NONE', #77, #79, #207, .T. ) ;
#260 = AXIS2_PLACEMENT_3D ( 'NONE', #47, #155, #33 ) ;
#261 = DIRECTION ( 'NONE',  ( 0.0000000000000000000, 0.0000000000000000000, -1.000000000000000000 ) ) ;
#262 = EDGE_CURVE ( 'NONE', #92, #172, #289, .T. ) ;
#263 = PRESENTATION_STYLE_ASSIGNMENT (( #319 ) ) ;
#264 = ADVANCED_FACE ( 'NONE', ( #52 ), #186, .T. ) ;
#265 = DIRECTION ( 'NONE',  ( -1.000000000000000000, 0.0000000000000000000, 0.0000000000000000000 ) ) ;
#266 = DIRECTION ( 'NONE',  ( -1.000000000000000000, 0.0000000000000000000, 0.0000000000000000000 ) ) ;
#267 = CIRCLE ( 'NONE', #50, 0.02559049999999998132 ) ;
#268 = EDGE_LOOP ( 'NONE', ( #332, #312, #127, #286, #324 ) ) ;
#269 = CARTESIAN_POINT ( 'NONE',  ( 0.1031099999999991745, 1.354581824536882559E-17, 2.952755999999999936 ) ) ;
#270 = LENGTH_MEASURE_WITH_UNIT ( LENGTH_MEASURE( 0.02539999999999999897 ), #140 );
#271 = CARTESIAN_POINT ( 'NONE',  ( -0.1031099999999991745, 0.0000000000000000000, 2.952755999999999936 ) ) ;
#272 = AXIS2_PLACEMENT_3D ( 'NONE', #213, #54, #129 ) ;
#273 = EDGE_CURVE ( 'NONE', #22, #206, #288, .T. ) ;
#274 = FILL_AREA_STYLE ('',( #121 ) ) ;
#275 = DIRECTION ( 'NONE',  ( 0.0000000000000000000, 0.0000000000000000000, 1.000000000000000000 ) ) ;
#276 = CARTESIAN_POINT ( 'NONE',  ( 0.0000000000000000000, 0.0000000000000000000, 0.3937009999999999676 ) ) ;
#277 = DIRECTION ( 'NONE',  ( 0.0000000000000000000, 0.0000000000000000000, 1.000000000000000000 ) ) ;
#278 = PRODUCT_DEFINITION_CONTEXT ( 'detailed design', #42, 'design' ) ;
#279 = DIRECTION ( 'NONE',  ( -1.000000000000000000, 0.0000000000000000000, 0.0000000000000000000 ) ) ;
#280 = FACE_OUTER_BOUND ( 'NONE', #197, .T. ) ;
#281 = CARTESIAN_POINT ( 'NONE',  ( 0.1031099999999991745, 1.262733314600825725E-17, 2.952755999999999936 ) ) ;
#282 = ORIENTED_EDGE ( 'NONE', *, *, #297, .F. ) ;
#283 = CIRCLE ( 'NONE', #21, 0.1181100000000000344 ) ;
#284 = CIRCLE ( 'NONE', #61, 0.1181100000000000344 ) ;
#285 = DIRECTION ( 'NONE',  ( -1.224646799147352961E-16, 1.000000000000000000, 0.0000000000000000000 ) ) ;
#286 = ORIENTED_EDGE ( 'NONE', *, *, #234, .F. ) ;
#287 = LENGTH_MEASURE_WITH_UNIT ( LENGTH_MEASURE( 0.02539999999999999897 ), #86 );
#288 = CIRCLE ( 'NONE', #169, 0.03936999999999999528 ) ;
#289 = CIRCLE ( 'NONE', #70, 0.02559049999999998132 ) ;
#290 = DIRECTION ( 'NONE',  ( -1.000000000000000000, 0.0000000000000000000, 0.0000000000000000000 ) ) ;
#291 = SHAPE_DEFINITION_REPRESENTATION ( #146, #333 ) ;
#292 = ORIENTED_EDGE ( 'NONE', *, *, #167, .T. ) ;
#293 = EDGE_CURVE ( 'NONE', #79, #224, #49, .T. ) ;
#294 = ORIENTED_EDGE ( 'NONE', *, *, #120, .T. ) ;
#295 = VECTOR ( 'NONE', #217, 39.37007874015748143 ) ;
#296 = DIRECTION ( 'NONE',  ( -1.000000000000000000, 0.0000000000000000000, 0.0000000000000000000 ) ) ;
#297 = EDGE_CURVE ( 'NONE', #338, #309, #284, .T. ) ;
#298 = LINE ( 'NONE', #191, #329 ) ;
#299 = SURFACE_STYLE_USAGE ( .BOTH. , #166 ) ;
#300 = EDGE_CURVE ( 'NONE', #92, #206, #175, .T. ) ;
#301 =( NAMED_UNIT ( * ) PLANE_ANGLE_UNIT ( ) SI_UNIT ( $, .RADIAN. ) );
#302 = CLOSED_SHELL ( 'NONE', ( #28, #67, #264, #326, #192, #165, #59, #23, #173, #222, #249 ) ) ;
#303 = AXIS2_PLACEMENT_3D ( 'NONE', #162, #235, #285 ) ;
#304 = DIRECTION ( 'NONE',  ( 0.0000000000000000000, 0.0000000000000000000, 1.000000000000000000 ) ) ;
#305 = CARTESIAN_POINT ( 'NONE',  ( 0.0000000000000000000, 0.0000000000000000000, 0.06928860975630385388 ) ) ;
#306 = UNCERTAINTY_MEASURE_WITH_UNIT (LENGTH_MEASURE( 1.000000000000000082E-05 ), #257, 'distance_accuracy_value', 'NONE');
#307 = LINE ( 'NONE', #343, #60 ) ;
#308 = CIRCLE ( 'NONE', #139, 0.1181100000000000344 ) ;
#309 = VERTEX_POINT ( 'NONE', #111 ) ;
#310 = MECHANICAL_DESIGN_GEOMETRIC_PRESENTATION_REPRESENTATION (  '', ( #11 ), #31 ) ;
#311 = DIRECTION ( 'NONE',  ( -1.000000000000000000, 0.0000000000000000000, 0.0000000000000000000 ) ) ;
#312 = ORIENTED_EDGE ( 'NONE', *, *, #293, .T. ) ;
#313 = CARTESIAN_POINT ( 'NONE',  ( 0.1299209999999998144, 0.0000000000000000000, 1.547998148936168050 ) ) ;
#314 = ORIENTED_EDGE ( 'NONE', *, *, #104, .T. ) ;
#315 = CARTESIAN_POINT ( 'NONE',  ( 0.0000000000000000000, 0.0000000000000000000, 2.952755999999999936 ) ) ;
#316 = EDGE_LOOP ( 'NONE', ( #229, #231 ) ) ;
#317 = STYLED_ITEM ( 'NONE', ( #16 ), #72 ) ;
#318 = AXIS2_PLACEMENT_3D ( 'NONE', #12, #62, #265 ) ;
#319 = SURFACE_STYLE_USAGE ( .BOTH. , #8 ) ;
#320 = PRODUCT_RELATED_PRODUCT_CATEGORY ( 'part', '', ( #65 ) ) ;
#321 =( NAMED_UNIT ( * ) SI_UNIT ( $, .STERADIAN. ) SOLID_ANGLE_UNIT ( ) );
#322 = AXIS2_PLACEMENT_3D ( 'NONE', #100, #219, #24 ) ;
#323 =( NAMED_UNIT ( * ) PLANE_ANGLE_UNIT ( ) SI_UNIT ( $, .RADIAN. ) );
#324 = ORIENTED_EDGE ( 'NONE', *, *, #82, .F. ) ;
#325 = ORIENTED_EDGE ( 'NONE', *, *, #300, .T. ) ;
#326 = ADVANCED_FACE ( 'NONE', ( #9 ), #17, .T. ) ;
#327 = DIRECTION ( 'NONE',  ( 0.0000000000000000000, 0.0000000000000000000, 1.000000000000000000 ) ) ;
#328 = EDGE_CURVE ( 'NONE', #224, #92, #37, .T. ) ;
#329 = VECTOR ( 'NONE', #331, 39.37007874015748143 ) ;
#330 = CARTESIAN_POINT ( 'NONE',  ( 0.0000000000000000000, 0.0000000000000000000, 2.952755999999999936 ) ) ;
#331 = DIRECTION ( 'NONE',  ( -0.0000000000000000000, -0.0000000000000000000, -1.000000000000000000 ) ) ;
#332 = ORIENTED_EDGE ( 'NONE', *, *, #259, .T. ) ;
#333 = ADVANCED_BREP_SHAPE_REPRESENTATION ( 'Micro_SBMM-020-210X', ( #72, #247 ), #337 ) ;
#334 = CARTESIAN_POINT ( 'NONE',  ( 0.0000000000000000000, 0.0000000000000000000, 0.03937000000000000915 ) ) ;
#335 = CARTESIAN_POINT ( 'NONE',  ( 0.0000000000000000000, 0.0000000000000000000, 1.417323000000000333 ) ) ;
#336 = CIRCLE ( 'NONE', #181, 0.1031099999999991745 ) ;
#337 =( GEOMETRIC_REPRESENTATION_CONTEXT ( 3 ) GLOBAL_UNCERTAINTY_ASSIGNED_CONTEXT ( ( #306 ) ) GLOBAL_UNIT_ASSIGNED_CONTEXT ( ( #257, #158, #133 ) ) REPRESENTATION_CONTEXT ( 'NONE', 'WORKASPACE' ) );
#338 = VERTEX_POINT ( 'NONE', #230 ) ;
#339 = SPHERICAL_SURFACE ( 'NONE', #76, 0.03936999999999999528 ) ;
#340 = CARTESIAN_POINT ( 'NONE',  ( 0.0000000000000000000, 0.0000000000000000000, 2.952755999999999936 ) ) ;
#341 = EDGE_LOOP ( 'NONE', ( #209, #102, #325, #137 ) ) ;
#342 = UNCERTAINTY_MEASURE_WITH_UNIT (LENGTH_MEASURE( 1.000000000000000082E-05 ), #119, 'distance_accuracy_value', 'NONE');
#343 = CARTESIAN_POINT ( 'NONE',  ( -0.1181100000000000344, 0.0000000000000000000, 2.952755999999999936 ) ) ;
#344 = CIRCLE ( 'NONE', #30, 0.1181100000000000344 ) ;
#345 = ORIENTED_EDGE ( 'NONE', *, *, #262, .F. ) ;
ENDSEC;
END-ISO-10303-21;
