ISO-10303-21;
HEADER;
FILE_DESCRIPTION (( 'STEP AP214' ),
    '1' );
FILE_NAME ('Micro_SBMM-100-430X.STEP',
    '2021-09-02T17:22:38',
    ( '' ),
    ( '' ),
    'SwSTEP 2.0',
    'SolidWorks 2020',
    '' );
FILE_SCHEMA (( 'AUTOMOTIVE_DESIGN' ));
ENDSEC;

DATA;
#1 = DIRECTION ( 'NONE',  ( -0.0000000000000000000, -0.0000000000000000000, -1.000000000000000000 ) ) ;
#2 = MECHANICAL_DESIGN_GEOMETRIC_PRESENTATION_REPRESENTATION (  '', ( #70 ), #220 ) ;
#3 = ADVANCED_FACE ( 'NONE', ( #285 ), #206, .T. ) ;
#4 = DIRECTION ( 'NONE',  ( 0.0000000000000000000, 1.000000000000000000, 0.0000000000000000000 ) ) ;
#5 = ORIENTED_EDGE ( 'NONE', *, *, #76, .F. ) ;
#6 = DIRECTION ( 'NONE',  ( 0.0000000000000000000, 1.000000000000000000, 0.0000000000000000000 ) ) ;
#7 = FACE_OUTER_BOUND ( 'NONE', #71, .T. ) ;
#8 = EDGE_CURVE ( 'NONE', #305, #280, #126, .T. ) ;
#9 = AXIS2_PLACEMENT_3D ( 'NONE', #59, #174, #275 ) ;
#10 = DIRECTION ( 'NONE',  ( -1.000000000000000000, 0.0000000000000000000, 0.0000000000000000000 ) ) ;
#11 = CARTESIAN_POINT ( 'NONE',  ( 0.1818504999999994431, 2.318874837419505661E-17, 3.937007999999999619 ) ) ;
#12 = ORIENTED_EDGE ( 'NONE', *, *, #69, .F. ) ;
#13 = ADVANCED_FACE ( 'NONE', ( #48 ), #204, .T. ) ;
#14 = CARTESIAN_POINT ( 'NONE',  ( -0.1318899999999998685, 2.012955005375501365E-17, 1.181102000000000096 ) ) ;
#15 = LENGTH_MEASURE_WITH_UNIT ( LENGTH_MEASURE( 0.02539999999999999897 ), #335 );
#16 = CIRCLE ( 'NONE', #172, 0.1968500000000000250 ) ;
#17 = ORIENTED_EDGE ( 'NONE', *, *, #107, .T. ) ;
#18 =( LENGTH_UNIT ( ) NAMED_UNIT ( * ) SI_UNIT ( $, .METRE. ) );
#19 = AXIS2_PLACEMENT_3D ( 'NONE', #110, #297, #164 ) ;
#20 = ORIENTED_EDGE ( 'NONE', *, *, #43, .F. ) ;
#21 = DIRECTION ( 'NONE',  ( -0.0000000000000000000, -0.0000000000000000000, -1.000000000000000000 ) ) ;
#22 = PRODUCT_RELATED_PRODUCT_CATEGORY ( 'part', '', ( #200 ) ) ;
#23 = DIRECTION ( 'NONE',  ( 1.000000000000000000, 0.0000000000000000000, 0.0000000000000000000 ) ) ;
#24 = CARTESIAN_POINT ( 'NONE',  ( 0.2165355499999996325, 0.0000000000000000000, 2.104510606062141242 ) ) ;
#25 = AXIS2_PLACEMENT_3D ( 'NONE', #98, #152, #205 ) ;
#26 = DIRECTION ( 'NONE',  ( -1.000000000000000000, 0.0000000000000000000, 0.0000000000000000000 ) ) ;
#27 = DIRECTION ( 'NONE',  ( -0.09128369410827934238, 1.117902838040504092E-17, 0.9958249279817943389 ) ) ;
#28 = CARTESIAN_POINT ( 'NONE',  ( 0.0000000000000000000, 0.0000000000000000000, 0.1968500000000000250 ) ) ;
#29 = CIRCLE ( 'NONE', #60, 0.1818504999999994431 ) ;
#30 = CARTESIAN_POINT ( 'NONE',  ( 0.0000000000000000000, 0.0000000000000000000, 3.937007999999999619 ) ) ;
#31 = DIMENSIONAL_EXPONENTS ( 1.000000000000000000, 0.0000000000000000000, 0.0000000000000000000, 0.0000000000000000000, 0.0000000000000000000, 0.0000000000000000000, 0.0000000000000000000 ) ;
#32 = FILL_AREA_STYLE ('',( #276 ) ) ;
#33 = ORIENTED_EDGE ( 'NONE', *, *, #237, .T. ) ;
#34 = EDGE_LOOP ( 'NONE', ( #66, #85, #332, #73 ) ) ;
#35 = AXIS2_PLACEMENT_3D ( 'NONE', #28, #23, #4 ) ;
#36 = DIRECTION ( 'NONE',  ( -0.7071067811865419106, 0.0000000000000000000, -0.7071067811865531239 ) ) ;
#37 = ADVANCED_FACE ( 'NONE', ( #236 ), #154, .T. ) ;
#38 = CARTESIAN_POINT ( 'NONE',  ( 0.0000000000000000000, 0.0000000000000000000, 3.922007999999999051 ) ) ;
#39 = PRODUCT_DEFINITION_SHAPE ( 'NONE', 'NONE',  #49 ) ;
#40 = DIMENSIONAL_EXPONENTS ( 1.000000000000000000, 0.0000000000000000000, 0.0000000000000000000, 0.0000000000000000000, 0.0000000000000000000, 0.0000000000000000000, 0.0000000000000000000 ) ;
#41 = SHAPE_DEFINITION_REPRESENTATION ( #39, #89 ) ;
#42 = AXIS2_PLACEMENT_3D ( 'NONE', #90, #302, #74 ) ;
#43 = EDGE_CURVE ( 'NONE', #280, #102, #269, .T. ) ;
#44 = DIRECTION ( 'NONE',  ( 1.000000000000000000, 0.0000000000000000000, 0.0000000000000000000 ) ) ;
#45 = PRESENTATION_STYLE_ASSIGNMENT (( #260 ) ) ;
#46 = ORIENTED_EDGE ( 'NONE', *, *, #139, .F. ) ;
#47 = PRESENTATION_LAYER_ASSIGNMENT (  '', '', ( #70 ) ) ;
#48 = FACE_OUTER_BOUND ( 'NONE', #183, .T. ) ;
#49 = PRODUCT_DEFINITION ( 'UNKNOWN', '', #135, #210 ) ;
#50 = LINE ( 'NONE', #24, #310 ) ;
#51 = CARTESIAN_POINT ( 'NONE',  ( 0.0000000000000000000, 0.0000000000000000000, 1.181102000000000096 ) ) ;
#52 = DIRECTION ( 'NONE',  ( -1.000000000000000000, 0.0000000000000000000, 0.0000000000000000000 ) ) ;
#53 = CIRCLE ( 'NONE', #78, 0.1818504999999994431 ) ;
#54 = FACE_OUTER_BOUND ( 'NONE', #34, .T. ) ;
#55 = EDGE_CURVE ( 'NONE', #102, #258, #149, .T. ) ;
#56 = ORIENTED_EDGE ( 'NONE', *, *, #237, .F. ) ;
#57 = SPHERICAL_SURFACE ( 'NONE', #35, 0.1968500000000000250 ) ;
#58 = APPLICATION_CONTEXT ( 'automotive_design' ) ;
#59 = CARTESIAN_POINT ( 'NONE',  ( 0.0000000000000000000, 0.0000000000000000000, 3.922007999999999051 ) ) ;
#60 = AXIS2_PLACEMENT_3D ( 'NONE', #291, #86, #215 ) ;
#61 = EDGE_CURVE ( 'NONE', #119, #296, #336, .T. ) ;
#62 = DIRECTION ( 'NONE',  ( 0.0000000000000000000, 0.0000000000000000000, 1.000000000000000000 ) ) ;
#63 = EDGE_LOOP ( 'NONE', ( #46, #252, #180, #122 ) ) ;
#64 = CARTESIAN_POINT ( 'NONE',  ( 0.1968504999999999838, 2.410723347355560646E-17, 1.889763999999999999 ) ) ;
#65 = CARTESIAN_POINT ( 'NONE',  ( -0.1968504999999999838, 0.0000000000000000000, 1.889763999999999999 ) ) ;
#66 = ORIENTED_EDGE ( 'NONE', *, *, #223, .F. ) ;
#67 = AXIS2_PLACEMENT_3D ( 'NONE', #143, #253, #306 ) ;
#68 = DIRECTION ( 'NONE',  ( 0.0000000000000000000, 0.0000000000000000000, 1.000000000000000000 ) ) ;
#69 = EDGE_CURVE ( 'NONE', #280, #264, #221, .T. ) ;
#70 = STYLED_ITEM ( 'NONE', ( #255 ), #225 ) ;
#71 = EDGE_LOOP ( 'NONE', ( #190, #17, #170, #288, #156 ) ) ;
#72 = SURFACE_SIDE_STYLE ('',( #283 ) ) ;
#73 = ORIENTED_EDGE ( 'NONE', *, *, #175, .F. ) ;
#74 = DIRECTION ( 'NONE',  ( -1.000000000000000000, 0.0000000000000000000, 0.0000000000000000000 ) ) ;
#75 = ORIENTED_EDGE ( 'NONE', *, *, #88, .T. ) ;
#76 = EDGE_CURVE ( 'NONE', #266, #158, #163, .T. ) ;
#77 = UNCERTAINTY_MEASURE_WITH_UNIT (LENGTH_MEASURE( 1.000000000000000082E-05 ), #339, 'distance_accuracy_value', 'NONE');
#78 = AXIS2_PLACEMENT_3D ( 'NONE', #248, #189, #268 ) ;
#79 = CARTESIAN_POINT ( 'NONE',  ( 0.1818504999999994431, 2.227026327483450676E-17, 3.937007999999999619 ) ) ;
#80 = CARTESIAN_POINT ( 'NONE',  ( -0.1968504999999999838, 0.0000000000000000000, 3.922007999999999051 ) ) ;
#81 = DIRECTION ( 'NONE',  ( -0.0000000000000000000, -0.0000000000000000000, -1.000000000000000000 ) ) ;
#82 = ADVANCED_FACE ( 'NONE', ( #54 ), #207, .T. ) ;
#83 = CARTESIAN_POINT ( 'NONE',  ( 0.1318899999999999517, 1.615186663395443625E-17, 0.3429833309002433550 ) ) ;
#84 = CIRCLE ( 'NONE', #289, 0.1318899999999998685 ) ;
#85 = ORIENTED_EDGE ( 'NONE', *, *, #139, .T. ) ;
#86 = DIRECTION ( 'NONE',  ( 0.0000000000000000000, 0.0000000000000000000, 1.000000000000000000 ) ) ;
#87 = PLANE ( 'NONE',  #116 ) ;
#88 = EDGE_CURVE ( 'NONE', #296, #158, #214, .T. ) ;
#89 = ADVANCED_BREP_SHAPE_REPRESENTATION ( 'Micro_SBMM-100-430X', ( #225, #25 ), #131 ) ;
#90 = CARTESIAN_POINT ( 'NONE',  ( 0.0000000000000000000, 0.0000000000000000000, 0.0000000000000000000 ) ) ;
#91 = EDGE_LOOP ( 'NONE', ( #315, #287, #142, #167 ) ) ;
#92 = LINE ( 'NONE', #259, #261 ) ;
#93 = DIRECTION ( 'NONE',  ( 0.0000000000000000000, 0.0000000000000000000, 1.000000000000000000 ) ) ;
#94 = EDGE_CURVE ( 'NONE', #305, #173, #29, .T. ) ;
#95 = LINE ( 'NONE', #201, #270 ) ;
#96 = ORIENTED_EDGE ( 'NONE', *, *, #223, .T. ) ;
#97 = AXIS2_PLACEMENT_3D ( 'NONE', #319, #162, #239 ) ;
#98 = CARTESIAN_POINT ( 'NONE',  ( 0.0000000000000000000, 0.0000000000000000000, 0.0000000000000000000 ) ) ;
#99 = AXIS2_PLACEMENT_3D ( 'NONE', #38, #314, #238 ) ;
#100 = CONICAL_SURFACE ( 'NONE', #232, 0.1818504999999994431, 0.7853981633974403964 ) ;
#101 = VERTEX_POINT ( 'NONE', #138 ) ;
#102 = VERTEX_POINT ( 'NONE', #80 ) ;
#103 = VERTEX_POINT ( 'NONE', #295 ) ;
#104 = CIRCLE ( 'NONE', #178, 0.1318899999999998685 ) ;
#105 = CARTESIAN_POINT ( 'NONE',  ( -0.1318899999999998962, 0.0000000000000000000, 0.0000000000000000000 ) ) ;
#106 = FACE_OUTER_BOUND ( 'NONE', #249, .T. ) ;
#107 = EDGE_CURVE ( 'NONE', #103, #266, #84, .T. ) ;
#108 = DIRECTION ( 'NONE',  ( 1.000000000000000000, 0.0000000000000000000, 0.0000000000000000000 ) ) ;
#109 = VERTEX_POINT ( 'NONE', #191 ) ;
#110 = CARTESIAN_POINT ( 'NONE',  ( 0.0000000000000000000, 0.0000000000000000000, 3.937007999999999619 ) ) ;
#111 = AXIS2_PLACEMENT_3D ( 'NONE', #155, #153, #262 ) ;
#112 = ORIENTED_EDGE ( 'NONE', *, *, #292, .T. ) ;
#113 = CARTESIAN_POINT ( 'NONE',  ( 0.0000000000000000000, 0.0000000000000000000, 3.937007999999999619 ) ) ;
#114 = ORIENTED_EDGE ( 'NONE', *, *, #202, .T. ) ;
#115 =( LENGTH_UNIT ( ) NAMED_UNIT ( * ) SI_UNIT ( $, .METRE. ) );
#116 = AXIS2_PLACEMENT_3D ( 'NONE', #30, #62, #166 ) ;
#117 = EDGE_LOOP ( 'NONE', ( #211, #329 ) ) ;
#118 = DIRECTION ( 'NONE',  ( -0.0000000000000000000, -0.0000000000000000000, -1.000000000000000000 ) ) ;
#119 = VERTEX_POINT ( 'NONE', #83 ) ;
#120 = FACE_OUTER_BOUND ( 'NONE', #117, .T. ) ;
#121 = UNCERTAINTY_MEASURE_WITH_UNIT (LENGTH_MEASURE( 1.000000000000000082E-05 ), #176, 'distance_accuracy_value', 'NONE');
#122 = ORIENTED_EDGE ( 'NONE', *, *, #298, .F. ) ;
#123 = AXIS2_PLACEMENT_3D ( 'NONE', #256, #21, #128 ) ;
#124 = AXIS2_PLACEMENT_3D ( 'NONE', #217, #216, #108 ) ;
#125 = PRODUCT_CONTEXT ( 'NONE', #137, 'mechanical' ) ;
#126 = LINE ( 'NONE', #79, #130 ) ;
#127 =( NAMED_UNIT ( * ) PLANE_ANGLE_UNIT ( ) SI_UNIT ( $, .RADIAN. ) );
#128 = DIRECTION ( 'NONE',  ( -1.000000000000000000, 0.0000000000000000000, 0.0000000000000000000 ) ) ;
#129 = DIRECTION ( 'NONE',  ( 0.09128369410827934238, 0.0000000000000000000, 0.9958249279817943389 ) ) ;
#130 = VECTOR ( 'NONE', #199, 39.37007874015748143 ) ;
#131 =( GEOMETRIC_REPRESENTATION_CONTEXT ( 3 ) GLOBAL_UNCERTAINTY_ASSIGNED_CONTEXT ( ( #121 ) ) GLOBAL_UNIT_ASSIGNED_CONTEXT ( ( #176, #209, #151 ) ) REPRESENTATION_CONTEXT ( 'NONE', 'WORKASPACE' ) );
#132 = CIRCLE ( 'NONE', #203, 0.1968504999999999838 ) ;
#133 = FACE_OUTER_BOUND ( 'NONE', #91, .T. ) ;
#134 = EDGE_CURVE ( 'NONE', #173, #305, #53, .T. ) ;
#135 = PRODUCT_DEFINITION_FORMATION_WITH_SPECIFIED_SOURCE ( 'ANY', '', #200, .NOT_KNOWN. ) ;
#136 = DIRECTION ( 'NONE',  ( -0.0000000000000000000, -0.0000000000000000000, -1.000000000000000000 ) ) ;
#137 = APPLICATION_CONTEXT ( 'automotive_design' ) ;
#138 = CARTESIAN_POINT ( 'NONE',  ( 0.0000000000000000000, 0.1318899999999999795, 0.3429833309002433550 ) ) ;
#139 = EDGE_CURVE ( 'NONE', #266, #258, #272, .T. ) ;
#140 = CARTESIAN_POINT ( 'NONE',  ( -0.1318899999999999517, 0.0000000000000000000, 0.3429833309002433550 ) ) ;
#141 =( NAMED_UNIT ( * ) SI_UNIT ( $, .STERADIAN. ) SOLID_ANGLE_UNIT ( ) );
#142 = ORIENTED_EDGE ( 'NONE', *, *, #243, .T. ) ;
#143 = CARTESIAN_POINT ( 'NONE',  ( 0.0000000000000000000, 0.0000000000000000000, 0.3429833309002433550 ) ) ;
#144 = EDGE_LOOP ( 'NONE', ( #341, #75, #33, #229 ) ) ;
#145 =( NAMED_UNIT ( * ) PLANE_ANGLE_UNIT ( ) SI_UNIT ( $, .RADIAN. ) );
#146 = ADVANCED_FACE ( 'NONE', ( #185 ), #57, .T. ) ;
#147 = ORIENTED_EDGE ( 'NONE', *, *, #298, .T. ) ;
#148 = CARTESIAN_POINT ( 'NONE',  ( 1.615186663395443625E-17, -0.1318899999999999795, 0.3429833309002433550 ) ) ;
#149 = LINE ( 'NONE', #278, #294 ) ;
#150 = ADVANCED_FACE ( 'NONE', ( #184 ), #228, .T. ) ;
#151 =( NAMED_UNIT ( * ) SI_UNIT ( $, .STERADIAN. ) SOLID_ANGLE_UNIT ( ) );
#152 = DIRECTION ( 'NONE',  ( 0.0000000000000000000, 0.0000000000000000000, 1.000000000000000000 ) ) ;
#153 = DIRECTION ( 'NONE',  ( -1.000000000000000000, 0.0000000000000000000, 0.0000000000000000000 ) ) ;
#154 = CYLINDRICAL_SURFACE ( 'NONE', #226, 0.1318899999999998962 ) ;
#155 = CARTESIAN_POINT ( 'NONE',  ( 0.0000000000000000000, 0.0000000000000000000, 0.1968500000000000250 ) ) ;
#156 = ORIENTED_EDGE ( 'NONE', *, *, #61, .F. ) ;
#157 = CIRCLE ( 'NONE', #247, 0.1318899999999999517 ) ;
#158 = VERTEX_POINT ( 'NONE', #140 ) ;
#159 = CARTESIAN_POINT ( 'NONE',  ( 0.0000000000000000000, 0.0000000000000000000, 0.1968500000000000250 ) ) ;
#160 = DIRECTION ( 'NONE',  ( -0.0000000000000000000, -0.0000000000000000000, -1.000000000000000000 ) ) ;
#161 = CIRCLE ( 'NONE', #9, 0.1968504999999999838 ) ;
#162 = DIRECTION ( 'NONE',  ( -0.0000000000000000000, -0.0000000000000000000, -1.000000000000000000 ) ) ;
#163 = LINE ( 'NONE', #105, #171 ) ;
#164 = DIRECTION ( 'NONE',  ( -1.000000000000000000, 0.0000000000000000000, 0.0000000000000000000 ) ) ;
#165 = DIRECTION ( 'NONE',  ( -1.000000000000000000, 0.0000000000000000000, 0.0000000000000000000 ) ) ;
#166 = DIRECTION ( 'NONE',  ( 1.000000000000000000, 0.0000000000000000000, -0.0000000000000000000 ) ) ;
#167 = ORIENTED_EDGE ( 'NONE', *, *, #55, .F. ) ;
#168 = ADVANCED_FACE ( 'NONE', ( #106 ), #100, .T. ) ;
#169 = SURFACE_STYLE_FILL_AREA ( #32 ) ;
#170 = ORIENTED_EDGE ( 'NONE', *, *, #76, .T. ) ;
#171 = VECTOR ( 'NONE', #160, 39.37007874015748143 ) ;
#172 = AXIS2_PLACEMENT_3D ( 'NONE', #159, #318, #267 ) ;
#173 = VERTEX_POINT ( 'NONE', #290 ) ;
#174 = DIRECTION ( 'NONE',  ( 0.0000000000000000000, 0.0000000000000000000, -1.000000000000000000 ) ) ;
#175 = EDGE_CURVE ( 'NONE', #103, #264, #50, .T. ) ;
#176 =( CONVERSION_BASED_UNIT ( 'INCH', #15 ) LENGTH_UNIT ( ) NAMED_UNIT ( #196 ) );
#177 = AXIS2_PLACEMENT_3D ( 'NONE', #234, #93, #44 ) ;
#178 = AXIS2_PLACEMENT_3D ( 'NONE', #293, #271, #26 ) ;
#179 = ORIENTED_EDGE ( 'NONE', *, *, #134, .F. ) ;
#180 = ORIENTED_EDGE ( 'NONE', *, *, #175, .T. ) ;
#181 = FILL_AREA_STYLE ('',( #281 ) ) ;
#182 = UNCERTAINTY_MEASURE_WITH_UNIT (LENGTH_MEASURE( 1.000000000000000082E-05 ), #299, 'distance_accuracy_value', 'NONE');
#183 = EDGE_LOOP ( 'NONE', ( #12, #193, #338, #147 ) ) ;
#184 = FACE_OUTER_BOUND ( 'NONE', #230, .T. ) ;
#185 = FACE_OUTER_BOUND ( 'NONE', #311, .T. ) ;
#186 = DIRECTION ( 'NONE',  ( -1.000000000000000000, 0.0000000000000000000, 0.0000000000000000000 ) ) ;
#187 = AXIS2_PLACEMENT_3D ( 'NONE', #324, #136, #52 ) ;
#188 = PRESENTATION_LAYER_ASSIGNMENT (  '', '', ( #337 ) ) ;
#189 = DIRECTION ( 'NONE',  ( 0.0000000000000000000, 0.0000000000000000000, 1.000000000000000000 ) ) ;
#190 = ORIENTED_EDGE ( 'NONE', *, *, #250, .F. ) ;
#191 = CARTESIAN_POINT ( 'NONE',  ( 0.0000000000000000000, 1.205358612060782468E-17, 0.0000000000000000000 ) ) ;
#192 = CARTESIAN_POINT ( 'NONE',  ( 0.1968504999999999838, 2.410723347355560646E-17, 3.922007999999999051 ) ) ;
#193 = ORIENTED_EDGE ( 'NONE', *, *, #43, .T. ) ;
#194 = CARTESIAN_POINT ( 'NONE',  ( 0.0000000000000000000, 0.0000000000000000000, 0.1968500000000000250 ) ) ;
#195 = COLOUR_RGB ( '',0.7921568627450980005, 0.8196078431372548767, 0.9333333333333333481 ) ;
#196 = DIMENSIONAL_EXPONENTS ( 1.000000000000000000, 0.0000000000000000000, 0.0000000000000000000, 0.0000000000000000000, 0.0000000000000000000, 0.0000000000000000000, 0.0000000000000000000 ) ;
#197 = DIRECTION ( 'NONE',  ( 1.000000000000000000, 0.0000000000000000000, 0.0000000000000000000 ) ) ;
#198 = CARTESIAN_POINT ( 'NONE',  ( 0.0000000000000000000, 0.0000000000000000000, 1.889763999999999999 ) ) ;
#199 = DIRECTION ( 'NONE',  ( 0.7071067811865419106, 8.659560562354863833E-17, -0.7071067811865531239 ) ) ;
#200 = PRODUCT ( 'Micro_SBMM-100-430X', 'Micro_SBMM-100-430X', '', ( #125 ) ) ;
#201 = CARTESIAN_POINT ( 'NONE',  ( -0.1818504999999994431, 0.0000000000000000000, 3.937007999999999619 ) ) ;
#202 = EDGE_CURVE ( 'NONE', #296, #109, #16, .T. ) ;
#203 = AXIS2_PLACEMENT_3D ( 'NONE', #326, #301, #197 ) ;
#204 = CYLINDRICAL_SURFACE ( 'NONE', #123, 0.1968504999999999838 ) ;
#205 = DIRECTION ( 'NONE',  ( 1.000000000000000000, 0.0000000000000000000, 0.0000000000000000000 ) ) ;
#206 = CONICAL_SURFACE ( 'NONE', #177, 0.2165355499999996325, 0.09141094531249796540 ) ;
#207 = CONICAL_SURFACE ( 'NONE', #124, 0.2165355499999996325, 0.09141094531249796540 ) ;
#208 = ADVANCED_FACE ( 'NONE', ( #133 ), #316, .T. ) ;
#209 =( NAMED_UNIT ( * ) PLANE_ANGLE_UNIT ( ) SI_UNIT ( $, .RADIAN. ) );
#210 = PRODUCT_DEFINITION_CONTEXT ( 'detailed design', #58, 'design' ) ;
#211 = ORIENTED_EDGE ( 'NONE', *, *, #134, .T. ) ;
#212 = DIRECTION ( 'NONE',  ( -0.0000000000000000000, -0.0000000000000000000, -1.000000000000000000 ) ) ;
#213 = ORIENTED_EDGE ( 'NONE', *, *, #317, .F. ) ;
#214 = CIRCLE ( 'NONE', #97, 0.1318899999999999517 ) ;
#215 = DIRECTION ( 'NONE',  ( 1.000000000000000000, 0.0000000000000000000, 0.0000000000000000000 ) ) ;
#216 = DIRECTION ( 'NONE',  ( 0.0000000000000000000, 0.0000000000000000000, 1.000000000000000000 ) ) ;
#217 = CARTESIAN_POINT ( 'NONE',  ( 0.0000000000000000000, 0.0000000000000000000, 2.104510606062141242 ) ) ;
#218 = ORIENTED_EDGE ( 'NONE', *, *, #250, .T. ) ;
#219 = CLOSED_SHELL ( 'NONE', ( #37, #146, #82, #168, #208, #13, #323, #150, #3, #282, #330 ) ) ;
#220 =( GEOMETRIC_REPRESENTATION_CONTEXT ( 3 ) GLOBAL_UNCERTAINTY_ASSIGNED_CONTEXT ( ( #182 ) ) GLOBAL_UNIT_ASSIGNED_CONTEXT ( ( #299, #145, #141 ) ) REPRESENTATION_CONTEXT ( 'NONE', 'WORKASPACE' ) );
#221 = LINE ( 'NONE', #273, #320 ) ;
#222 = DIRECTION ( 'NONE',  ( 0.0000000000000000000, 0.0000000000000000000, -1.000000000000000000 ) ) ;
#223 = EDGE_CURVE ( 'NONE', #266, #103, #104, .T. ) ;
#224 = ORIENTED_EDGE ( 'NONE', *, *, #8, .F. ) ;
#225 = MANIFOLD_SOLID_BREP ( 'Cut-Revolve3', #219 ) ;
#226 = AXIS2_PLACEMENT_3D ( 'NONE', #340, #212, #10 ) ;
#227 = DIRECTION ( 'NONE',  ( 1.000000000000000000, 0.0000000000000000000, 0.0000000000000000000 ) ) ;
#228 = CONICAL_SURFACE ( 'NONE', #19, 0.1818504999999994431, 0.7853981633974403964 ) ;
#229 = ORIENTED_EDGE ( 'NONE', *, *, #343, .T. ) ;
#230 = EDGE_LOOP ( 'NONE', ( #224, #179, #112, #20 ) ) ;
#231 = CARTESIAN_POINT ( 'NONE',  ( 0.0000000000000000000, 0.0000000000000000000, 0.3429833309002433550 ) ) ;
#232 = AXIS2_PLACEMENT_3D ( 'NONE', #113, #222, #325 ) ;
#233 = APPLICATION_PROTOCOL_DEFINITION ( 'draft international standard', 'automotive_design', 1998, #137 ) ;
#234 = CARTESIAN_POINT ( 'NONE',  ( 0.0000000000000000000, 0.0000000000000000000, 2.104510606062141242 ) ) ;
#235 = CIRCLE ( 'NONE', #111, 0.1968500000000000250 ) ;
#236 = FACE_OUTER_BOUND ( 'NONE', #254, .T. ) ;
#237 = EDGE_CURVE ( 'NONE', #158, #101, #157, .T. ) ;
#238 = DIRECTION ( 'NONE',  ( 1.000000000000000000, 0.0000000000000000000, 0.0000000000000000000 ) ) ;
#239 = DIRECTION ( 'NONE',  ( -1.000000000000000000, 0.0000000000000000000, 0.0000000000000000000 ) ) ;
#240 = AXIS2_PLACEMENT_3D ( 'NONE', #198, #68, #227 ) ;
#241 = CARTESIAN_POINT ( 'NONE',  ( -0.2165355499999996325, 2.651795682091112211E-17, 2.104510606062141242 ) ) ;
#242 = DIRECTION ( 'NONE',  ( -0.0000000000000000000, -0.0000000000000000000, -1.000000000000000000 ) ) ;
#243 = EDGE_CURVE ( 'NONE', #264, #258, #274, .T. ) ;
#244 = ORIENTED_EDGE ( 'NONE', *, *, #292, .F. ) ;
#245 = DIRECTION ( 'NONE',  ( -1.000000000000000000, 0.0000000000000000000, 0.0000000000000000000 ) ) ;
#246 = ORIENTED_EDGE ( 'NONE', *, *, #8, .T. ) ;
#247 = AXIS2_PLACEMENT_3D ( 'NONE', #231, #118, #165 ) ;
#248 = CARTESIAN_POINT ( 'NONE',  ( 0.0000000000000000000, 0.0000000000000000000, 3.937007999999999619 ) ) ;
#249 = EDGE_LOOP ( 'NONE', ( #313, #246, #213, #244 ) ) ;
#250 = EDGE_CURVE ( 'NONE', #103, #119, #92, .T. ) ;
#251 = FACE_OUTER_BOUND ( 'NONE', #144, .T. ) ;
#252 = ORIENTED_EDGE ( 'NONE', *, *, #107, .F. ) ;
#253 = DIRECTION ( 'NONE',  ( -0.0000000000000000000, -0.0000000000000000000, -1.000000000000000000 ) ) ;
#254 = EDGE_LOOP ( 'NONE', ( #96, #218, #334, #56, #5 ) ) ;
#255 = PRESENTATION_STYLE_ASSIGNMENT (( #277 ) ) ;
#256 = CARTESIAN_POINT ( 'NONE',  ( 0.0000000000000000000, 0.0000000000000000000, 3.937007999999999619 ) ) ;
#257 = SURFACE_SIDE_STYLE ('',( #169 ) ) ;
#258 = VERTEX_POINT ( 'NONE', #65 ) ;
#259 = CARTESIAN_POINT ( 'NONE',  ( 0.1318899999999998962, 1.615186663395443009E-17, 0.0000000000000000000 ) ) ;
#260 = SURFACE_STYLE_USAGE ( .BOTH. , #72 ) ;
#261 = VECTOR ( 'NONE', #304, 39.37007874015748143 ) ;
#262 = DIRECTION ( 'NONE',  ( 0.0000000000000000000, 0.0000000000000000000, 1.000000000000000000 ) ) ;
#263 = ORIENTED_EDGE ( 'NONE', *, *, #343, .F. ) ;
#264 = VERTEX_POINT ( 'NONE', #64 ) ;
#265 = MECHANICAL_DESIGN_GEOMETRIC_PRESENTATION_REPRESENTATION (  '', ( #337 ), #312 ) ;
#266 = VERTEX_POINT ( 'NONE', #14 ) ;
#267 = DIRECTION ( 'NONE',  ( -1.224646799147353207E-16, 1.000000000000000000, 0.0000000000000000000 ) ) ;
#268 = DIRECTION ( 'NONE',  ( 1.000000000000000000, 0.0000000000000000000, 0.0000000000000000000 ) ) ;
#269 = CIRCLE ( 'NONE', #99, 0.1968504999999999838 ) ;
#270 = VECTOR ( 'NONE', #36, 39.37007874015748143 ) ;
#271 = DIRECTION ( 'NONE',  ( -0.0000000000000000000, -0.0000000000000000000, -1.000000000000000000 ) ) ;
#272 = LINE ( 'NONE', #241, #322 ) ;
#273 = CARTESIAN_POINT ( 'NONE',  ( 0.1968504999999999838, 2.410723347355560646E-17, 3.937007999999999619 ) ) ;
#274 = CIRCLE ( 'NONE', #240, 0.1968504999999999838 ) ;
#275 = DIRECTION ( 'NONE',  ( 1.000000000000000000, 0.0000000000000000000, 0.0000000000000000000 ) ) ;
#276 = FILL_AREA_STYLE_COLOUR ( '', #195 ) ;
#277 = SURFACE_STYLE_USAGE ( .BOTH. , #257 ) ;
#278 = CARTESIAN_POINT ( 'NONE',  ( -0.1968504999999999838, 0.0000000000000000000, 3.937007999999999619 ) ) ;
#279 = SPHERICAL_SURFACE ( 'NONE', #344, 0.1968500000000000250 ) ;
#280 = VERTEX_POINT ( 'NONE', #192 ) ;
#281 = FILL_AREA_STYLE_COLOUR ( '', #327 ) ;
#282 = ADVANCED_FACE ( 'NONE', ( #251 ), #279, .T. ) ;
#283 = SURFACE_STYLE_FILL_AREA ( #181 ) ;
#284 = CIRCLE ( 'NONE', #67, 0.1318899999999999517 ) ;
#285 = FACE_OUTER_BOUND ( 'NONE', #63, .T. ) ;
#286 =( NAMED_UNIT ( * ) SI_UNIT ( $, .STERADIAN. ) SOLID_ANGLE_UNIT ( ) );
#287 = ORIENTED_EDGE ( 'NONE', *, *, #69, .T. ) ;
#288 = ORIENTED_EDGE ( 'NONE', *, *, #88, .F. ) ;
#289 = AXIS2_PLACEMENT_3D ( 'NONE', #51, #1, #245 ) ;
#290 = CARTESIAN_POINT ( 'NONE',  ( -0.1818504999999994431, 0.0000000000000000000, 3.937007999999999619 ) ) ;
#291 = CARTESIAN_POINT ( 'NONE',  ( 0.0000000000000000000, 0.0000000000000000000, 3.937007999999999619 ) ) ;
#292 = EDGE_CURVE ( 'NONE', #173, #102, #95, .T. ) ;
#293 = CARTESIAN_POINT ( 'NONE',  ( 0.0000000000000000000, 0.0000000000000000000, 1.181102000000000096 ) ) ;
#294 = VECTOR ( 'NONE', #342, 39.37007874015748143 ) ;
#295 = CARTESIAN_POINT ( 'NONE',  ( 0.1318899999999998685, 0.0000000000000000000, 1.181102000000000096 ) ) ;
#296 = VERTEX_POINT ( 'NONE', #148 ) ;
#297 = DIRECTION ( 'NONE',  ( 0.0000000000000000000, 0.0000000000000000000, -1.000000000000000000 ) ) ;
#298 = EDGE_CURVE ( 'NONE', #258, #264, #132, .T. ) ;
#299 =( CONVERSION_BASED_UNIT ( 'INCH', #331 ) LENGTH_UNIT ( ) NAMED_UNIT ( #31 ) );
#300 = AXIS2_PLACEMENT_3D ( 'NONE', #345, #81, #186 ) ;
#301 = DIRECTION ( 'NONE',  ( 0.0000000000000000000, 0.0000000000000000000, 1.000000000000000000 ) ) ;
#302 = DIRECTION ( 'NONE',  ( -0.0000000000000000000, -0.0000000000000000000, -1.000000000000000000 ) ) ;
#303 = ORIENTED_EDGE ( 'NONE', *, *, #61, .T. ) ;
#304 = DIRECTION ( 'NONE',  ( -0.0000000000000000000, -0.0000000000000000000, -1.000000000000000000 ) ) ;
#305 = VERTEX_POINT ( 'NONE', #11 ) ;
#306 = DIRECTION ( 'NONE',  ( -1.000000000000000000, 0.0000000000000000000, 0.0000000000000000000 ) ) ;
#307 = APPLICATION_PROTOCOL_DEFINITION ( 'draft international standard', 'automotive_design', 1998, #58 ) ;
#308 = EDGE_CURVE ( 'NONE', #101, #119, #284, .T. ) ;
#309 = LENGTH_MEASURE_WITH_UNIT ( LENGTH_MEASURE( 0.02539999999999999897 ), #18 );
#310 = VECTOR ( 'NONE', #129, 39.37007874015748854 ) ;
#311 = EDGE_LOOP ( 'NONE', ( #321, #303, #114, #263 ) ) ;
#312 =( GEOMETRIC_REPRESENTATION_CONTEXT ( 3 ) GLOBAL_UNCERTAINTY_ASSIGNED_CONTEXT ( ( #77 ) ) GLOBAL_UNIT_ASSIGNED_CONTEXT ( ( #339, #127, #286 ) ) REPRESENTATION_CONTEXT ( 'NONE', 'WORKASPACE' ) );
#313 = ORIENTED_EDGE ( 'NONE', *, *, #94, .F. ) ;
#314 = DIRECTION ( 'NONE',  ( 0.0000000000000000000, 0.0000000000000000000, -1.000000000000000000 ) ) ;
#315 = ORIENTED_EDGE ( 'NONE', *, *, #317, .T. ) ;
#316 = CYLINDRICAL_SURFACE ( 'NONE', #300, 0.1968504999999999838 ) ;
#317 = EDGE_CURVE ( 'NONE', #102, #280, #161, .T. ) ;
#318 = DIRECTION ( 'NONE',  ( 1.000000000000000000, 1.224646799147353207E-16, -0.0000000000000000000 ) ) ;
#319 = CARTESIAN_POINT ( 'NONE',  ( 0.0000000000000000000, 0.0000000000000000000, 0.3429833309002433550 ) ) ;
#320 = VECTOR ( 'NONE', #242, 39.37007874015748143 ) ;
#321 = ORIENTED_EDGE ( 'NONE', *, *, #308, .T. ) ;
#322 = VECTOR ( 'NONE', #27, 39.37007874015748854 ) ;
#323 = ADVANCED_FACE ( 'NONE', ( #120 ), #87, .T. ) ;
#324 = CARTESIAN_POINT ( 'NONE',  ( 0.0000000000000000000, 0.0000000000000000000, 0.3429833309002433550 ) ) ;
#325 = DIRECTION ( 'NONE',  ( -1.000000000000000000, 0.0000000000000000000, 0.0000000000000000000 ) ) ;
#326 = CARTESIAN_POINT ( 'NONE',  ( 0.0000000000000000000, 0.0000000000000000000, 1.889763999999999999 ) ) ;
#327 = COLOUR_RGB ( '',0.7921568627450980005, 0.8196078431372548767, 0.9333333333333333481 ) ;
#328 = CYLINDRICAL_SURFACE ( 'NONE', #42, 0.1318899999999998962 ) ;
#329 = ORIENTED_EDGE ( 'NONE', *, *, #94, .T. ) ;
#330 = ADVANCED_FACE ( 'NONE', ( #7 ), #328, .T. ) ;
#331 = LENGTH_MEASURE_WITH_UNIT ( LENGTH_MEASURE( 0.02539999999999999897 ), #115 );
#332 = ORIENTED_EDGE ( 'NONE', *, *, #243, .F. ) ;
#333 = DIRECTION ( 'NONE',  ( 1.000000000000000000, 0.0000000000000000000, 0.0000000000000000000 ) ) ;
#334 = ORIENTED_EDGE ( 'NONE', *, *, #308, .F. ) ;
#335 =( LENGTH_UNIT ( ) NAMED_UNIT ( * ) SI_UNIT ( $, .METRE. ) );
#336 = CIRCLE ( 'NONE', #187, 0.1318899999999999517 ) ;
#337 = STYLED_ITEM ( 'NONE', ( #45 ), #89 ) ;
#338 = ORIENTED_EDGE ( 'NONE', *, *, #55, .T. ) ;
#339 =( CONVERSION_BASED_UNIT ( 'INCH', #309 ) LENGTH_UNIT ( ) NAMED_UNIT ( #40 ) );
#340 = CARTESIAN_POINT ( 'NONE',  ( 0.0000000000000000000, 0.0000000000000000000, 0.0000000000000000000 ) ) ;
#341 = ORIENTED_EDGE ( 'NONE', *, *, #202, .F. ) ;
#342 = DIRECTION ( 'NONE',  ( -0.0000000000000000000, -0.0000000000000000000, -1.000000000000000000 ) ) ;
#343 = EDGE_CURVE ( 'NONE', #101, #109, #235, .T. ) ;
#344 = AXIS2_PLACEMENT_3D ( 'NONE', #194, #333, #6 ) ;
#345 = CARTESIAN_POINT ( 'NONE',  ( 0.0000000000000000000, 0.0000000000000000000, 3.937007999999999619 ) ) ;
ENDSEC;
END-ISO-10303-21;
