ISO-10303-21;
HEADER;
FILE_DESCRIPTION (( 'STEP AP214' ),
    '1' );
FILE_NAME ('82272W.STEP',
    '2023-06-23T05:16:46',
    ( '' ),
    ( '' ),
    'SwSTEP 2.0',
    'SolidWorks 2023',
    '' );
FILE_SCHEMA (( 'AUTOMOTIVE_DESIGN' ));
ENDSEC;

DATA;
#1 = DIRECTION ( 'NONE',  ( -3.498990854706726443E-17, 1.000000000000000000, -0.000000000000000000 ) ) ;
#2 = CARTESIAN_POINT ( 'NONE',  ( -6.123233995736772199E-17, 3.000000000000000444, 0.000000000000000000 ) ) ;
#3 = FILL_AREA_STYLE_COLOUR ( '', #271 ) ;
#4 = ORIENTED_EDGE ( 'NONE', *, *, #38, .T. ) ;
#5 = SURFACE_STYLE_FILL_AREA ( #81 ) ;
#6 = FILL_AREA_STYLE_COLOUR ( '', #209 ) ;
#7 = APPLICATION_CONTEXT ( 'automotive_design' ) ;
#8 = DIRECTION ( 'NONE',  ( 3.498990854706726443E-17, -1.000000000000000000, 0.000000000000000000 ) ) ;
#9 = STYLED_ITEM ( 'NONE', ( #79 ), #35 ) ;
#10 = CIRCLE ( 'NONE', #65, 0.2500000000000000000 ) ;
#11 = SURFACE_SIDE_STYLE ('',( #100 ) ) ;
#12 = ADVANCED_FACE ( 'NONE', ( #274 ), #49, .T. ) ;
#13 = CARTESIAN_POINT ( 'NONE',  ( 0.000000000000000000, 0.000000000000000000, -0.2500000000000000000 ) ) ;
#14 = APPLICATION_PROTOCOL_DEFINITION ( 'draft international standard', 'automotive_design', 1998, #7 ) ;
#15 = PRESENTATION_LAYER_ASSIGNMENT (  '', '', ( #244 ) ) ;
#16 = COLOUR_RGB ( '',0.7921568627450980005, 0.8196078431372548767, 0.9333333333333333481 ) ;
#17 =( NAMED_UNIT ( * ) SI_UNIT ( $, .STERADIAN. ) SOLID_ANGLE_UNIT ( ) );
#18 = LENGTH_MEASURE_WITH_UNIT ( LENGTH_MEASURE( 0.02539999999999999897 ), #88 );
#19 = PLANE ( 'NONE',  #139 ) ;
#20 = SURFACE_SIDE_STYLE ('',( #236 ) ) ;
#21 = VERTEX_POINT ( 'NONE', #276 ) ;
#22 = APPLICATION_CONTEXT ( 'automotive_design' ) ;
#23 = AXIS2_PLACEMENT_3D ( 'NONE', #83, #185, #283 ) ;
#24 = EDGE_LOOP ( 'NONE', ( #289, #122 ) ) ;
#25 =( NAMED_UNIT ( * ) SI_UNIT ( $, .STERADIAN. ) SOLID_ANGLE_UNIT ( ) );
#26 = CARTESIAN_POINT ( 'NONE',  ( 0.000000000000000000, 0.000000000000000000, -0.2500000000000000000 ) ) ;
#27 = DIRECTION ( 'NONE',  ( -0.000000000000000000, -1.000000000000000000, -0.000000000000000000 ) ) ;
#28 = DIMENSIONAL_EXPONENTS ( 1.000000000000000000, 0.000000000000000000, 0.000000000000000000, 0.000000000000000000, 0.000000000000000000, 0.000000000000000000, 0.000000000000000000 ) ;
#29 = VERTEX_POINT ( 'NONE', #26 ) ;
#30 = UNCERTAINTY_MEASURE_WITH_UNIT (LENGTH_MEASURE( 1.000000000000000082E-05 ), #59, 'distance_accuracy_value', 'NONE');
#31 =( CONVERSION_BASED_UNIT ( 'INCH', #183 ) LENGTH_UNIT ( ) NAMED_UNIT ( #131 ) );
#32 =( NAMED_UNIT ( * ) PLANE_ANGLE_UNIT ( ) SI_UNIT ( $, .RADIAN. ) );
#33 = AXIS2_PLACEMENT_3D ( 'NONE', #299, #224, #300 ) ;
#34 = PRESENTATION_LAYER_ASSIGNMENT (  '', '', ( #136 ) ) ;
#35 = ADVANCED_FACE ( 'NONE', ( #47 ), #218, .T. ) ;
#36 =( LENGTH_UNIT ( ) NAMED_UNIT ( * ) SI_UNIT ( $, .METRE. ) );
#37 = EDGE_CURVE ( 'NONE', #21, #29, #229, .T. ) ;
#38 = EDGE_CURVE ( 'NONE', #126, #118, #62, .T. ) ;
#39 =( GEOMETRIC_REPRESENTATION_CONTEXT ( 3 ) GLOBAL_UNCERTAINTY_ASSIGNED_CONTEXT ( ( #67 ) ) GLOBAL_UNIT_ASSIGNED_CONTEXT ( ( #114, #210, #55 ) ) REPRESENTATION_CONTEXT ( 'NONE', 'WORKASPACE' ) );
#40 = AXIS2_PLACEMENT_3D ( 'NONE', #2, #292, #175 ) ;
#41 = UNCERTAINTY_MEASURE_WITH_UNIT (LENGTH_MEASURE( 1.000000000000000082E-05 ), #31, 'distance_accuracy_value', 'NONE');
#42 = EDGE_CURVE ( 'NONE', #197, #118, #64, .T. ) ;
#43 =( CONVERSION_BASED_UNIT ( 'INCH', #248 ) LENGTH_UNIT ( ) NAMED_UNIT ( #46 ) );
#44 = EDGE_LOOP ( 'NONE', ( #249, #72, #171, #293 ) ) ;
#45 = SURFACE_STYLE_USAGE ( .BOTH. , #246 ) ;
#46 = DIMENSIONAL_EXPONENTS ( 1.000000000000000000, 0.000000000000000000, 0.000000000000000000, 0.000000000000000000, 0.000000000000000000, 0.000000000000000000, 0.000000000000000000 ) ;
#47 = FACE_OUTER_BOUND ( 'NONE', #98, .T. ) ;
#48 = CARTESIAN_POINT ( 'NONE',  ( 0.000000000000000000, 0.000000000000000000, 0.000000000000000000 ) ) ;
#49 = CYLINDRICAL_SURFACE ( 'NONE', #297, 0.2500000000000000555 ) ;
#50 = DIMENSIONAL_EXPONENTS ( 1.000000000000000000, 0.000000000000000000, 0.000000000000000000, 0.000000000000000000, 0.000000000000000000, 0.000000000000000000, 0.000000000000000000 ) ;
#51 = DIRECTION ( 'NONE',  ( -0.000000000000000000, -1.000000000000000000, -0.000000000000000000 ) ) ;
#52 = MANIFOLD_SOLID_BREP ( 'Revolve - Tool Body (Straight Shanked)', #119 ) ;
#53 = ORIENTED_EDGE ( 'NONE', *, *, #38, .F. ) ;
#54 = LENGTH_MEASURE_WITH_UNIT ( LENGTH_MEASURE( 0.02539999999999999897 ), #128 );
#55 =( NAMED_UNIT ( * ) SI_UNIT ( $, .STERADIAN. ) SOLID_ANGLE_UNIT ( ) );
#56 = PRESENTATION_LAYER_ASSIGNMENT (  '', '', ( #245 ) ) ;
#57 = DIRECTION ( 'NONE',  ( -1.000000000000000000, 0.000000000000000000, 0.000000000000000000 ) ) ;
#58 =( NAMED_UNIT ( * ) SI_UNIT ( $, .STERADIAN. ) SOLID_ANGLE_UNIT ( ) );
#59 =( CONVERSION_BASED_UNIT ( 'INCH', #54 ) LENGTH_UNIT ( ) NAMED_UNIT ( #77 ) );
#60 = DIRECTION ( 'NONE',  ( -3.498990854706726443E-17, 1.000000000000000000, -0.000000000000000000 ) ) ;
#61 = PRESENTATION_STYLE_ASSIGNMENT (( #104 ) ) ;
#62 = CIRCLE ( 'NONE', #23, 0.2500000000000000555 ) ;
#63 =( NAMED_UNIT ( * ) SI_UNIT ( $, .STERADIAN. ) SOLID_ANGLE_UNIT ( ) );
#64 = LINE ( 'NONE', #162, #203 ) ;
#65 = AXIS2_PLACEMENT_3D ( 'NONE', #305, #215, #142 ) ;
#66 = EDGE_CURVE ( 'NONE', #101, #197, #237, .T. ) ;
#67 = UNCERTAINTY_MEASURE_WITH_UNIT (LENGTH_MEASURE( 1.000000000000000082E-05 ), #114, 'distance_accuracy_value', 'NONE');
#68 = PRESENTATION_STYLE_ASSIGNMENT (( #213 ) ) ;
#69 =( GEOMETRIC_REPRESENTATION_CONTEXT ( 3 ) GLOBAL_UNCERTAINTY_ASSIGNED_CONTEXT ( ( #41 ) ) GLOBAL_UNIT_ASSIGNED_CONTEXT ( ( #31, #181, #17 ) ) REPRESENTATION_CONTEXT ( 'NONE', 'WORKASPACE' ) );
#70 = PRODUCT_DEFINITION_SHAPE ( 'NONE', 'NONE',  #147 ) ;
#71 =( GEOMETRIC_REPRESENTATION_CONTEXT ( 3 ) GLOBAL_UNCERTAINTY_ASSIGNED_CONTEXT ( ( #146 ) ) GLOBAL_UNIT_ASSIGNED_CONTEXT ( ( #43, #73, #25 ) ) REPRESENTATION_CONTEXT ( 'NONE', 'WORKASPACE' ) );
#72 = ORIENTED_EDGE ( 'NONE', *, *, #281, .T. ) ;
#73 =( NAMED_UNIT ( * ) PLANE_ANGLE_UNIT ( ) SI_UNIT ( $, .RADIAN. ) );
#74 = DIRECTION ( 'NONE',  ( -1.000000000000000000, 0.000000000000000000, 0.000000000000000000 ) ) ;
#75 = FACE_OUTER_BOUND ( 'NONE', #270, .T. ) ;
#76 = ORIENTED_EDGE ( 'NONE', *, *, #66, .F. ) ;
#77 = DIMENSIONAL_EXPONENTS ( 1.000000000000000000, 0.000000000000000000, 0.000000000000000000, 0.000000000000000000, 0.000000000000000000, 0.000000000000000000, 0.000000000000000000 ) ;
#78 = FILL_AREA_STYLE_COLOUR ( '', #165 ) ;
#79 = PRESENTATION_STYLE_ASSIGNMENT (( #230 ) ) ;
#80 = EDGE_CURVE ( 'NONE', #124, #29, #97, .T. ) ;
#81 = FILL_AREA_STYLE ('',( #3 ) ) ;
#82 = SURFACE_STYLE_FILL_AREA ( #259 ) ;
#83 = CARTESIAN_POINT ( 'NONE',  ( -6.123233995736772199E-17, 3.000000000000000444, 0.000000000000000000 ) ) ;
#84 =( GEOMETRIC_REPRESENTATION_CONTEXT ( 3 ) GLOBAL_UNCERTAINTY_ASSIGNED_CONTEXT ( ( #169 ) ) GLOBAL_UNIT_ASSIGNED_CONTEXT ( ( #134, #32, #58 ) ) REPRESENTATION_CONTEXT ( 'NONE', 'WORKASPACE' ) );
#85 =( GEOMETRIC_REPRESENTATION_CONTEXT ( 3 ) GLOBAL_UNCERTAINTY_ASSIGNED_CONTEXT ( ( #264 ) ) GLOBAL_UNIT_ASSIGNED_CONTEXT ( ( #206, #301, #63 ) ) REPRESENTATION_CONTEXT ( 'NONE', 'WORKASPACE' ) );
#86 = DIRECTION ( 'NONE',  ( 0.000000000000000000, 0.000000000000000000, 1.000000000000000000 ) ) ;
#87 = CARTESIAN_POINT ( 'NONE',  ( 0.000000000000000000, 0.000000000000000000, 0.000000000000000000 ) ) ;
#88 =( LENGTH_UNIT ( ) NAMED_UNIT ( * ) SI_UNIT ( $, .METRE. ) );
#89 = AXIS2_PLACEMENT_3D ( 'NONE', #152, #60, #57 ) ;
#90 = PRODUCT_RELATED_PRODUCT_CATEGORY ( 'part', '', ( #141 ) ) ;
#91 = FILL_AREA_STYLE_COLOUR ( '', #16 ) ;
#92 = EDGE_LOOP ( 'NONE', ( #241, #145, #309, #173 ) ) ;
#93 = CARTESIAN_POINT ( 'NONE',  ( 3.061616997868383018E-17, 0.000000000000000000, 0.2500000000000000000 ) ) ;
#94 = ORIENTED_EDGE ( 'NONE', *, *, #220, .F. ) ;
#95 = VERTEX_POINT ( 'NONE', #132 ) ;
#96 = LENGTH_MEASURE_WITH_UNIT ( LENGTH_MEASURE( 0.02539999999999999897 ), #239 );
#97 = CIRCLE ( 'NONE', #33, 0.2500000000000000000 ) ;
#98 = EDGE_LOOP ( 'NONE', ( #191, #222 ) ) ;
#99 = SURFACE_SIDE_STYLE ('',( #5 ) ) ;
#100 = SURFACE_STYLE_FILL_AREA ( #256 ) ;
#101 = VERTEX_POINT ( 'NONE', #296 ) ;
#102 = LINE ( 'NONE', #205, #112 ) ;
#103 = ADVANCED_FACE ( 'NONE', ( #160 ), #177, .T. ) ;
#104 = SURFACE_STYLE_USAGE ( .BOTH. , #153 ) ;
#105 = FACE_OUTER_BOUND ( 'NONE', #172, .T. ) ;
#106 = DIRECTION ( 'NONE',  ( -3.498990854706726443E-17, 1.000000000000000000, -0.000000000000000000 ) ) ;
#107 = CIRCLE ( 'NONE', #40, 0.2500000000000000555 ) ;
#108 = CARTESIAN_POINT ( 'NONE',  ( 3.061616997868383018E-17, 0.000000000000000000, 0.2500000000000000000 ) ) ;
#109 = EDGE_CURVE ( 'NONE', #95, #21, #233, .T. ) ;
#110 = PRODUCT_CONTEXT ( 'NONE', #7, 'mechanical' ) ;
#111 = PRESENTATION_LAYER_ASSIGNMENT (  '', '', ( #9 ) ) ;
#112 = VECTOR ( 'NONE', #250, 39.37007874015748143 ) ;
#113 = APPLICATION_PROTOCOL_DEFINITION ( 'draft international standard', 'automotive_design', 1998, #22 ) ;
#114 =( CONVERSION_BASED_UNIT ( 'INCH', #18 ) LENGTH_UNIT ( ) NAMED_UNIT ( #28 ) );
#115 = CIRCLE ( 'NONE', #261, 0.2500000000000000000 ) ;
#116 = ADVANCED_FACE ( 'NONE', ( #262 ), #19, .T. ) ;
#117 = CARTESIAN_POINT ( 'NONE',  ( -0.2500000000000001110, 3.000000000000000444, 0.000000000000000000 ) ) ;
#118 = VERTEX_POINT ( 'NONE', #117 ) ;
#119 = CLOSED_SHELL ( 'NONE', ( #12, #265, #159, #212 ) ) ;
#120 = MECHANICAL_DESIGN_GEOMETRIC_PRESENTATION_REPRESENTATION (  '', ( #291 ), #144 ) ;
#121 = ORIENTED_EDGE ( 'NONE', *, *, #287, .F. ) ;
#122 = ORIENTED_EDGE ( 'NONE', *, *, #109, .F. ) ;
#123 = CARTESIAN_POINT ( 'NONE',  ( 0.2500000000000000000, 3.000000000000000444, 3.061616997868383634E-17 ) ) ;
#124 = VERTEX_POINT ( 'NONE', #93 ) ;
#125 = AXIS2_PLACEMENT_3D ( 'NONE', #164, #234, #158 ) ;
#126 = VERTEX_POINT ( 'NONE', #123 ) ;
#127 = CYLINDRICAL_SURFACE ( 'NONE', #125, 0.2500000000000000000 ) ;
#128 =( LENGTH_UNIT ( ) NAMED_UNIT ( * ) SI_UNIT ( $, .METRE. ) );
#129 = AXIS2_PLACEMENT_3D ( 'NONE', #207, #106, #282 ) ;
#130 = MECHANICAL_DESIGN_GEOMETRIC_PRESENTATION_REPRESENTATION (  '', ( #136 ), #71 ) ;
#131 = DIMENSIONAL_EXPONENTS ( 1.000000000000000000, 0.000000000000000000, 0.000000000000000000, 0.000000000000000000, 0.000000000000000000, 0.000000000000000000, 0.000000000000000000 ) ;
#132 = CARTESIAN_POINT ( 'NONE',  ( 3.061616997868383018E-17, 1.250000000000000000, 0.2500000000000000000 ) ) ;
#133 = DIRECTION ( 'NONE',  ( 0.000000000000000000, 0.000000000000000000, -1.000000000000000000 ) ) ;
#134 =( CONVERSION_BASED_UNIT ( 'INCH', #180 ) LENGTH_UNIT ( ) NAMED_UNIT ( #223 ) );
#135 = DIRECTION ( 'NONE',  ( 0.000000000000000000, 0.000000000000000000, -1.000000000000000000 ) ) ;
#136 = STYLED_ITEM ( 'NONE', ( #288 ), #156 ) ;
#137 = DIRECTION ( 'NONE',  ( -0.000000000000000000, -1.000000000000000000, -0.000000000000000000 ) ) ;
#138 = PRESENTATION_LAYER_ASSIGNMENT (  '', '', ( #280 ) ) ;
#139 = AXIS2_PLACEMENT_3D ( 'NONE', #217, #148, #267 ) ;
#140 = CARTESIAN_POINT ( 'NONE',  ( -6.123233995736772199E-17, 3.000000000000000444, 0.000000000000000000 ) ) ;
#141 = PRODUCT ( '82272W', '82272W', '', ( #110 ) ) ;
#142 = DIRECTION ( 'NONE',  ( 0.000000000000000000, 0.000000000000000000, -1.000000000000000000 ) ) ;
#143 = ORIENTED_EDGE ( 'NONE', *, *, #190, .T. ) ;
#144 =( GEOMETRIC_REPRESENTATION_CONTEXT ( 3 ) GLOBAL_UNCERTAINTY_ASSIGNED_CONTEXT ( ( #30 ) ) GLOBAL_UNIT_ASSIGNED_CONTEXT ( ( #59, #255, #182 ) ) REPRESENTATION_CONTEXT ( 'NONE', 'WORKASPACE' ) );
#145 = ORIENTED_EDGE ( 'NONE', *, *, #287, .T. ) ;
#146 = UNCERTAINTY_MEASURE_WITH_UNIT (LENGTH_MEASURE( 1.000000000000000082E-05 ), #43, 'distance_accuracy_value', 'NONE');
#147 = PRODUCT_DEFINITION ( 'UNKNOWN', '', #204, #240 ) ;
#148 = DIRECTION ( 'NONE',  ( 0.000000000000000000, 1.000000000000000000, 0.000000000000000000 ) ) ;
#149 = SURFACE_STYLE_FILL_AREA ( #193 ) ;
#150 = SURFACE_SIDE_STYLE ('',( #149 ) ) ;
#151 = EDGE_CURVE ( 'NONE', #21, #95, #10, .T. ) ;
#152 = CARTESIAN_POINT ( 'NONE',  ( 0.000000000000000000, 1.250000000000000000, 0.000000000000000000 ) ) ;
#153 = SURFACE_SIDE_STYLE ('',( #82 ) ) ;
#154 = PLANE ( 'NONE',  #179 ) ;
#155 =( LENGTH_UNIT ( ) NAMED_UNIT ( * ) SI_UNIT ( $, .METRE. ) );
#156 = MANIFOLD_SOLID_BREP ( 'Revolve - Cutting Edge', #285 ) ;
#157 = DIMENSIONAL_EXPONENTS ( 1.000000000000000000, 0.000000000000000000, 0.000000000000000000, 0.000000000000000000, 0.000000000000000000, 0.000000000000000000, 0.000000000000000000 ) ;
#158 = DIRECTION ( 'NONE',  ( 0.000000000000000000, 0.000000000000000000, -1.000000000000000000 ) ) ;
#159 = ADVANCED_FACE ( 'NONE', ( #75 ), #196, .T. ) ;
#160 = FACE_OUTER_BOUND ( 'NONE', #92, .T. ) ;
#161 = PRESENTATION_LAYER_ASSIGNMENT (  '', '', ( #291 ) ) ;
#162 = CARTESIAN_POINT ( 'NONE',  ( -0.2500000000000001110, 3.000000000000000444, 0.000000000000000000 ) ) ;
#163 = EDGE_CURVE ( 'NONE', #29, #124, #115, .T. ) ;
#164 = CARTESIAN_POINT ( 'NONE',  ( 0.000000000000000000, 0.000000000000000000, 0.000000000000000000 ) ) ;
#165 = COLOUR_RGB ( '',1.000000000000000000, 0.000000000000000000, 0.000000000000000000 ) ;
#166 = DIRECTION ( 'NONE',  ( 0.000000000000000000, 0.000000000000000000, -1.000000000000000000 ) ) ;
#167 = DIRECTION ( 'NONE',  ( -3.498990854706726443E-17, 1.000000000000000000, -0.000000000000000000 ) ) ;
#168 =( LENGTH_UNIT ( ) NAMED_UNIT ( * ) SI_UNIT ( $, .METRE. ) );
#169 = UNCERTAINTY_MEASURE_WITH_UNIT (LENGTH_MEASURE( 1.000000000000000082E-05 ), #134, 'distance_accuracy_value', 'NONE');
#170 =( CONVERSION_BASED_UNIT ( 'INCH', #96 ) LENGTH_UNIT ( ) NAMED_UNIT ( #157 ) );
#171 = ORIENTED_EDGE ( 'NONE', *, *, #190, .F. ) ;
#172 = EDGE_LOOP ( 'NONE', ( #94, #76 ) ) ;
#173 = ORIENTED_EDGE ( 'NONE', *, *, #37, .F. ) ;
#174 = ORIENTED_EDGE ( 'NONE', *, *, #109, .T. ) ;
#175 = DIRECTION ( 'NONE',  ( -1.000000000000000000, 0.000000000000000000, 0.000000000000000000 ) ) ;
#176 = ORIENTED_EDGE ( 'NONE', *, *, #281, .F. ) ;
#177 = CYLINDRICAL_SURFACE ( 'NONE', #189, 0.2500000000000000000 ) ;
#178 = CARTESIAN_POINT ( 'NONE',  ( -0.2500000000000000000, 1.250000000000000000, 0.000000000000000000 ) ) ;
#179 = AXIS2_PLACEMENT_3D ( 'NONE', #298, #279, #257 ) ;
#180 = LENGTH_MEASURE_WITH_UNIT ( LENGTH_MEASURE( 0.02539999999999999897 ), #251 );
#181 =( NAMED_UNIT ( * ) PLANE_ANGLE_UNIT ( ) SI_UNIT ( $, .RADIAN. ) );
#182 =( NAMED_UNIT ( * ) SI_UNIT ( $, .STERADIAN. ) SOLID_ANGLE_UNIT ( ) );
#183 = LENGTH_MEASURE_WITH_UNIT ( LENGTH_MEASURE( 0.02539999999999999897 ), #155 );
#184 = AXIS2_PLACEMENT_3D ( 'NONE', #87, #86, #211 ) ;
#185 = DIRECTION ( 'NONE',  ( -3.498990854706726443E-17, 1.000000000000000000, -0.000000000000000000 ) ) ;
#186 = COLOUR_RGB ( '',0.7921568627450980005, 0.8196078431372548767, 0.9333333333333333481 ) ;
#187 = AXIS2_PLACEMENT_3D ( 'NONE', #232, #137, #166 ) ;
#188 = CARTESIAN_POINT ( 'NONE',  ( 0.000000000000000000, 0.000000000000000000, 0.000000000000000000 ) ) ;
#189 = AXIS2_PLACEMENT_3D ( 'NONE', #188, #235, #135 ) ;
#190 = EDGE_CURVE ( 'NONE', #118, #126, #107, .T. ) ;
#191 = ORIENTED_EDGE ( 'NONE', *, *, #163, .T. ) ;
#192 = DIRECTION ( 'NONE',  ( -1.000000000000000000, 0.000000000000000000, 0.000000000000000000 ) ) ;
#193 = FILL_AREA_STYLE ('',( #78 ) ) ;
#194 = MECHANICAL_DESIGN_GEOMETRIC_PRESENTATION_REPRESENTATION (  '', ( #9 ), #84 ) ;
#195 = AXIS2_PLACEMENT_3D ( 'NONE', #140, #273, #192 ) ;
#196 = CYLINDRICAL_SURFACE ( 'NONE', #195, 0.2500000000000000555 ) ;
#197 = VERTEX_POINT ( 'NONE', #178 ) ;
#198 = DIRECTION ( 'NONE',  ( 1.000000000000000000, 3.498990854706726443E-17, 0.000000000000000000 ) ) ;
#199 = SURFACE_STYLE_USAGE ( .BOTH. , #11 ) ;
#200 = EDGE_LOOP ( 'NONE', ( #143, #4 ) ) ;
#201 = PRESENTATION_STYLE_ASSIGNMENT (( #294 ) ) ;
#202 = FACE_OUTER_BOUND ( 'NONE', #200, .T. ) ;
#203 = VECTOR ( 'NONE', #167, 39.37007874015748143 ) ;
#204 = PRODUCT_DEFINITION_FORMATION_WITH_SPECIFIED_SOURCE ( 'ANY', '', #141, .NOT_KNOWN. ) ;
#205 = CARTESIAN_POINT ( 'NONE',  ( 0.2499999999999999722, 3.000000000000000444, 3.061616997868383634E-17 ) ) ;
#206 =( CONVERSION_BASED_UNIT ( 'INCH', #227 ) LENGTH_UNIT ( ) NAMED_UNIT ( #50 ) );
#207 = CARTESIAN_POINT ( 'NONE',  ( 0.000000000000000000, 1.250000000000000000, 0.000000000000000000 ) ) ;
#208 = DIRECTION ( 'NONE',  ( -0.000000000000000000, -1.000000000000000000, -0.000000000000000000 ) ) ;
#209 = COLOUR_RGB ( '',1.000000000000000000, 0.000000000000000000, 0.000000000000000000 ) ;
#210 =( NAMED_UNIT ( * ) PLANE_ANGLE_UNIT ( ) SI_UNIT ( $, .RADIAN. ) );
#211 = DIRECTION ( 'NONE',  ( 1.000000000000000000, 0.000000000000000000, 0.000000000000000000 ) ) ;
#212 = ADVANCED_FACE ( 'NONE', ( #202 ), #275, .F. ) ;
#213 = SURFACE_STYLE_USAGE ( .BOTH. , #20 ) ;
#214 = SURFACE_STYLE_FILL_AREA ( #269 ) ;
#215 = DIRECTION ( 'NONE',  ( -0.000000000000000000, -1.000000000000000000, -0.000000000000000000 ) ) ;
#216 = ORIENTED_EDGE ( 'NONE', *, *, #42, .T. ) ;
#217 = CARTESIAN_POINT ( 'NONE',  ( 0.000000000000000000, 1.250000000000000000, 0.000000000000000000 ) ) ;
#218 = PLANE ( 'NONE',  #303 ) ;
#219 = DIRECTION ( 'NONE',  ( 0.000000000000000000, 0.000000000000000000, -1.000000000000000000 ) ) ;
#220 = EDGE_CURVE ( 'NONE', #197, #101, #226, .T. ) ;
#221 = LINE ( 'NONE', #108, #258 ) ;
#222 = ORIENTED_EDGE ( 'NONE', *, *, #80, .T. ) ;
#223 = DIMENSIONAL_EXPONENTS ( 1.000000000000000000, 0.000000000000000000, 0.000000000000000000, 0.000000000000000000, 0.000000000000000000, 0.000000000000000000, 0.000000000000000000 ) ;
#224 = DIRECTION ( 'NONE',  ( -0.000000000000000000, -1.000000000000000000, -0.000000000000000000 ) ) ;
#225 = CARTESIAN_POINT ( 'NONE',  ( 0.2500000000000000000, 3.000000000000000444, 0.000000000000000000 ) ) ;
#226 = CIRCLE ( 'NONE', #89, 0.2500000000000000000 ) ;
#227 = LENGTH_MEASURE_WITH_UNIT ( LENGTH_MEASURE( 0.02539999999999999897 ), #36 );
#228 = PRESENTATION_STYLE_ASSIGNMENT (( #199 ) ) ;
#229 = LINE ( 'NONE', #13, #252 ) ;
#230 = SURFACE_STYLE_USAGE ( .BOTH. , #150 ) ;
#231 = DIRECTION ( 'NONE',  ( 0.000000000000000000, -1.000000000000000000, -0.000000000000000000 ) ) ;
#232 = CARTESIAN_POINT ( 'NONE',  ( 0.000000000000000000, 1.250000000000000000, 0.000000000000000000 ) ) ;
#233 = CIRCLE ( 'NONE', #187, 0.2500000000000000000 ) ;
#234 = DIRECTION ( 'NONE',  ( -0.000000000000000000, -1.000000000000000000, -0.000000000000000000 ) ) ;
#235 = DIRECTION ( 'NONE',  ( -0.000000000000000000, -1.000000000000000000, -0.000000000000000000 ) ) ;
#236 = SURFACE_STYLE_FILL_AREA ( #263 ) ;
#237 = CIRCLE ( 'NONE', #129, 0.2500000000000000000 ) ;
#238 = AXIS2_PLACEMENT_3D ( 'NONE', #225, #8, #198 ) ;
#239 =( LENGTH_UNIT ( ) NAMED_UNIT ( * ) SI_UNIT ( $, .METRE. ) );
#240 = PRODUCT_DEFINITION_CONTEXT ( 'detailed design', #22, 'design' ) ;
#241 = ORIENTED_EDGE ( 'NONE', *, *, #151, .T. ) ;
#242 =( NAMED_UNIT ( * ) SI_UNIT ( $, .STERADIAN. ) SOLID_ANGLE_UNIT ( ) );
#243 = ORIENTED_EDGE ( 'NONE', *, *, #80, .F. ) ;
#244 = STYLED_ITEM ( 'NONE', ( #228 ), #52 ) ;
#245 = STYLED_ITEM ( 'NONE', ( #68 ), #116 ) ;
#246 = SURFACE_SIDE_STYLE ('',( #214 ) ) ;
#247 = ORIENTED_EDGE ( 'NONE', *, *, #66, .T. ) ;
#248 = LENGTH_MEASURE_WITH_UNIT ( LENGTH_MEASURE( 0.02539999999999999897 ), #168 );
#249 = ORIENTED_EDGE ( 'NONE', *, *, #220, .T. ) ;
#250 = DIRECTION ( 'NONE',  ( -3.498990854706726443E-17, 1.000000000000000000, -0.000000000000000000 ) ) ;
#251 =( LENGTH_UNIT ( ) NAMED_UNIT ( * ) SI_UNIT ( $, .METRE. ) );
#252 = VECTOR ( 'NONE', #208, 39.37007874015748143 ) ;
#253 = MECHANICAL_DESIGN_GEOMETRIC_PRESENTATION_REPRESENTATION (  '', ( #245 ), #308 ) ;
#254 = ADVANCED_BREP_SHAPE_REPRESENTATION ( '82272W', ( #156, #52, #184 ), #85 ) ;
#255 =( NAMED_UNIT ( * ) PLANE_ANGLE_UNIT ( ) SI_UNIT ( $, .RADIAN. ) );
#256 = FILL_AREA_STYLE ('',( #278 ) ) ;
#257 = DIRECTION ( 'NONE',  ( -1.000000000000000000, -3.498990854706726443E-17, 0.000000000000000000 ) ) ;
#258 = VECTOR ( 'NONE', #51, 39.37007874015748143 ) ;
#259 = FILL_AREA_STYLE ('',( #6 ) ) ;
#260 = CARTESIAN_POINT ( 'NONE',  ( 0.000000000000000000, 0.000000000000000000, 0.000000000000000000 ) ) ;
#261 = AXIS2_PLACEMENT_3D ( 'NONE', #48, #27, #219 ) ;
#262 = FACE_OUTER_BOUND ( 'NONE', #24, .T. ) ;
#263 = FILL_AREA_STYLE ('',( #286 ) ) ;
#264 = UNCERTAINTY_MEASURE_WITH_UNIT (LENGTH_MEASURE( 1.000000000000000082E-05 ), #206, 'distance_accuracy_value', 'NONE');
#265 = ADVANCED_FACE ( 'NONE', ( #105 ), #154, .F. ) ;
#266 = MECHANICAL_DESIGN_GEOMETRIC_PRESENTATION_REPRESENTATION (  '', ( #280 ), #69 ) ;
#267 = DIRECTION ( 'NONE',  ( 0.000000000000000000, -0.000000000000000000, 1.000000000000000000 ) ) ;
#268 = ORIENTED_EDGE ( 'NONE', *, *, #37, .T. ) ;
#269 = FILL_AREA_STYLE ('',( #91 ) ) ;
#270 = EDGE_LOOP ( 'NONE', ( #176, #247, #216, #53 ) ) ;
#271 = COLOUR_RGB ( '',1.000000000000000000, 0.000000000000000000, 0.000000000000000000 ) ;
#272 = UNCERTAINTY_MEASURE_WITH_UNIT (LENGTH_MEASURE( 1.000000000000000082E-05 ), #170, 'distance_accuracy_value', 'NONE');
#273 = DIRECTION ( 'NONE',  ( -3.498990854706726443E-17, 1.000000000000000000, -0.000000000000000000 ) ) ;
#274 = FACE_OUTER_BOUND ( 'NONE', #44, .T. ) ;
#275 = PLANE ( 'NONE',  #238 ) ;
#276 = CARTESIAN_POINT ( 'NONE',  ( 0.000000000000000000, 1.250000000000000000, -0.2500000000000000000 ) ) ;
#277 = FACE_OUTER_BOUND ( 'NONE', #307, .T. ) ;
#278 = FILL_AREA_STYLE_COLOUR ( '', #186 ) ;
#279 = DIRECTION ( 'NONE',  ( -3.498990854706726443E-17, 1.000000000000000000, 0.000000000000000000 ) ) ;
#280 = STYLED_ITEM ( 'NONE', ( #61 ), #103 ) ;
#281 = EDGE_CURVE ( 'NONE', #101, #126, #102, .T. ) ;
#282 = DIRECTION ( 'NONE',  ( -1.000000000000000000, 0.000000000000000000, 0.000000000000000000 ) ) ;
#283 = DIRECTION ( 'NONE',  ( -1.000000000000000000, 0.000000000000000000, 0.000000000000000000 ) ) ;
#284 = MECHANICAL_DESIGN_GEOMETRIC_PRESENTATION_REPRESENTATION (  '', ( #244 ), #39 ) ;
#285 = CLOSED_SHELL ( 'NONE', ( #103, #116, #295, #35 ) ) ;
#286 = FILL_AREA_STYLE_COLOUR ( '', #304 ) ;
#287 = EDGE_CURVE ( 'NONE', #95, #124, #221, .T. ) ;
#288 = PRESENTATION_STYLE_ASSIGNMENT (( #45 ) ) ;
#289 = ORIENTED_EDGE ( 'NONE', *, *, #151, .F. ) ;
#290 = CARTESIAN_POINT ( 'NONE',  ( -6.123233995736772199E-17, 3.000000000000000444, 0.000000000000000000 ) ) ;
#291 = STYLED_ITEM ( 'NONE', ( #201 ), #295 ) ;
#292 = DIRECTION ( 'NONE',  ( -3.498990854706726443E-17, 1.000000000000000000, -0.000000000000000000 ) ) ;
#293 = ORIENTED_EDGE ( 'NONE', *, *, #42, .F. ) ;
#294 = SURFACE_STYLE_USAGE ( .BOTH. , #99 ) ;
#295 = ADVANCED_FACE ( 'NONE', ( #277 ), #127, .T. ) ;
#296 = CARTESIAN_POINT ( 'NONE',  ( 0.2500000000000000000, 1.250000000000000000, 3.061616997868383634E-17 ) ) ;
#297 = AXIS2_PLACEMENT_3D ( 'NONE', #290, #1, #74 ) ;
#298 = CARTESIAN_POINT ( 'NONE',  ( 1.530367125165163595E-34, 1.250000000000000000, 0.000000000000000000 ) ) ;
#299 = CARTESIAN_POINT ( 'NONE',  ( 0.000000000000000000, 0.000000000000000000, 0.000000000000000000 ) ) ;
#300 = DIRECTION ( 'NONE',  ( 0.000000000000000000, 0.000000000000000000, -1.000000000000000000 ) ) ;
#301 =( NAMED_UNIT ( * ) PLANE_ANGLE_UNIT ( ) SI_UNIT ( $, .RADIAN. ) );
#302 = SHAPE_DEFINITION_REPRESENTATION ( #70, #254 ) ;
#303 = AXIS2_PLACEMENT_3D ( 'NONE', #260, #231, #133 ) ;
#304 = COLOUR_RGB ( '',1.000000000000000000, 0.000000000000000000, 0.000000000000000000 ) ;
#305 = CARTESIAN_POINT ( 'NONE',  ( 0.000000000000000000, 1.250000000000000000, 0.000000000000000000 ) ) ;
#306 =( NAMED_UNIT ( * ) PLANE_ANGLE_UNIT ( ) SI_UNIT ( $, .RADIAN. ) );
#307 = EDGE_LOOP ( 'NONE', ( #121, #174, #268, #243 ) ) ;
#308 =( GEOMETRIC_REPRESENTATION_CONTEXT ( 3 ) GLOBAL_UNCERTAINTY_ASSIGNED_CONTEXT ( ( #272 ) ) GLOBAL_UNIT_ASSIGNED_CONTEXT ( ( #170, #306, #242 ) ) REPRESENTATION_CONTEXT ( 'NONE', 'WORKASPACE' ) );
#309 = ORIENTED_EDGE ( 'NONE', *, *, #163, .F. ) ;
ENDSEC;
END-ISO-10303-21;
