ISO-10303-21;
HEADER;
FILE_DESCRIPTION (( 'STEP AP214' ),
    '1' );
FILE_NAME ('Micro_DM-187-2120.STEP',
    '2021-09-02T15:59:20',
    ( '' ),
    ( '' ),
    'SwSTEP 2.0',
    'SolidWorks 2020',
    '' );
FILE_SCHEMA (( 'AUTOMOTIVE_DESIGN' ));
ENDSEC;

DATA;
#1 = DIRECTION ( 'NONE',  ( 1.000000000000000000, 0.0000000000000000000, 0.0000000000000000000 ) ) ;
#2 = ORIENTED_EDGE ( 'NONE', *, *, #119, .F. ) ;
#3 = CIRCLE ( 'NONE', #148, 0.09375000000000001388 ) ;
#4 = CARTESIAN_POINT ( 'NONE',  ( 0.0000000000000000000, 0.0000000000000000000, 0.6250000000000000000 ) ) ;
#5 = DIRECTION ( 'NONE',  ( -1.000000000000000000, 0.0000000000000000000, 0.0000000000000000000 ) ) ;
#6 = ADVANCED_FACE ( 'NONE', ( #231 ), #210, .T. ) ;
#7 = CARTESIAN_POINT ( 'NONE',  ( 0.0000000000000000000, 0.0000000000000000000, 1.984999999999999654 ) ) ;
#8 = ORIENTED_EDGE ( 'NONE', *, *, #90, .F. ) ;
#9 =( NAMED_UNIT ( * ) SI_UNIT ( $, .STERADIAN. ) SOLID_ANGLE_UNIT ( ) );
#10 = AXIS2_PLACEMENT_3D ( 'NONE', #143, #172, #253 ) ;
#11 = ORIENTED_EDGE ( 'NONE', *, *, #303, .F. ) ;
#12 = ORIENTED_EDGE ( 'NONE', *, *, #112, .T. ) ;
#13 = LENGTH_MEASURE_WITH_UNIT ( LENGTH_MEASURE( 0.02539999999999999897 ), #306 );
#14 = DIRECTION ( 'NONE',  ( -0.0000000000000000000, -0.0000000000000000000, -1.000000000000000000 ) ) ;
#15 = ORIENTED_EDGE ( 'NONE', *, *, #64, .T. ) ;
#16 = CONICAL_SURFACE ( 'NONE', #10, 0.07874999999999980627, 0.7853981633974466137 ) ;
#17 = CARTESIAN_POINT ( 'NONE',  ( 0.0000000000000000000, 0.0000000000000000000, 2.000000000000000000 ) ) ;
#18 = EDGE_CURVE ( 'NONE', #56, #204, #245, .T. ) ;
#19 = SURFACE_STYLE_FILL_AREA ( #317 ) ;
#20 = DIRECTION ( 'NONE',  ( -0.0000000000000000000, -0.0000000000000000000, -1.000000000000000000 ) ) ;
#21 = AXIS2_PLACEMENT_3D ( 'NONE', #4, #98, #5 ) ;
#22 = CARTESIAN_POINT ( 'NONE',  ( 0.0000000000000000000, 0.0000000000000000000, 2.000000000000000000 ) ) ;
#23 = LINE ( 'NONE', #25, #70 ) ;
#24 = CARTESIAN_POINT ( 'NONE',  ( 0.0000000000000000000, 0.0000000000000000000, 0.0000000000000000000 ) ) ;
#25 = CARTESIAN_POINT ( 'NONE',  ( -0.09375000000000001388, 0.0000000000000000000, 2.000000000000000000 ) ) ;
#26 = CARTESIAN_POINT ( 'NONE',  ( 0.0000000000000000000, 0.0000000000000000000, 1.707404996040164512E-17 ) ) ;
#27 = LINE ( 'NONE', #95, #51 ) ;
#28 = UNCERTAINTY_MEASURE_WITH_UNIT (LENGTH_MEASURE( 1.000000000000000082E-05 ), #53, 'distance_accuracy_value', 'NONE');
#29 = ORIENTED_EDGE ( 'NONE', *, *, #64, .F. ) ;
#30 = SURFACE_SIDE_STYLE ('',( #152 ) ) ;
#31 = ORIENTED_EDGE ( 'NONE', *, *, #224, .T. ) ;
#32 = VECTOR ( 'NONE', #142, 39.37007874015748143 ) ;
#33 = ORIENTED_EDGE ( 'NONE', *, *, #303, .T. ) ;
#34 = ORIENTED_EDGE ( 'NONE', *, *, #177, .F. ) ;
#35 = ORIENTED_EDGE ( 'NONE', *, *, #224, .F. ) ;
#36 = EDGE_LOOP ( 'NONE', ( #229, #33, #202, #103 ) ) ;
#37 = ADVANCED_BREP_SHAPE_REPRESENTATION ( 'Micro_DM-187-2120', ( #100, #215 ), #252 ) ;
#38 = EDGE_LOOP ( 'NONE', ( #11, #31, #205, #34 ) ) ;
#39 = CARTESIAN_POINT ( 'NONE',  ( 0.09370000000000003326, 0.0000000000000000000, 0.04976759320414544940 ) ) ;
#40 = DIRECTION ( 'NONE',  ( 0.0000000000000000000, 0.0000000000000000000, 1.000000000000000000 ) ) ;
#41 = DIRECTION ( 'NONE',  ( -1.000000000000000000, 0.0000000000000000000, 0.0000000000000000000 ) ) ;
#42 = CARTESIAN_POINT ( 'NONE',  ( 0.09370000000000004714, 1.147494050801070527E-17, 0.0000000000000000000 ) ) ;
#43 = DIRECTION ( 'NONE',  ( -1.000000000000000000, 0.0000000000000000000, 0.0000000000000000000 ) ) ;
#44 = PRODUCT_DEFINITION ( 'UNKNOWN', '', #325, #304 ) ;
#45 = DIRECTION ( 'NONE',  ( -1.000000000000000000, 0.0000000000000000000, 0.0000000000000000000 ) ) ;
#46 = VECTOR ( 'NONE', #192, 39.37007874015748143 ) ;
#47 = DIRECTION ( 'NONE',  ( -1.000000000000000000, 0.0000000000000000000, 0.0000000000000000000 ) ) ;
#48 = CARTESIAN_POINT ( 'NONE',  ( 0.09370000000000008877, 1.147494050801071143E-17, 0.6250000000000000000 ) ) ;
#49 = DIRECTION ( 'NONE',  ( -1.000000000000000000, 0.0000000000000000000, 0.0000000000000000000 ) ) ;
#50 = EDGE_CURVE ( 'NONE', #204, #56, #206, .T. ) ;
#51 = VECTOR ( 'NONE', #74, 39.37007874015748143 ) ;
#52 = LINE ( 'NONE', #122, #93 ) ;
#53 =( CONVERSION_BASED_UNIT ( 'INCH', #178 ) LENGTH_UNIT ( ) NAMED_UNIT ( #241 ) );
#54 = UNCERTAINTY_MEASURE_WITH_UNIT (LENGTH_MEASURE( 1.000000000000000082E-05 ), #230, 'distance_accuracy_value', 'NONE');
#55 = VERTEX_POINT ( 'NONE', #111 ) ;
#56 = VERTEX_POINT ( 'NONE', #71 ) ;
#57 = APPLICATION_PROTOCOL_DEFINITION ( 'draft international standard', 'automotive_design', 1998, #163 ) ;
#58 = VECTOR ( 'NONE', #290, 39.37007874015748143 ) ;
#59 = ORIENTED_EDGE ( 'NONE', *, *, #201, .F. ) ;
#60 = PRODUCT ( 'Micro_DM-187-2120', 'Micro_DM-187-2120', '', ( #63 ) ) ;
#61 = DIRECTION ( 'NONE',  ( 0.0000000000000000000, 0.0000000000000000000, 1.000000000000000000 ) ) ;
#62 = ORIENTED_EDGE ( 'NONE', *, *, #50, .T. ) ;
#63 = PRODUCT_CONTEXT ( 'NONE', #102, 'mechanical' ) ;
#64 = EDGE_CURVE ( 'NONE', #276, #87, #136, .T. ) ;
#65 = ORIENTED_EDGE ( 'NONE', *, *, #177, .T. ) ;
#66 = ORIENTED_EDGE ( 'NONE', *, *, #234, .T. ) ;
#67 = CARTESIAN_POINT ( 'NONE',  ( 0.0000000000000000000, 0.0000000000000000000, 2.000000000000000000 ) ) ;
#68 = DIRECTION ( 'NONE',  ( -1.000000000000000000, 0.0000000000000000000, 0.0000000000000000000 ) ) ;
#69 = DIRECTION ( 'NONE',  ( 1.000000000000000000, 0.0000000000000000000, 0.0000000000000000000 ) ) ;
#70 = VECTOR ( 'NONE', #147, 39.37007874015748143 ) ;
#71 = CARTESIAN_POINT ( 'NONE',  ( -0.07874999999999980627, 0.0000000000000000000, 2.000000000000000000 ) ) ;
#72 = MECHANICAL_DESIGN_GEOMETRIC_PRESENTATION_REPRESENTATION (  '', ( #315 ), #227 ) ;
#73 =( NAMED_UNIT ( * ) SI_UNIT ( $, .STERADIAN. ) SOLID_ANGLE_UNIT ( ) );
#74 = DIRECTION ( 'NONE',  ( -0.8660254037844400399, 1.060575238724908640E-16, 0.4999999999999976685 ) ) ;
#75 = AXIS2_PLACEMENT_3D ( 'NONE', #238, #20, #113 ) ;
#76 = CARTESIAN_POINT ( 'NONE',  ( 0.0000000000000000000, 0.0000000000000000000, 1.707404996040164512E-17 ) ) ;
#77 = EDGE_CURVE ( 'NONE', #179, #264, #3, .T. ) ;
#78 = PLANE ( 'NONE',  #291 ) ;
#79 = CARTESIAN_POINT ( 'NONE',  ( 0.007499999999999999722, 0.0000000000000000000, 1.707404996040164512E-17 ) ) ;
#80 = EDGE_LOOP ( 'NONE', ( #59, #318, #181, #83 ) ) ;
#81 = AXIS2_PLACEMENT_3D ( 'NONE', #289, #185, #68 ) ;
#82 = FACE_OUTER_BOUND ( 'NONE', #80, .T. ) ;
#83 = ORIENTED_EDGE ( 'NONE', *, *, #285, .T. ) ;
#84 = APPLICATION_PROTOCOL_DEFINITION ( 'draft international standard', 'automotive_design', 1998, #102 ) ;
#85 = VERTEX_POINT ( 'NONE', #94 ) ;
#86 = AXIS2_PLACEMENT_3D ( 'NONE', #164, #138, #41 ) ;
#87 = VERTEX_POINT ( 'NONE', #39 ) ;
#88 = PRESENTATION_STYLE_ASSIGNMENT (( #242 ) ) ;
#89 = AXIS2_PLACEMENT_3D ( 'NONE', #327, #170, #298 ) ;
#90 = EDGE_CURVE ( 'NONE', #159, #313, #211, .T. ) ;
#91 = DIRECTION ( 'NONE',  ( -1.000000000000000000, 0.0000000000000000000, 0.0000000000000000000 ) ) ;
#92 =( NAMED_UNIT ( * ) PLANE_ANGLE_UNIT ( ) SI_UNIT ( $, .RADIAN. ) );
#93 = VECTOR ( 'NONE', #273, 39.37007874015748143 ) ;
#94 = CARTESIAN_POINT ( 'NONE',  ( -0.007499999999999999722, 6.196712803685608298E-18, 1.707404996040164512E-17 ) ) ;
#95 = CARTESIAN_POINT ( 'NONE',  ( -0.007499999999999999722, 9.184850993605147975E-19, 1.707404996040164512E-17 ) ) ;
#96 = LINE ( 'NONE', #99, #46 ) ;
#97 = CIRCLE ( 'NONE', #21, 0.09375000000000001388 ) ;
#98 = DIRECTION ( 'NONE',  ( -0.0000000000000000000, -0.0000000000000000000, -1.000000000000000000 ) ) ;
#99 = CARTESIAN_POINT ( 'NONE',  ( 0.09375000000000001388, 1.148106374200643863E-17, 2.000000000000000000 ) ) ;
#100 = MANIFOLD_SOLID_BREP ( 'Cut-Revolve4', #297 ) ;
#101 = DIRECTION ( 'NONE',  ( -0.0000000000000000000, -0.0000000000000000000, -1.000000000000000000 ) ) ;
#102 = APPLICATION_CONTEXT ( 'automotive_design' ) ;
#103 = ORIENTED_EDGE ( 'NONE', *, *, #228, .F. ) ;
#104 = AXIS2_PLACEMENT_3D ( 'NONE', #67, #40, #137 ) ;
#105 = FILL_AREA_STYLE_COLOUR ( '', #271 ) ;
#106 = DIRECTION ( 'NONE',  ( -1.000000000000000000, 0.0000000000000000000, 0.0000000000000000000 ) ) ;
#107 = CARTESIAN_POINT ( 'NONE',  ( -0.09370000000000003326, 1.147494050801070064E-17, 0.04976759320414544940 ) ) ;
#108 = ADVANCED_FACE ( 'NONE', ( #288 ), #214, .T. ) ;
#109 = AXIS2_PLACEMENT_3D ( 'NONE', #171, #299, #295 ) ;
#110 = ORIENTED_EDGE ( 'NONE', *, *, #183, .F. ) ;
#111 = CARTESIAN_POINT ( 'NONE',  ( -0.09375000000000001388, 0.0000000000000000000, 0.6250000000000000000 ) ) ;
#112 = EDGE_CURVE ( 'NONE', #329, #85, #114, .T. ) ;
#113 = DIRECTION ( 'NONE',  ( -1.000000000000000000, 0.0000000000000000000, 0.0000000000000000000 ) ) ;
#114 = CIRCLE ( 'NONE', #219, 0.007499999999999999722 ) ;
#115 =( CONVERSION_BASED_UNIT ( 'INCH', #162 ) LENGTH_UNIT ( ) NAMED_UNIT ( #168 ) );
#116 = CIRCLE ( 'NONE', #75, 0.007499999999999999722 ) ;
#117 = DIRECTION ( 'NONE',  ( 0.0000000000000000000, 0.0000000000000000000, -1.000000000000000000 ) ) ;
#118 = DIRECTION ( 'NONE',  ( 0.0000000000000000000, 0.0000000000000000000, 1.000000000000000000 ) ) ;
#119 = EDGE_CURVE ( 'NONE', #85, #329, #116, .T. ) ;
#120 = FACE_OUTER_BOUND ( 'NONE', #287, .T. ) ;
#121 = AXIS2_PLACEMENT_3D ( 'NONE', #191, #149, #49 ) ;
#122 = CARTESIAN_POINT ( 'NONE',  ( 0.07874999999999980627, 9.644093543285380530E-18, 2.000000000000000000 ) ) ;
#123 = AXIS2_PLACEMENT_3D ( 'NONE', #209, #156, #208 ) ;
#124 = CARTESIAN_POINT ( 'NONE',  ( 0.09375000000000001388, 1.148106374200643863E-17, 1.984999999999999654 ) ) ;
#125 = ORIENTED_EDGE ( 'NONE', *, *, #216, .T. ) ;
#126 = EDGE_CURVE ( 'NONE', #56, #179, #292, .T. ) ;
#127 = ORIENTED_EDGE ( 'NONE', *, *, #201, .T. ) ;
#128 =( NAMED_UNIT ( * ) PLANE_ANGLE_UNIT ( ) SI_UNIT ( $, .RADIAN. ) );
#129 = EDGE_LOOP ( 'NONE', ( #155, #62 ) ) ;
#130 = ORIENTED_EDGE ( 'NONE', *, *, #216, .F. ) ;
#131 = DIRECTION ( 'NONE',  ( 1.000000000000000000, 0.0000000000000000000, 0.0000000000000000000 ) ) ;
#132 = CYLINDRICAL_SURFACE ( 'NONE', #123, 0.09370000000000004714 ) ;
#133 = AXIS2_PLACEMENT_3D ( 'NONE', #173, #198, #222 ) ;
#134 = CARTESIAN_POINT ( 'NONE',  ( 0.0000000000000000000, 0.0000000000000000000, 2.000000000000000000 ) ) ;
#135 = AXIS2_PLACEMENT_3D ( 'NONE', #76, #316, #257 ) ;
#136 = LINE ( 'NONE', #42, #32 ) ;
#137 = DIRECTION ( 'NONE',  ( 1.000000000000000000, 0.0000000000000000000, -0.0000000000000000000 ) ) ;
#138 = DIRECTION ( 'NONE',  ( -0.0000000000000000000, -0.0000000000000000000, -1.000000000000000000 ) ) ;
#139 = AXIS2_PLACEMENT_3D ( 'NONE', #266, #307, #165 ) ;
#140 = CARTESIAN_POINT ( 'NONE',  ( -0.09370000000000004714, 0.0000000000000000000, 0.0000000000000000000 ) ) ;
#141 = ADVANCED_FACE ( 'NONE', ( #190 ), #169, .T. ) ;
#142 = DIRECTION ( 'NONE',  ( -0.0000000000000000000, -0.0000000000000000000, -1.000000000000000000 ) ) ;
#143 = CARTESIAN_POINT ( 'NONE',  ( 0.0000000000000000000, 0.0000000000000000000, 2.000000000000000000 ) ) ;
#144 = AXIS2_PLACEMENT_3D ( 'NONE', #26, #221, #1 ) ;
#145 = CYLINDRICAL_SURFACE ( 'NONE', #109, 0.09370000000000004714 ) ;
#146 = CARTESIAN_POINT ( 'NONE',  ( 0.07874999999999980627, 1.056257864264590573E-17, 2.000000000000000000 ) ) ;
#147 = DIRECTION ( 'NONE',  ( -0.0000000000000000000, -0.0000000000000000000, -1.000000000000000000 ) ) ;
#148 = AXIS2_PLACEMENT_3D ( 'NONE', #237, #320, #69 ) ;
#149 = DIRECTION ( 'NONE',  ( -0.0000000000000000000, -0.0000000000000000000, -1.000000000000000000 ) ) ;
#150 = ORIENTED_EDGE ( 'NONE', *, *, #77, .F. ) ;
#151 = EDGE_LOOP ( 'NONE', ( #66, #65 ) ) ;
#152 = SURFACE_STYLE_FILL_AREA ( #255 ) ;
#153 = CIRCLE ( 'NONE', #86, 0.09370000000000008877 ) ;
#154 = PRESENTATION_LAYER_ASSIGNMENT (  '', '', ( #315 ) ) ;
#155 = ORIENTED_EDGE ( 'NONE', *, *, #18, .T. ) ;
#156 = DIRECTION ( 'NONE',  ( -0.0000000000000000000, -0.0000000000000000000, -1.000000000000000000 ) ) ;
#157 = ORIENTED_EDGE ( 'NONE', *, *, #126, .F. ) ;
#158 = SHAPE_DEFINITION_REPRESENTATION ( #203, #37 ) ;
#159 = VERTEX_POINT ( 'NONE', #324 ) ;
#160 = CONICAL_SURFACE ( 'NONE', #144, 0.007499999999999999722, 1.047197551196600518 ) ;
#161 = EDGE_CURVE ( 'NONE', #159, #276, #153, .T. ) ;
#162 = LENGTH_MEASURE_WITH_UNIT ( LENGTH_MEASURE( 0.02539999999999999897 ), #294 );
#163 = APPLICATION_CONTEXT ( 'automotive_design' ) ;
#164 = CARTESIAN_POINT ( 'NONE',  ( 0.0000000000000000000, 0.0000000000000000000, 0.6250000000000000000 ) ) ;
#165 = DIRECTION ( 'NONE',  ( 1.000000000000000000, 0.0000000000000000000, 0.0000000000000000000 ) ) ;
#166 = CONICAL_SURFACE ( 'NONE', #302, 0.07874999999999980627, 0.7853981633974466137 ) ;
#167 = ADVANCED_FACE ( 'NONE', ( #240 ), #166, .T. ) ;
#168 = DIMENSIONAL_EXPONENTS ( 1.000000000000000000, 0.0000000000000000000, 0.0000000000000000000, 0.0000000000000000000, 0.0000000000000000000, 0.0000000000000000000, 0.0000000000000000000 ) ;
#169 = CYLINDRICAL_SURFACE ( 'NONE', #81, 0.09375000000000001388 ) ;
#170 = DIRECTION ( 'NONE',  ( -0.0000000000000000000, 0.0000000000000000000, -1.000000000000000000 ) ) ;
#171 = CARTESIAN_POINT ( 'NONE',  ( 0.0000000000000000000, 0.0000000000000000000, 0.0000000000000000000 ) ) ;
#172 = DIRECTION ( 'NONE',  ( 0.0000000000000000000, 0.0000000000000000000, -1.000000000000000000 ) ) ;
#173 = CARTESIAN_POINT ( 'NONE',  ( 0.0000000000000000000, 0.0000000000000000000, 0.04976759320414544940 ) ) ;
#174 = AXIS2_PLACEMENT_3D ( 'NONE', #134, #14, #106 ) ;
#175 = FACE_OUTER_BOUND ( 'NONE', #196, .T. ) ;
#176 = ORIENTED_EDGE ( 'NONE', *, *, #18, .F. ) ;
#177 = EDGE_CURVE ( 'NONE', #261, #55, #184, .T. ) ;
#178 = LENGTH_MEASURE_WITH_UNIT ( LENGTH_MEASURE( 0.02539999999999999897 ), #308 );
#179 = VERTEX_POINT ( 'NONE', #272 ) ;
#180 = COLOUR_RGB ( '',0.7921568627450980005, 0.8196078431372548767, 0.9333333333333333481 ) ;
#181 = ORIENTED_EDGE ( 'NONE', *, *, #263, .T. ) ;
#182 = ORIENTED_EDGE ( 'NONE', *, *, #285, .F. ) ;
#183 = EDGE_CURVE ( 'NONE', #276, #159, #274, .T. ) ;
#184 = CIRCLE ( 'NONE', #268, 0.09375000000000001388 ) ;
#185 = DIRECTION ( 'NONE',  ( -0.0000000000000000000, -0.0000000000000000000, -1.000000000000000000 ) ) ;
#186 = ADVANCED_FACE ( 'NONE', ( #120 ), #16, .T. ) ;
#187 = CARTESIAN_POINT ( 'NONE',  ( 0.0000000000000000000, 0.0000000000000000000, 0.6250000000000000000 ) ) ;
#188 = CARTESIAN_POINT ( 'NONE',  ( 0.0000000000000000000, 0.0000000000000000000, 1.707404996040164512E-17 ) ) ;
#189 = PRESENTATION_LAYER_ASSIGNMENT (  '', '', ( #312 ) ) ;
#190 = FACE_OUTER_BOUND ( 'NONE', #38, .T. ) ;
#191 = CARTESIAN_POINT ( 'NONE',  ( 0.0000000000000000000, 0.0000000000000000000, 0.6250000000000000000 ) ) ;
#192 = DIRECTION ( 'NONE',  ( -0.0000000000000000000, -0.0000000000000000000, -1.000000000000000000 ) ) ;
#193 = AXIS2_PLACEMENT_3D ( 'NONE', #17, #311, #200 ) ;
#194 = EDGE_LOOP ( 'NONE', ( #254, #110 ) ) ;
#195 = FACE_OUTER_BOUND ( 'NONE', #151, .T. ) ;
#196 = EDGE_LOOP ( 'NONE', ( #29, #309, #225, #182 ) ) ;
#197 = CARTESIAN_POINT ( 'NONE',  ( 0.0000000000000000000, 0.0000000000000000000, 0.04976759320414544940 ) ) ;
#198 = DIRECTION ( 'NONE',  ( -0.0000000000000000000, -0.0000000000000000000, -1.000000000000000000 ) ) ;
#199 =( GEOMETRIC_REPRESENTATION_CONTEXT ( 3 ) GLOBAL_UNCERTAINTY_ASSIGNED_CONTEXT ( ( #280 ) ) GLOBAL_UNIT_ASSIGNED_CONTEXT ( ( #115, #92, #73 ) ) REPRESENTATION_CONTEXT ( 'NONE', 'WORKASPACE' ) );
#200 = DIRECTION ( 'NONE',  ( 1.000000000000000000, 0.0000000000000000000, 0.0000000000000000000 ) ) ;
#201 = EDGE_CURVE ( 'NONE', #85, #313, #27, .T. ) ;
#202 = ORIENTED_EDGE ( 'NONE', *, *, #234, .F. ) ;
#203 = PRODUCT_DEFINITION_SHAPE ( 'NONE', 'NONE',  #44 ) ;
#204 = VERTEX_POINT ( 'NONE', #146 ) ;
#205 = ORIENTED_EDGE ( 'NONE', *, *, #228, .T. ) ;
#206 = CIRCLE ( 'NONE', #139, 0.07874999999999980627 ) ;
#207 = PRODUCT_RELATED_PRODUCT_CATEGORY ( 'part', '', ( #60 ) ) ;
#208 = DIRECTION ( 'NONE',  ( -1.000000000000000000, 0.0000000000000000000, 0.0000000000000000000 ) ) ;
#209 = CARTESIAN_POINT ( 'NONE',  ( 0.0000000000000000000, 0.0000000000000000000, 0.0000000000000000000 ) ) ;
#210 = CYLINDRICAL_SURFACE ( 'NONE', #174, 0.09375000000000001388 ) ;
#211 = LINE ( 'NONE', #140, #58 ) ;
#212 = DIRECTION ( 'NONE',  ( -0.7071067811865463515, 0.0000000000000000000, -0.7071067811865486830 ) ) ;
#213 = SURFACE_SIDE_STYLE ('',( #19 ) ) ;
#214 = PLANE ( 'NONE',  #104 ) ;
#215 = AXIS2_PLACEMENT_3D ( 'NONE', #284, #61, #131 ) ;
#216 = EDGE_CURVE ( 'NONE', #204, #264, #52, .T. ) ;
#217 = DIRECTION ( 'NONE',  ( 1.000000000000000000, 0.0000000000000000000, -0.0000000000000000000 ) ) ;
#218 = DIRECTION ( 'NONE',  ( -0.0000000000000000000, -0.0000000000000000000, -1.000000000000000000 ) ) ;
#219 = AXIS2_PLACEMENT_3D ( 'NONE', #188, #322, #43 ) ;
#220 = ADVANCED_FACE ( 'NONE', ( #248 ), #145, .T. ) ;
#221 = DIRECTION ( 'NONE',  ( 0.0000000000000000000, 0.0000000000000000000, 1.000000000000000000 ) ) ;
#222 = DIRECTION ( 'NONE',  ( -1.000000000000000000, 0.0000000000000000000, 0.0000000000000000000 ) ) ;
#223 = EDGE_LOOP ( 'NONE', ( #130, #176, #286, #35 ) ) ;
#224 = EDGE_CURVE ( 'NONE', #264, #179, #239, .T. ) ;
#225 = ORIENTED_EDGE ( 'NONE', *, *, #90, .T. ) ;
#226 = PRESENTATION_STYLE_ASSIGNMENT (( #260 ) ) ;
#227 =( GEOMETRIC_REPRESENTATION_CONTEXT ( 3 ) GLOBAL_UNCERTAINTY_ASSIGNED_CONTEXT ( ( #54 ) ) GLOBAL_UNIT_ASSIGNED_CONTEXT ( ( #230, #314, #9 ) ) REPRESENTATION_CONTEXT ( 'NONE', 'WORKASPACE' ) );
#228 = EDGE_CURVE ( 'NONE', #179, #55, #23, .T. ) ;
#229 = ORIENTED_EDGE ( 'NONE', *, *, #77, .T. ) ;
#230 =( CONVERSION_BASED_UNIT ( 'INCH', #13 ) LENGTH_UNIT ( ) NAMED_UNIT ( #326 ) );
#231 = FACE_OUTER_BOUND ( 'NONE', #36, .T. ) ;
#232 = EDGE_LOOP ( 'NONE', ( #12, #300 ) ) ;
#233 =( NAMED_UNIT ( * ) SI_UNIT ( $, .STERADIAN. ) SOLID_ANGLE_UNIT ( ) );
#234 = EDGE_CURVE ( 'NONE', #55, #261, #97, .T. ) ;
#235 = ORIENTED_EDGE ( 'NONE', *, *, #50, .F. ) ;
#236 = CONICAL_SURFACE ( 'NONE', #135, 0.007499999999999999722, 1.047197551196600518 ) ;
#237 = CARTESIAN_POINT ( 'NONE',  ( 0.0000000000000000000, 0.0000000000000000000, 1.984999999999999654 ) ) ;
#238 = CARTESIAN_POINT ( 'NONE',  ( 0.0000000000000000000, 0.0000000000000000000, 1.707404996040164512E-17 ) ) ;
#239 = CIRCLE ( 'NONE', #319, 0.09375000000000001388 ) ;
#240 = FACE_OUTER_BOUND ( 'NONE', #223, .T. ) ;
#241 = DIMENSIONAL_EXPONENTS ( 1.000000000000000000, 0.0000000000000000000, 0.0000000000000000000, 0.0000000000000000000, 0.0000000000000000000, 0.0000000000000000000, 0.0000000000000000000 ) ;
#242 = SURFACE_STYLE_USAGE ( .BOTH. , #213 ) ;
#243 = FILL_AREA_STYLE_COLOUR ( '', #180 ) ;
#244 = PLANE ( 'NONE',  #89 ) ;
#245 = CIRCLE ( 'NONE', #193, 0.07874999999999980627 ) ;
#246 = ORIENTED_EDGE ( 'NONE', *, *, #161, .T. ) ;
#247 = FACE_OUTER_BOUND ( 'NONE', #232, .T. ) ;
#248 = FACE_OUTER_BOUND ( 'NONE', #282, .T. ) ;
#249 = ADVANCED_FACE ( 'NONE', ( #278, #195 ), #244, .T. ) ;
#250 = FACE_OUTER_BOUND ( 'NONE', #256, .T. ) ;
#251 = AXIS2_PLACEMENT_3D ( 'NONE', #197, #101, #47 ) ;
#252 =( GEOMETRIC_REPRESENTATION_CONTEXT ( 3 ) GLOBAL_UNCERTAINTY_ASSIGNED_CONTEXT ( ( #28 ) ) GLOBAL_UNIT_ASSIGNED_CONTEXT ( ( #53, #128, #233 ) ) REPRESENTATION_CONTEXT ( 'NONE', 'WORKASPACE' ) );
#253 = DIRECTION ( 'NONE',  ( -1.000000000000000000, 0.0000000000000000000, 0.0000000000000000000 ) ) ;
#254 = ORIENTED_EDGE ( 'NONE', *, *, #161, .F. ) ;
#255 = FILL_AREA_STYLE ('',( #105 ) ) ;
#256 = EDGE_LOOP ( 'NONE', ( #2, #127, #259, #305 ) ) ;
#257 = DIRECTION ( 'NONE',  ( 1.000000000000000000, 0.0000000000000000000, 0.0000000000000000000 ) ) ;
#258 = VECTOR ( 'NONE', #212, 39.37007874015748143 ) ;
#259 = ORIENTED_EDGE ( 'NONE', *, *, #267, .T. ) ;
#260 = SURFACE_STYLE_USAGE ( .BOTH. , #30 ) ;
#261 = VERTEX_POINT ( 'NONE', #301 ) ;
#262 = CARTESIAN_POINT ( 'NONE',  ( 0.007499999999999999722, 0.0000000000000000000, 1.707404996040164512E-17 ) ) ;
#263 = EDGE_CURVE ( 'NONE', #329, #87, #296, .T. ) ;
#264 = VERTEX_POINT ( 'NONE', #124 ) ;
#265 = MECHANICAL_DESIGN_GEOMETRIC_PRESENTATION_REPRESENTATION (  '', ( #312 ), #199 ) ;
#266 = CARTESIAN_POINT ( 'NONE',  ( 0.0000000000000000000, 0.0000000000000000000, 2.000000000000000000 ) ) ;
#267 = EDGE_CURVE ( 'NONE', #313, #87, #323, .T. ) ;
#268 = AXIS2_PLACEMENT_3D ( 'NONE', #187, #218, #45 ) ;
#269 = CARTESIAN_POINT ( 'NONE',  ( -0.07874999999999980627, 0.0000000000000000000, 2.000000000000000000 ) ) ;
#270 = ADVANCED_FACE ( 'NONE', ( #247 ), #78, .F. ) ;
#271 = COLOUR_RGB ( '',0.7921568627450980005, 0.8196078431372548767, 0.9333333333333333481 ) ;
#272 = CARTESIAN_POINT ( 'NONE',  ( -0.09375000000000001388, 0.0000000000000000000, 1.984999999999999654 ) ) ;
#273 = DIRECTION ( 'NONE',  ( 0.7071067811865463515, 8.659560562354916834E-17, -0.7071067811865486830 ) ) ;
#274 = CIRCLE ( 'NONE', #121, 0.09370000000000008877 ) ;
#275 = DIRECTION ( 'NONE',  ( 0.8660254037844400399, 0.0000000000000000000, 0.4999999999999976685 ) ) ;
#276 = VERTEX_POINT ( 'NONE', #48 ) ;
#277 = DIRECTION ( 'NONE',  ( 1.000000000000000000, 0.0000000000000000000, 0.0000000000000000000 ) ) ;
#278 = FACE_BOUND ( 'NONE', #194, .T. ) ;
#279 = CIRCLE ( 'NONE', #133, 0.09370000000000001938 ) ;
#280 = UNCERTAINTY_MEASURE_WITH_UNIT (LENGTH_MEASURE( 1.000000000000000082E-05 ), #115, 'distance_accuracy_value', 'NONE');
#281 = ORIENTED_EDGE ( 'NONE', *, *, #267, .F. ) ;
#282 = EDGE_LOOP ( 'NONE', ( #246, #15, #281, #8 ) ) ;
#283 = VECTOR ( 'NONE', #275, 39.37007874015748143 ) ;
#284 = CARTESIAN_POINT ( 'NONE',  ( 0.0000000000000000000, 0.0000000000000000000, 0.0000000000000000000 ) ) ;
#285 = EDGE_CURVE ( 'NONE', #87, #313, #279, .T. ) ;
#286 = ORIENTED_EDGE ( 'NONE', *, *, #126, .T. ) ;
#287 = EDGE_LOOP ( 'NONE', ( #235, #125, #150, #157 ) ) ;
#288 = FACE_OUTER_BOUND ( 'NONE', #129, .T. ) ;
#289 = CARTESIAN_POINT ( 'NONE',  ( 0.0000000000000000000, 0.0000000000000000000, 2.000000000000000000 ) ) ;
#290 = DIRECTION ( 'NONE',  ( -0.0000000000000000000, -0.0000000000000000000, -1.000000000000000000 ) ) ;
#291 = AXIS2_PLACEMENT_3D ( 'NONE', #24, #118, #217 ) ;
#292 = LINE ( 'NONE', #269, #258 ) ;
#293 = ADVANCED_FACE ( 'NONE', ( #250 ), #160, .T. ) ;
#294 =( LENGTH_UNIT ( ) NAMED_UNIT ( * ) SI_UNIT ( $, .METRE. ) );
#295 = DIRECTION ( 'NONE',  ( -1.000000000000000000, 0.0000000000000000000, 0.0000000000000000000 ) ) ;
#296 = LINE ( 'NONE', #79, #283 ) ;
#297 = CLOSED_SHELL ( 'NONE', ( #220, #293, #186, #6, #141, #108, #167, #249, #310, #328, #270 ) ) ;
#298 = DIRECTION ( 'NONE',  ( -1.000000000000000000, 0.0000000000000000000, 0.0000000000000000000 ) ) ;
#299 = DIRECTION ( 'NONE',  ( -0.0000000000000000000, -0.0000000000000000000, -1.000000000000000000 ) ) ;
#300 = ORIENTED_EDGE ( 'NONE', *, *, #119, .T. ) ;
#301 = CARTESIAN_POINT ( 'NONE',  ( 0.09375000000000001388, 1.148106374200643863E-17, 0.6250000000000000000 ) ) ;
#302 = AXIS2_PLACEMENT_3D ( 'NONE', #22, #321, #91 ) ;
#303 = EDGE_CURVE ( 'NONE', #264, #261, #96, .T. ) ;
#304 = PRODUCT_DEFINITION_CONTEXT ( 'detailed design', #163, 'design' ) ;
#305 = ORIENTED_EDGE ( 'NONE', *, *, #263, .F. ) ;
#306 =( LENGTH_UNIT ( ) NAMED_UNIT ( * ) SI_UNIT ( $, .METRE. ) );
#307 = DIRECTION ( 'NONE',  ( 0.0000000000000000000, 0.0000000000000000000, 1.000000000000000000 ) ) ;
#308 =( LENGTH_UNIT ( ) NAMED_UNIT ( * ) SI_UNIT ( $, .METRE. ) );
#309 = ORIENTED_EDGE ( 'NONE', *, *, #183, .T. ) ;
#310 = ADVANCED_FACE ( 'NONE', ( #82 ), #236, .T. ) ;
#311 = DIRECTION ( 'NONE',  ( 0.0000000000000000000, 0.0000000000000000000, 1.000000000000000000 ) ) ;
#312 = STYLED_ITEM ( 'NONE', ( #88 ), #100 ) ;
#313 = VERTEX_POINT ( 'NONE', #107 ) ;
#314 =( NAMED_UNIT ( * ) PLANE_ANGLE_UNIT ( ) SI_UNIT ( $, .RADIAN. ) );
#315 = STYLED_ITEM ( 'NONE', ( #226 ), #37 ) ;
#316 = DIRECTION ( 'NONE',  ( 0.0000000000000000000, 0.0000000000000000000, 1.000000000000000000 ) ) ;
#317 = FILL_AREA_STYLE ('',( #243 ) ) ;
#318 = ORIENTED_EDGE ( 'NONE', *, *, #112, .F. ) ;
#319 = AXIS2_PLACEMENT_3D ( 'NONE', #7, #117, #277 ) ;
#320 = DIRECTION ( 'NONE',  ( 0.0000000000000000000, 0.0000000000000000000, -1.000000000000000000 ) ) ;
#321 = DIRECTION ( 'NONE',  ( 0.0000000000000000000, 0.0000000000000000000, -1.000000000000000000 ) ) ;
#322 = DIRECTION ( 'NONE',  ( -0.0000000000000000000, -0.0000000000000000000, -1.000000000000000000 ) ) ;
#323 = CIRCLE ( 'NONE', #251, 0.09370000000000001938 ) ;
#324 = CARTESIAN_POINT ( 'NONE',  ( -0.09370000000000008877, 0.0000000000000000000, 0.6250000000000000000 ) ) ;
#325 = PRODUCT_DEFINITION_FORMATION_WITH_SPECIFIED_SOURCE ( 'ANY', '', #60, .NOT_KNOWN. ) ;
#326 = DIMENSIONAL_EXPONENTS ( 1.000000000000000000, 0.0000000000000000000, 0.0000000000000000000, 0.0000000000000000000, 0.0000000000000000000, 0.0000000000000000000, 0.0000000000000000000 ) ;
#327 = CARTESIAN_POINT ( 'NONE',  ( 0.09370000000000008877, 0.0000000000000000000, 0.6250000000000000000 ) ) ;
#328 = ADVANCED_FACE ( 'NONE', ( #175 ), #132, .T. ) ;
#329 = VERTEX_POINT ( 'NONE', #262 ) ;
ENDSEC;
END-ISO-10303-21;
