ISO-10303-21;
HEADER;
FILE_DESCRIPTION (( 'STEP AP214' ),
    '1' );
FILE_NAME ('81416.STEP',
    '2023-06-23T01:34:35',
    ( '' ),
    ( '' ),
    'SwSTEP 2.0',
    'SolidWorks 2023',
    '' );
FILE_SCHEMA (( 'AUTOMOTIVE_DESIGN' ));
ENDSEC;

DATA;
#1 = SURFACE_STYLE_USAGE ( .BOTH. , #72 ) ;
#2 = CIRCLE ( 'NONE', #264, 0.2500000000000000000 ) ;
#3 =( LENGTH_UNIT ( ) NAMED_UNIT ( * ) SI_UNIT ( $, .METRE. ) );
#4 = EDGE_CURVE ( 'NONE', #232, #244, #230, .T. ) ;
#5 = AXIS2_PLACEMENT_3D ( 'NONE', #24, #118, #144 ) ;
#6 =( GEOMETRIC_REPRESENTATION_CONTEXT ( 3 ) GLOBAL_UNCERTAINTY_ASSIGNED_CONTEXT ( ( #198 ) ) GLOBAL_UNIT_ASSIGNED_CONTEXT ( ( #288, #25, #261 ) ) REPRESENTATION_CONTEXT ( 'NONE', 'WORKASPACE' ) );
#7 = ORIENTED_EDGE ( 'NONE', *, *, #4, .T. ) ;
#8 = DIRECTION ( 'NONE',  ( 1.000000000000000000, 0.000000000000000000, 0.000000000000000000 ) ) ;
#9 = VERTEX_POINT ( 'NONE', #267 ) ;
#10 = SURFACE_STYLE_USAGE ( .BOTH. , #202 ) ;
#11 = ADVANCED_FACE ( 'NONE', ( #56 ), #284, .F. ) ;
#12 = PRESENTATION_LAYER_ASSIGNMENT (  '', '', ( #298 ) ) ;
#13 = COLOUR_RGB ( '',1.000000000000000000, 0.000000000000000000, 0.000000000000000000 ) ;
#14 = CARTESIAN_POINT ( 'NONE',  ( 0.000000000000000000, 0.000000000000000000, 0.000000000000000000 ) ) ;
#15 = EDGE_CURVE ( 'NONE', #163, #9, #201, .T. ) ;
#16 = CARTESIAN_POINT ( 'NONE',  ( 0.000000000000000000, 0.000000000000000000, 0.000000000000000000 ) ) ;
#17 = CARTESIAN_POINT ( 'NONE',  ( 3.061616997868383018E-17, 0.000000000000000000, 0.2500000000000000000 ) ) ;
#18 = ORIENTED_EDGE ( 'NONE', *, *, #92, .F. ) ;
#19 =( GEOMETRIC_REPRESENTATION_CONTEXT ( 3 ) GLOBAL_UNCERTAINTY_ASSIGNED_CONTEXT ( ( #151 ) ) GLOBAL_UNIT_ASSIGNED_CONTEXT ( ( #162, #250, #279 ) ) REPRESENTATION_CONTEXT ( 'NONE', 'WORKASPACE' ) );
#20 =( GEOMETRIC_REPRESENTATION_CONTEXT ( 3 ) GLOBAL_UNCERTAINTY_ASSIGNED_CONTEXT ( ( #75 ) ) GLOBAL_UNIT_ASSIGNED_CONTEXT ( ( #82, #292, #223 ) ) REPRESENTATION_CONTEXT ( 'NONE', 'WORKASPACE' ) );
#21 = DIRECTION ( 'NONE',  ( -0.000000000000000000, -1.000000000000000000, -0.000000000000000000 ) ) ;
#22 = ORIENTED_EDGE ( 'NONE', *, *, #47, .T. ) ;
#23 = ADVANCED_FACE ( 'NONE', ( #44 ), #307, .T. ) ;
#24 = CARTESIAN_POINT ( 'NONE',  ( 0.000000000000000000, 2.500000000000000000, 0.000000000000000000 ) ) ;
#25 =( NAMED_UNIT ( * ) PLANE_ANGLE_UNIT ( ) SI_UNIT ( $, .RADIAN. ) );
#26 = PRESENTATION_STYLE_ASSIGNMENT (( #1 ) ) ;
#27 = MECHANICAL_DESIGN_GEOMETRIC_PRESENTATION_REPRESENTATION (  '', ( #211 ), #20 ) ;
#28 = DIRECTION ( 'NONE',  ( 0.000000000000000000, 1.000000000000000000, 0.000000000000000000 ) ) ;
#29 = DIRECTION ( 'NONE',  ( -1.000000000000000000, 0.000000000000000000, 0.000000000000000000 ) ) ;
#30 =( GEOMETRIC_REPRESENTATION_CONTEXT ( 3 ) GLOBAL_UNCERTAINTY_ASSIGNED_CONTEXT ( ( #86 ) ) GLOBAL_UNIT_ASSIGNED_CONTEXT ( ( #257, #213, #143 ) ) REPRESENTATION_CONTEXT ( 'NONE', 'WORKASPACE' ) );
#31 = UNCERTAINTY_MEASURE_WITH_UNIT (LENGTH_MEASURE( 1.000000000000000082E-05 ), #149, 'distance_accuracy_value', 'NONE');
#32 = ORIENTED_EDGE ( 'NONE', *, *, #300, .T. ) ;
#33 = PRESENTATION_LAYER_ASSIGNMENT (  '', '', ( #306 ) ) ;
#34 = EDGE_CURVE ( 'NONE', #232, #295, #226, .T. ) ;
#35 = DIRECTION ( 'NONE',  ( -0.000000000000000000, -1.000000000000000000, -0.000000000000000000 ) ) ;
#36 = ORIENTED_EDGE ( 'NONE', *, *, #146, .T. ) ;
#37 = FILL_AREA_STYLE ('',( #76 ) ) ;
#38 = CARTESIAN_POINT ( 'NONE',  ( 0.000000000000000000, 0.000000000000000000, 0.000000000000000000 ) ) ;
#39 = AXIS2_PLACEMENT_3D ( 'NONE', #256, #305, #29 ) ;
#40 = DIMENSIONAL_EXPONENTS ( 1.000000000000000000, 0.000000000000000000, 0.000000000000000000, 0.000000000000000000, 0.000000000000000000, 0.000000000000000000, 0.000000000000000000 ) ;
#41 =( NAMED_UNIT ( * ) SI_UNIT ( $, .STERADIAN. ) SOLID_ANGLE_UNIT ( ) );
#42 = CARTESIAN_POINT ( 'NONE',  ( 0.2500000000000000000, 5.000000000000000000, 3.061616997868385483E-17 ) ) ;
#43 = ORIENTED_EDGE ( 'NONE', *, *, #15, .T. ) ;
#44 = FACE_OUTER_BOUND ( 'NONE', #90, .T. ) ;
#45 = SURFACE_STYLE_FILL_AREA ( #215 ) ;
#46 = PLANE ( 'NONE',  #190 ) ;
#47 = EDGE_CURVE ( 'NONE', #295, #129, #188, .T. ) ;
#48 = MECHANICAL_DESIGN_GEOMETRIC_PRESENTATION_REPRESENTATION (  '', ( #298 ), #30 ) ;
#49 = CARTESIAN_POINT ( 'NONE',  ( -0.2500000000000004996, 5.000000000000000000, 0.000000000000000000 ) ) ;
#50 = SURFACE_STYLE_FILL_AREA ( #238 ) ;
#51 =( LENGTH_UNIT ( ) NAMED_UNIT ( * ) SI_UNIT ( $, .METRE. ) );
#52 = MECHANICAL_DESIGN_GEOMETRIC_PRESENTATION_REPRESENTATION (  '', ( #208 ), #19 ) ;
#53 = ORIENTED_EDGE ( 'NONE', *, *, #34, .T. ) ;
#54 = LENGTH_MEASURE_WITH_UNIT ( LENGTH_MEASURE( 0.02539999999999999897 ), #51 );
#55 = ADVANCED_FACE ( 'NONE', ( #309 ), #46, .F. ) ;
#56 = FACE_OUTER_BOUND ( 'NONE', #127, .T. ) ;
#57 = CYLINDRICAL_SURFACE ( 'NONE', #271, 0.2500000000000001110 ) ;
#58 = ORIENTED_EDGE ( 'NONE', *, *, #15, .F. ) ;
#59 = FILL_AREA_STYLE ('',( #248 ) ) ;
#60 = LENGTH_MEASURE_WITH_UNIT ( LENGTH_MEASURE( 0.02539999999999999897 ), #113 );
#61 = CARTESIAN_POINT ( 'NONE',  ( 0.000000000000000000, 0.000000000000000000, -0.2500000000000000000 ) ) ;
#62 = PRESENTATION_STYLE_ASSIGNMENT (( #278 ) ) ;
#63 = DIRECTION ( 'NONE',  ( 0.000000000000000000, -1.000000000000000000, -0.000000000000000000 ) ) ;
#64 = PLANE ( 'NONE',  #293 ) ;
#65 = VECTOR ( 'NONE', #168, 39.37007874015748143 ) ;
#66 = COLOUR_RGB ( '',0.7921568627450980005, 0.8196078431372548767, 0.9333333333333333481 ) ;
#67 = CARTESIAN_POINT ( 'NONE',  ( -2.449293598294705921E-16, 5.000000000000000000, 0.000000000000000000 ) ) ;
#68 = LENGTH_MEASURE_WITH_UNIT ( LENGTH_MEASURE( 0.02539999999999999897 ), #99 );
#69 = DIRECTION ( 'NONE',  ( -9.797174393178823685E-17, 1.000000000000000000, -0.000000000000000000 ) ) ;
#70 = ADVANCED_FACE ( 'NONE', ( #280 ), #64, .T. ) ;
#71 = CARTESIAN_POINT ( 'NONE',  ( 0.2499999999999998890, 5.000000000000000000, 3.061616997868384251E-17 ) ) ;
#72 = SURFACE_SIDE_STYLE ('',( #45 ) ) ;
#73 = CARTESIAN_POINT ( 'NONE',  ( 1.199807826129485607E-33, 2.500000000000000000, 0.000000000000000000 ) ) ;
#74 = LENGTH_MEASURE_WITH_UNIT ( LENGTH_MEASURE( 0.02539999999999999897 ), #221 );
#75 = UNCERTAINTY_MEASURE_WITH_UNIT (LENGTH_MEASURE( 1.000000000000000082E-05 ), #82, 'distance_accuracy_value', 'NONE');
#76 = FILL_AREA_STYLE_COLOUR ( '', #217 ) ;
#77 = AXIS2_PLACEMENT_3D ( 'NONE', #193, #258, #94 ) ;
#78 = ORIENTED_EDGE ( 'NONE', *, *, #4, .F. ) ;
#79 = CARTESIAN_POINT ( 'NONE',  ( 0.000000000000000000, 0.000000000000000000, 0.000000000000000000 ) ) ;
#80 = DIMENSIONAL_EXPONENTS ( 1.000000000000000000, 0.000000000000000000, 0.000000000000000000, 0.000000000000000000, 0.000000000000000000, 0.000000000000000000, 0.000000000000000000 ) ;
#81 = DIRECTION ( 'NONE',  ( -9.797174393178823685E-17, 1.000000000000000000, -0.000000000000000000 ) ) ;
#82 =( CONVERSION_BASED_UNIT ( 'INCH', #54 ) LENGTH_UNIT ( ) NAMED_UNIT ( #152 ) );
#83 = DIRECTION ( 'NONE',  ( -9.797174393178823685E-17, 1.000000000000000000, -0.000000000000000000 ) ) ;
#84 = FACE_OUTER_BOUND ( 'NONE', #161, .T. ) ;
#85 = PRODUCT_DEFINITION_SHAPE ( 'NONE', 'NONE',  #87 ) ;
#86 = UNCERTAINTY_MEASURE_WITH_UNIT (LENGTH_MEASURE( 1.000000000000000082E-05 ), #257, 'distance_accuracy_value', 'NONE');
#87 = PRODUCT_DEFINITION ( 'UNKNOWN', '', #203, #126 ) ;
#88 = FILL_AREA_STYLE ('',( #229 ) ) ;
#89 = DIRECTION ( 'NONE',  ( 0.000000000000000000, 0.000000000000000000, -1.000000000000000000 ) ) ;
#90 = EDGE_LOOP ( 'NONE', ( #269, #43, #157, #18 ) ) ;
#91 = AXIS2_PLACEMENT_3D ( 'NONE', #141, #28, #218 ) ;
#92 = EDGE_CURVE ( 'NONE', #150, #138, #2, .T. ) ;
#93 = ORIENTED_EDGE ( 'NONE', *, *, #300, .F. ) ;
#94 = DIRECTION ( 'NONE',  ( -1.000000000000000000, 0.000000000000000000, 0.000000000000000000 ) ) ;
#95 = DIRECTION ( 'NONE',  ( -1.000000000000000000, 0.000000000000000000, 0.000000000000000000 ) ) ;
#96 = PLANE ( 'NONE',  #91 ) ;
#97 = DIRECTION ( 'NONE',  ( -0.000000000000000000, -1.000000000000000000, -0.000000000000000000 ) ) ;
#98 = DIRECTION ( 'NONE',  ( -0.000000000000000000, -1.000000000000000000, -0.000000000000000000 ) ) ;
#99 =( LENGTH_UNIT ( ) NAMED_UNIT ( * ) SI_UNIT ( $, .METRE. ) );
#100 =( LENGTH_UNIT ( ) NAMED_UNIT ( * ) SI_UNIT ( $, .METRE. ) );
#101 = FILL_AREA_STYLE_COLOUR ( '', #13 ) ;
#102 = AXIS2_PLACEMENT_3D ( 'NONE', #121, #197, #291 ) ;
#103 =( NAMED_UNIT ( * ) SI_UNIT ( $, .STERADIAN. ) SOLID_ANGLE_UNIT ( ) );
#104 = VECTOR ( 'NONE', #21, 39.37007874015748143 ) ;
#105 = CIRCLE ( 'NONE', #175, 0.2500000000000000000 ) ;
#106 = ORIENTED_EDGE ( 'NONE', *, *, #92, .T. ) ;
#107 = PRODUCT_CONTEXT ( 'NONE', #239, 'mechanical' ) ;
#108 = ORIENTED_EDGE ( 'NONE', *, *, #277, .F. ) ;
#109 = CARTESIAN_POINT ( 'NONE',  ( 0.000000000000000000, 0.000000000000000000, -0.2500000000000000000 ) ) ;
#110 = CIRCLE ( 'NONE', #233, 0.2500000000000000000 ) ;
#111 = MECHANICAL_DESIGN_GEOMETRIC_PRESENTATION_REPRESENTATION (  '', ( #125 ), #156 ) ;
#112 =( LENGTH_UNIT ( ) NAMED_UNIT ( * ) SI_UNIT ( $, .METRE. ) );
#113 =( LENGTH_UNIT ( ) NAMED_UNIT ( * ) SI_UNIT ( $, .METRE. ) );
#114 = ORIENTED_EDGE ( 'NONE', *, *, #277, .T. ) ;
#115 = ADVANCED_FACE ( 'NONE', ( #84 ), #272, .T. ) ;
#116 = CARTESIAN_POINT ( 'NONE',  ( 3.061616997868383018E-17, 0.000000000000000000, 0.2500000000000000000 ) ) ;
#117 = AXIS2_PLACEMENT_3D ( 'NONE', #308, #98, #145 ) ;
#118 = DIRECTION ( 'NONE',  ( -0.000000000000000000, -1.000000000000000000, -0.000000000000000000 ) ) ;
#119 = CARTESIAN_POINT ( 'NONE',  ( 0.2500000000000000000, 5.000000000000000000, 0.000000000000000000 ) ) ;
#120 = FACE_OUTER_BOUND ( 'NONE', #228, .T. ) ;
#121 = CARTESIAN_POINT ( 'NONE',  ( -2.449293598294705921E-16, 5.000000000000000000, 0.000000000000000000 ) ) ;
#122 = DIRECTION ( 'NONE',  ( 1.000000000000000000, 9.797174393178823685E-17, 0.000000000000000000 ) ) ;
#123 = SURFACE_SIDE_STYLE ('',( #50 ) ) ;
#124 = LENGTH_MEASURE_WITH_UNIT ( LENGTH_MEASURE( 0.02539999999999999897 ), #100 );
#125 = STYLED_ITEM ( 'NONE', ( #26 ), #262 ) ;
#126 = PRODUCT_DEFINITION_CONTEXT ( 'detailed design', #206, 'design' ) ;
#127 = EDGE_LOOP ( 'NONE', ( #134, #247 ) ) ;
#128 = DIMENSIONAL_EXPONENTS ( 1.000000000000000000, 0.000000000000000000, 0.000000000000000000, 0.000000000000000000, 0.000000000000000000, 0.000000000000000000, 0.000000000000000000 ) ;
#129 = VERTEX_POINT ( 'NONE', #42 ) ;
#130 = CARTESIAN_POINT ( 'NONE',  ( -2.449293598294705921E-16, 5.000000000000000000, 0.000000000000000000 ) ) ;
#131 = SURFACE_STYLE_FILL_AREA ( #59 ) ;
#132 =( GEOMETRIC_REPRESENTATION_CONTEXT ( 3 ) GLOBAL_UNCERTAINTY_ASSIGNED_CONTEXT ( ( #242 ) ) GLOBAL_UNIT_ASSIGNED_CONTEXT ( ( #158, #139, #41 ) ) REPRESENTATION_CONTEXT ( 'NONE', 'WORKASPACE' ) );
#133 = CARTESIAN_POINT ( 'NONE',  ( 0.000000000000000000, 0.000000000000000000, 0.000000000000000000 ) ) ;
#134 = ORIENTED_EDGE ( 'NONE', *, *, #249, .T. ) ;
#135 = PRESENTATION_STYLE_ASSIGNMENT (( #276 ) ) ;
#136 = EDGE_LOOP ( 'NONE', ( #153, #106 ) ) ;
#137 = DIRECTION ( 'NONE',  ( 0.000000000000000000, 0.000000000000000000, -1.000000000000000000 ) ) ;
#138 = VERTEX_POINT ( 'NONE', #61 ) ;
#139 =( NAMED_UNIT ( * ) PLANE_ANGLE_UNIT ( ) SI_UNIT ( $, .RADIAN. ) );
#140 = SURFACE_STYLE_USAGE ( .BOTH. , #214 ) ;
#141 = CARTESIAN_POINT ( 'NONE',  ( 0.000000000000000000, 2.500000000000000000, 0.000000000000000000 ) ) ;
#142 = EDGE_CURVE ( 'NONE', #138, #150, #110, .T. ) ;
#143 =( NAMED_UNIT ( * ) SI_UNIT ( $, .STERADIAN. ) SOLID_ANGLE_UNIT ( ) );
#144 = DIRECTION ( 'NONE',  ( 0.000000000000000000, 0.000000000000000000, -1.000000000000000000 ) ) ;
#145 = DIRECTION ( 'NONE',  ( 0.000000000000000000, 0.000000000000000000, -1.000000000000000000 ) ) ;
#146 = EDGE_CURVE ( 'NONE', #163, #150, #187, .T. ) ;
#147 = FACE_OUTER_BOUND ( 'NONE', #181, .T. ) ;
#148 = CIRCLE ( 'NONE', #39, 0.2500000000000002220 ) ;
#149 =( CONVERSION_BASED_UNIT ( 'INCH', #199 ) LENGTH_UNIT ( ) NAMED_UNIT ( #268 ) );
#150 = VERTEX_POINT ( 'NONE', #116 ) ;
#151 = UNCERTAINTY_MEASURE_WITH_UNIT (LENGTH_MEASURE( 1.000000000000000082E-05 ), #162, 'distance_accuracy_value', 'NONE');
#152 = DIMENSIONAL_EXPONENTS ( 1.000000000000000000, 0.000000000000000000, 0.000000000000000000, 0.000000000000000000, 0.000000000000000000, 0.000000000000000000, 0.000000000000000000 ) ;
#153 = ORIENTED_EDGE ( 'NONE', *, *, #142, .T. ) ;
#154 = CARTESIAN_POINT ( 'NONE',  ( 3.032960542342103792E-32, 2.500000000000000000, 0.000000000000000000 ) ) ;
#155 = COLOUR_RGB ( '',1.000000000000000000, 0.000000000000000000, 0.000000000000000000 ) ;
#156 =( GEOMETRIC_REPRESENTATION_CONTEXT ( 3 ) GLOBAL_UNCERTAINTY_ASSIGNED_CONTEXT ( ( #273 ) ) GLOBAL_UNIT_ASSIGNED_CONTEXT ( ( #169, #172, #167 ) ) REPRESENTATION_CONTEXT ( 'NONE', 'WORKASPACE' ) );
#157 = ORIENTED_EDGE ( 'NONE', *, *, #290, .T. ) ;
#158 =( CONVERSION_BASED_UNIT ( 'INCH', #60 ) LENGTH_UNIT ( ) NAMED_UNIT ( #40 ) );
#159 = COLOUR_RGB ( '',1.000000000000000000, 0.000000000000000000, 0.000000000000000000 ) ;
#160 = DIRECTION ( 'NONE',  ( -0.000000000000000000, -1.000000000000000000, -0.000000000000000000 ) ) ;
#161 = EDGE_LOOP ( 'NONE', ( #114, #36, #251, #302 ) ) ;
#162 =( CONVERSION_BASED_UNIT ( 'INCH', #209 ) LENGTH_UNIT ( ) NAMED_UNIT ( #80 ) );
#163 = VERTEX_POINT ( 'NONE', #192 ) ;
#164 = DIRECTION ( 'NONE',  ( 0.000000000000000000, 0.000000000000000000, -1.000000000000000000 ) ) ;
#165 = CLOSED_SHELL ( 'NONE', ( #115, #262, #23, #70 ) ) ;
#166 = SURFACE_STYLE_FILL_AREA ( #219 ) ;
#167 =( NAMED_UNIT ( * ) SI_UNIT ( $, .STERADIAN. ) SOLID_ANGLE_UNIT ( ) );
#168 = DIRECTION ( 'NONE',  ( -9.797174393178823685E-17, 1.000000000000000000, -0.000000000000000000 ) ) ;
#169 =( CONVERSION_BASED_UNIT ( 'INCH', #74 ) LENGTH_UNIT ( ) NAMED_UNIT ( #179 ) );
#170 = DIRECTION ( 'NONE',  ( -1.000000000000000000, -9.797174393178823685E-17, 0.000000000000000000 ) ) ;
#171 = AXIS2_PLACEMENT_3D ( 'NONE', #79, #227, #8 ) ;
#172 =( NAMED_UNIT ( * ) PLANE_ANGLE_UNIT ( ) SI_UNIT ( $, .RADIAN. ) );
#173 = PRODUCT ( '81416', '81416', '', ( #107 ) ) ;
#174 = CLOSED_SHELL ( 'NONE', ( #297, #55, #180, #11 ) ) ;
#175 = AXIS2_PLACEMENT_3D ( 'NONE', #154, #270, #246 ) ;
#176 = PRESENTATION_STYLE_ASSIGNMENT (( #10 ) ) ;
#177 = CARTESIAN_POINT ( 'NONE',  ( -0.2500000000000003886, 5.000000000000000000, 0.000000000000000000 ) ) ;
#178 = SHAPE_DEFINITION_REPRESENTATION ( #85, #245 ) ;
#179 = DIMENSIONAL_EXPONENTS ( 1.000000000000000000, 0.000000000000000000, 0.000000000000000000, 0.000000000000000000, 0.000000000000000000, 0.000000000000000000, 0.000000000000000000 ) ;
#180 = ADVANCED_FACE ( 'NONE', ( #120 ), #283, .T. ) ;
#181 = EDGE_LOOP ( 'NONE', ( #108, #58 ) ) ;
#182 = DIRECTION ( 'NONE',  ( -1.000000000000000000, 0.000000000000000000, 0.000000000000000000 ) ) ;
#183 = STYLED_ITEM ( 'NONE', ( #135 ), #115 ) ;
#184 = VECTOR ( 'NONE', #35, 39.37007874015748143 ) ;
#185 = DIRECTION ( 'NONE',  ( -0.000000000000000000, -1.000000000000000000, -0.000000000000000000 ) ) ;
#186 = SURFACE_SIDE_STYLE ('',( #131 ) ) ;
#187 = LINE ( 'NONE', #17, #104 ) ;
#188 = LINE ( 'NONE', #71, #65 ) ;
#189 = DIRECTION ( 'NONE',  ( 9.797174393178823685E-17, -1.000000000000000000, 0.000000000000000000 ) ) ;
#190 = AXIS2_PLACEMENT_3D ( 'NONE', #73, #255, #170 ) ;
#191 = CIRCLE ( 'NONE', #117, 0.2500000000000000000 ) ;
#192 = CARTESIAN_POINT ( 'NONE',  ( 3.061616997868383018E-17, 2.500000000000000000, 0.2500000000000000000 ) ) ;
#193 = CARTESIAN_POINT ( 'NONE',  ( 3.032960542342103792E-32, 2.500000000000000000, 0.000000000000000000 ) ) ;
#194 = LINE ( 'NONE', #109, #184 ) ;
#195 = CARTESIAN_POINT ( 'NONE',  ( 0.000000000000000000, 0.000000000000000000, 0.000000000000000000 ) ) ;
#196 = PRESENTATION_LAYER_ASSIGNMENT (  '', '', ( #183 ) ) ;
#197 = DIRECTION ( 'NONE',  ( -9.797174393178823685E-17, 1.000000000000000000, -0.000000000000000000 ) ) ;
#198 = UNCERTAINTY_MEASURE_WITH_UNIT (LENGTH_MEASURE( 1.000000000000000082E-05 ), #288, 'distance_accuracy_value', 'NONE');
#199 = LENGTH_MEASURE_WITH_UNIT ( LENGTH_MEASURE( 0.02539999999999999897 ), #3 );
#200 = EDGE_LOOP ( 'NONE', ( #204, #93 ) ) ;
#201 = CIRCLE ( 'NONE', #5, 0.2500000000000000000 ) ;
#202 = SURFACE_SIDE_STYLE ('',( #243 ) ) ;
#203 = PRODUCT_DEFINITION_FORMATION_WITH_SPECIFIED_SOURCE ( 'ANY', '', #173, .NOT_KNOWN. ) ;
#204 = ORIENTED_EDGE ( 'NONE', *, *, #34, .F. ) ;
#205 = APPLICATION_PROTOCOL_DEFINITION ( 'draft international standard', 'automotive_design', 1998, #206 ) ;
#206 = APPLICATION_CONTEXT ( 'automotive_design' ) ;
#207 = CARTESIAN_POINT ( 'NONE',  ( 0.2500000000000000000, 2.500000000000000000, 3.061616997868385483E-17 ) ) ;
#208 = STYLED_ITEM ( 'NONE', ( #62 ), #70 ) ;
#209 = LENGTH_MEASURE_WITH_UNIT ( LENGTH_MEASURE( 0.02539999999999999897 ), #112 );
#210 = AXIS2_PLACEMENT_3D ( 'NONE', #119, #189, #122 ) ;
#211 = STYLED_ITEM ( 'NONE', ( #176 ), #287 ) ;
#212 = EDGE_CURVE ( 'NONE', #129, #244, #148, .T. ) ;
#213 =( NAMED_UNIT ( * ) PLANE_ANGLE_UNIT ( ) SI_UNIT ( $, .RADIAN. ) );
#214 = SURFACE_SIDE_STYLE ('',( #166 ) ) ;
#215 = FILL_AREA_STYLE ('',( #101 ) ) ;
#216 = AXIS2_PLACEMENT_3D ( 'NONE', #195, #97, #282 ) ;
#217 = COLOUR_RGB ( '',0.7921568627450980005, 0.8196078431372548767, 0.9333333333333333481 ) ;
#218 = DIRECTION ( 'NONE',  ( 0.000000000000000000, -0.000000000000000000, 1.000000000000000000 ) ) ;
#219 = FILL_AREA_STYLE ('',( #237 ) ) ;
#220 = SURFACE_STYLE_USAGE ( .BOTH. , #123 ) ;
#221 =( LENGTH_UNIT ( ) NAMED_UNIT ( * ) SI_UNIT ( $, .METRE. ) );
#222 = COLOUR_RGB ( '',1.000000000000000000, 0.000000000000000000, 0.000000000000000000 ) ;
#223 =( NAMED_UNIT ( * ) SI_UNIT ( $, .STERADIAN. ) SOLID_ANGLE_UNIT ( ) );
#224 = APPLICATION_PROTOCOL_DEFINITION ( 'draft international standard', 'automotive_design', 1998, #239 ) ;
#225 = ORIENTED_EDGE ( 'NONE', *, *, #249, .F. ) ;
#226 = CIRCLE ( 'NONE', #77, 0.2500000000000000000 ) ;
#227 = DIRECTION ( 'NONE',  ( 0.000000000000000000, 0.000000000000000000, 1.000000000000000000 ) ) ;
#228 = EDGE_LOOP ( 'NONE', ( #304, #32, #7, #252 ) ) ;
#229 = FILL_AREA_STYLE_COLOUR ( '', #159 ) ;
#230 = LINE ( 'NONE', #177, #289 ) ;
#231 = DIRECTION ( 'NONE',  ( 0.000000000000000000, 0.000000000000000000, -1.000000000000000000 ) ) ;
#232 = VERTEX_POINT ( 'NONE', #286 ) ;
#233 = AXIS2_PLACEMENT_3D ( 'NONE', #14, #160, #231 ) ;
#234 = EDGE_LOOP ( 'NONE', ( #53, #22, #225, #78 ) ) ;
#235 = PRESENTATION_STYLE_ASSIGNMENT (( #140 ) ) ;
#236 = PRESENTATION_STYLE_ASSIGNMENT (( #220 ) ) ;
#237 = FILL_AREA_STYLE_COLOUR ( '', #222 ) ;
#238 = FILL_AREA_STYLE ('',( #259 ) ) ;
#239 = APPLICATION_CONTEXT ( 'automotive_design' ) ;
#240 = MECHANICAL_DESIGN_GEOMETRIC_PRESENTATION_REPRESENTATION (  '', ( #183 ), #132 ) ;
#241 = AXIS2_PLACEMENT_3D ( 'NONE', #67, #69, #95 ) ;
#242 = UNCERTAINTY_MEASURE_WITH_UNIT (LENGTH_MEASURE( 1.000000000000000082E-05 ), #158, 'distance_accuracy_value', 'NONE');
#243 = SURFACE_STYLE_FILL_AREA ( #37 ) ;
#244 = VERTEX_POINT ( 'NONE', #49 ) ;
#245 = ADVANCED_BREP_SHAPE_REPRESENTATION ( '81416', ( #285, #287, #171 ), #294 ) ;
#246 = DIRECTION ( 'NONE',  ( -1.000000000000000000, 0.000000000000000000, 0.000000000000000000 ) ) ;
#247 = ORIENTED_EDGE ( 'NONE', *, *, #212, .T. ) ;
#248 = FILL_AREA_STYLE_COLOUR ( '', #155 ) ;
#249 = EDGE_CURVE ( 'NONE', #244, #129, #260, .T. ) ;
#250 =( NAMED_UNIT ( * ) PLANE_ANGLE_UNIT ( ) SI_UNIT ( $, .RADIAN. ) );
#251 = ORIENTED_EDGE ( 'NONE', *, *, #142, .F. ) ;
#252 = ORIENTED_EDGE ( 'NONE', *, *, #212, .F. ) ;
#253 = SURFACE_STYLE_FILL_AREA ( #88 ) ;
#254 = AXIS2_PLACEMENT_3D ( 'NONE', #16, #301, #137 ) ;
#255 = DIRECTION ( 'NONE',  ( -9.797174393178823685E-17, 1.000000000000000000, 0.000000000000000000 ) ) ;
#256 = CARTESIAN_POINT ( 'NONE',  ( -2.449293598294705921E-16, 5.000000000000000000, 0.000000000000000000 ) ) ;
#257 =( CONVERSION_BASED_UNIT ( 'INCH', #68 ) LENGTH_UNIT ( ) NAMED_UNIT ( #299 ) );
#258 = DIRECTION ( 'NONE',  ( -9.797174393178823685E-17, 1.000000000000000000, -0.000000000000000000 ) ) ;
#259 = FILL_AREA_STYLE_COLOUR ( '', #66 ) ;
#260 = CIRCLE ( 'NONE', #241, 0.2500000000000002220 ) ;
#261 =( NAMED_UNIT ( * ) SI_UNIT ( $, .STERADIAN. ) SOLID_ANGLE_UNIT ( ) );
#262 = ADVANCED_FACE ( 'NONE', ( #147 ), #96, .T. ) ;
#263 =( NAMED_UNIT ( * ) PLANE_ANGLE_UNIT ( ) SI_UNIT ( $, .RADIAN. ) );
#264 = AXIS2_PLACEMENT_3D ( 'NONE', #133, #185, #89 ) ;
#265 = MECHANICAL_DESIGN_GEOMETRIC_PRESENTATION_REPRESENTATION (  '', ( #306 ), #6 ) ;
#266 = PRODUCT_RELATED_PRODUCT_CATEGORY ( 'part', '', ( #173 ) ) ;
#267 = CARTESIAN_POINT ( 'NONE',  ( 0.000000000000000000, 2.500000000000000000, -0.2500000000000000000 ) ) ;
#268 = DIMENSIONAL_EXPONENTS ( 1.000000000000000000, 0.000000000000000000, 0.000000000000000000, 0.000000000000000000, 0.000000000000000000, 0.000000000000000000, 0.000000000000000000 ) ;
#269 = ORIENTED_EDGE ( 'NONE', *, *, #146, .F. ) ;
#270 = DIRECTION ( 'NONE',  ( -9.797174393178823685E-17, 1.000000000000000000, -0.000000000000000000 ) ) ;
#271 = AXIS2_PLACEMENT_3D ( 'NONE', #130, #83, #182 ) ;
#272 = CYLINDRICAL_SURFACE ( 'NONE', #254, 0.2500000000000000000 ) ;
#273 = UNCERTAINTY_MEASURE_WITH_UNIT (LENGTH_MEASURE( 1.000000000000000082E-05 ), #169, 'distance_accuracy_value', 'NONE');
#274 = SURFACE_SIDE_STYLE ('',( #253 ) ) ;
#275 = PRESENTATION_LAYER_ASSIGNMENT (  '', '', ( #125 ) ) ;
#276 = SURFACE_STYLE_USAGE ( .BOTH. , #274 ) ;
#277 = EDGE_CURVE ( 'NONE', #9, #163, #191, .T. ) ;
#278 = SURFACE_STYLE_USAGE ( .BOTH. , #186 ) ;
#279 =( NAMED_UNIT ( * ) SI_UNIT ( $, .STERADIAN. ) SOLID_ANGLE_UNIT ( ) );
#280 = FACE_OUTER_BOUND ( 'NONE', #136, .T. ) ;
#281 = PRESENTATION_LAYER_ASSIGNMENT (  '', '', ( #211 ) ) ;
#282 = DIRECTION ( 'NONE',  ( 0.000000000000000000, 0.000000000000000000, -1.000000000000000000 ) ) ;
#283 = CYLINDRICAL_SURFACE ( 'NONE', #102, 0.2500000000000001110 ) ;
#284 = PLANE ( 'NONE',  #210 ) ;
#285 = MANIFOLD_SOLID_BREP ( 'Revolve - Cutting Edge', #165 ) ;
#286 = CARTESIAN_POINT ( 'NONE',  ( -0.2500000000000000000, 2.500000000000000000, 0.000000000000000000 ) ) ;
#287 = MANIFOLD_SOLID_BREP ( 'Revolve - Tool Body (Straight Shanked)', #174 ) ;
#288 =( CONVERSION_BASED_UNIT ( 'INCH', #124 ) LENGTH_UNIT ( ) NAMED_UNIT ( #128 ) );
#289 = VECTOR ( 'NONE', #81, 39.37007874015748143 ) ;
#290 = EDGE_CURVE ( 'NONE', #9, #138, #194, .T. ) ;
#291 = DIRECTION ( 'NONE',  ( -1.000000000000000000, 0.000000000000000000, 0.000000000000000000 ) ) ;
#292 =( NAMED_UNIT ( * ) PLANE_ANGLE_UNIT ( ) SI_UNIT ( $, .RADIAN. ) );
#293 = AXIS2_PLACEMENT_3D ( 'NONE', #38, #63, #164 ) ;
#294 =( GEOMETRIC_REPRESENTATION_CONTEXT ( 3 ) GLOBAL_UNCERTAINTY_ASSIGNED_CONTEXT ( ( #31 ) ) GLOBAL_UNIT_ASSIGNED_CONTEXT ( ( #149, #263, #103 ) ) REPRESENTATION_CONTEXT ( 'NONE', 'WORKASPACE' ) );
#295 = VERTEX_POINT ( 'NONE', #207 ) ;
#296 = FACE_OUTER_BOUND ( 'NONE', #234, .T. ) ;
#297 = ADVANCED_FACE ( 'NONE', ( #296 ), #57, .T. ) ;
#298 = STYLED_ITEM ( 'NONE', ( #235 ), #23 ) ;
#299 = DIMENSIONAL_EXPONENTS ( 1.000000000000000000, 0.000000000000000000, 0.000000000000000000, 0.000000000000000000, 0.000000000000000000, 0.000000000000000000, 0.000000000000000000 ) ;
#300 = EDGE_CURVE ( 'NONE', #295, #232, #105, .T. ) ;
#301 = DIRECTION ( 'NONE',  ( -0.000000000000000000, -1.000000000000000000, -0.000000000000000000 ) ) ;
#302 = ORIENTED_EDGE ( 'NONE', *, *, #290, .F. ) ;
#303 = PRESENTATION_LAYER_ASSIGNMENT (  '', '', ( #208 ) ) ;
#304 = ORIENTED_EDGE ( 'NONE', *, *, #47, .F. ) ;
#305 = DIRECTION ( 'NONE',  ( -9.797174393178823685E-17, 1.000000000000000000, -0.000000000000000000 ) ) ;
#306 = STYLED_ITEM ( 'NONE', ( #236 ), #285 ) ;
#307 = CYLINDRICAL_SURFACE ( 'NONE', #216, 0.2500000000000000000 ) ;
#308 = CARTESIAN_POINT ( 'NONE',  ( 0.000000000000000000, 2.500000000000000000, 0.000000000000000000 ) ) ;
#309 = FACE_OUTER_BOUND ( 'NONE', #200, .T. ) ;
ENDSEC;
END-ISO-10303-21;
