ISO-10303-21;
HEADER;
FILE_DESCRIPTION (( 'STEP AP214' ),
    '1' );
FILE_NAME ('07037.STEP',
    '2023-07-12T13:05:31',
    ( '' ),
    ( '' ),
    'SwSTEP 2.0',
    'SolidWorks 2023',
    '' );
FILE_SCHEMA (( 'AUTOMOTIVE_DESIGN' ));
ENDSEC;

DATA;
#1 = EDGE_CURVE ( 'NONE', #124, #32, #41, .T. ) ;
#2 =( CONVERSION_BASED_UNIT ( 'INCH', #146 ) LENGTH_UNIT ( ) NAMED_UNIT ( #304 ) );
#3 = CARTESIAN_POINT ( 'NONE',  ( -0.3749999999999999445, 3.000000000000000444, 0.000000000000000000 ) ) ;
#4 = AXIS2_PLACEMENT_3D ( 'NONE', #197, #50, #153 ) ;
#5 = CARTESIAN_POINT ( 'NONE',  ( 3.414809992080329023E-16, 0.1876388374866273523, 0.000000000000000000 ) ) ;
#6 = CARTESIAN_POINT ( 'NONE',  ( -0.05000000000000000278, 1.545498952090414639E-18, 0.000000000000000000 ) ) ;
#7 = EDGE_CURVE ( 'NONE', #32, #124, #51, .T. ) ;
#8 = ORIENTED_EDGE ( 'NONE', *, *, #55, .F. ) ;
#9 = AXIS2_PLACEMENT_3D ( 'NONE', #18, #89, #138 ) ;
#10 = DIRECTION ( 'NONE',  ( 1.000000000000000000, 0.000000000000000000, 0.000000000000000000 ) ) ;
#11 = DIRECTION ( 'NONE',  ( 1.545498952090414639E-17, 1.000000000000000000, 0.000000000000000000 ) ) ;
#12 = ADVANCED_FACE ( 'NONE', ( #72 ), #261, .F. ) ;
#13 =( NAMED_UNIT ( * ) SI_UNIT ( $, .STERADIAN. ) SOLID_ANGLE_UNIT ( ) );
#14 = FACE_OUTER_BOUND ( 'NONE', #102, .T. ) ;
#15 =( GEOMETRIC_REPRESENTATION_CONTEXT ( 3 ) GLOBAL_UNCERTAINTY_ASSIGNED_CONTEXT ( ( #85 ) ) GLOBAL_UNIT_ASSIGNED_CONTEXT ( ( #19, #306, #187 ) ) REPRESENTATION_CONTEXT ( 'NONE', 'WORKASPACE' ) );
#16 = LINE ( 'NONE', #60, #214 ) ;
#17 = EDGE_CURVE ( 'NONE', #309, #264, #238, .T. ) ;
#18 = CARTESIAN_POINT ( 'NONE',  ( -6.123233995736772199E-17, 3.000000000000000444, 0.000000000000000000 ) ) ;
#19 =( CONVERSION_BASED_UNIT ( 'INCH', #43 ) LENGTH_UNIT ( ) NAMED_UNIT ( #192 ) );
#20 = CARTESIAN_POINT ( 'NONE',  ( -0.3750000000000001665, 3.000000000000000444, 0.000000000000000000 ) ) ;
#21 =( LENGTH_UNIT ( ) NAMED_UNIT ( * ) SI_UNIT ( $, .METRE. ) );
#22 = STYLED_ITEM ( 'NONE', ( #275 ), #180 ) ;
#23 = APPLICATION_PROTOCOL_DEFINITION ( 'draft international standard', 'automotive_design', 1998, #40 ) ;
#24 = SURFACE_SIDE_STYLE ('',( #239 ) ) ;
#25 = VERTEX_POINT ( 'NONE', #126 ) ;
#26 = ORIENTED_EDGE ( 'NONE', *, *, #117, .F. ) ;
#27 = EDGE_CURVE ( 'NONE', #32, #46, #222, .T. ) ;
#28 = DIRECTION ( 'NONE',  ( -1.431940337298288554E-16, 1.000000000000000000, -0.000000000000000000 ) ) ;
#29 = MECHANICAL_DESIGN_GEOMETRIC_PRESENTATION_REPRESENTATION (  '', ( #127 ), #179 ) ;
#30 = CARTESIAN_POINT ( 'NONE',  ( 2.899956267070462108E-18, 0.1876388374866273800, 0.000000000000000000 ) ) ;
#31 = CIRCLE ( 'NONE', #249, 0.3750000000000000555 ) ;
#32 = VERTEX_POINT ( 'NONE', #58 ) ;
#33 = CLOSED_SHELL ( 'NONE', ( #234, #229, #125, #180 ) ) ;
#34 = COLOUR_RGB ( '',0.7921568627450980005, 0.8196078431372548767, 0.9333333333333333481 ) ;
#35 = DIRECTION ( 'NONE',  ( -1.000000000000000000, -1.821231995776177205E-16, 0.000000000000000000 ) ) ;
#36 =( NAMED_UNIT ( * ) PLANE_ANGLE_UNIT ( ) SI_UNIT ( $, .RADIAN. ) );
#37 = DIRECTION ( 'NONE',  ( -1.000000000000000000, 0.000000000000000000, 0.000000000000000000 ) ) ;
#38 = FACE_OUTER_BOUND ( 'NONE', #44, .T. ) ;
#39 =( GEOMETRIC_REPRESENTATION_CONTEXT ( 3 ) GLOBAL_UNCERTAINTY_ASSIGNED_CONTEXT ( ( #166 ) ) GLOBAL_UNIT_ASSIGNED_CONTEXT ( ( #226, #36, #13 ) ) REPRESENTATION_CONTEXT ( 'NONE', 'WORKASPACE' ) );
#40 = APPLICATION_CONTEXT ( 'automotive_design' ) ;
#41 = CIRCLE ( 'NONE', #183, 0.05000000000000000278 ) ;
#42 = CIRCLE ( 'NONE', #106, 0.3749999999999996669 ) ;
#43 = LENGTH_MEASURE_WITH_UNIT ( LENGTH_MEASURE( 0.02539999999999999897 ), #21 );
#44 = EDGE_LOOP ( 'NONE', ( #77, #79, #236, #218 ) ) ;
#45 = STYLED_ITEM ( 'NONE', ( #143 ), #155 ) ;
#46 = VERTEX_POINT ( 'NONE', #107 ) ;
#47 = LENGTH_MEASURE_WITH_UNIT ( LENGTH_MEASURE( 0.02539999999999999897 ), #195 );
#48 = ORIENTED_EDGE ( 'NONE', *, *, #139, .F. ) ;
#49 = SURFACE_STYLE_FILL_AREA ( #96 ) ;
#50 = DIRECTION ( 'NONE',  ( -1.545498952090414639E-17, -1.000000000000000000, -0.000000000000000000 ) ) ;
#51 = CIRCLE ( 'NONE', #4, 0.05000000000000000278 ) ;
#52 =( NAMED_UNIT ( * ) SI_UNIT ( $, .STERADIAN. ) SOLID_ANGLE_UNIT ( ) );
#53 = ORIENTED_EDGE ( 'NONE', *, *, #27, .T. ) ;
#54 = DIRECTION ( 'NONE',  ( -1.431940337298288554E-16, 1.000000000000000000, -0.000000000000000000 ) ) ;
#55 = EDGE_CURVE ( 'NONE', #128, #264, #93, .T. ) ;
#56 = PRESENTATION_STYLE_ASSIGNMENT (( #83 ) ) ;
#57 = PRESENTATION_LAYER_ASSIGNMENT (  '', '', ( #248 ) ) ;
#58 = CARTESIAN_POINT ( 'NONE',  ( -0.05000000000000000278, 1.545498952090414639E-18, 0.000000000000000000 ) ) ;
#59 = DIRECTION ( 'NONE',  ( -0.8660254037844397068, 0.4999999999999979461, 0.000000000000000000 ) ) ;
#60 = CARTESIAN_POINT ( 'NONE',  ( 0.3749999999999998335, 3.000000000000000444, 4.592425496802572986E-17 ) ) ;
#61 = FACE_OUTER_BOUND ( 'NONE', #122, .T. ) ;
#62 = PRODUCT_DEFINITION_FORMATION_WITH_SPECIFIED_SOURCE ( 'ANY', '', #194, .NOT_KNOWN. ) ;
#63 =( LENGTH_UNIT ( ) NAMED_UNIT ( * ) SI_UNIT ( $, .METRE. ) );
#64 = DIRECTION ( 'NONE',  ( -1.431940337298288554E-16, 1.000000000000000000, -0.000000000000000000 ) ) ;
#65 = CARTESIAN_POINT ( 'NONE',  ( 5.971417527281424742E-36, 3.863747380226036597E-19, 0.000000000000000000 ) ) ;
#66 = DIMENSIONAL_EXPONENTS ( 1.000000000000000000, 0.000000000000000000, 0.000000000000000000, 0.000000000000000000, 0.000000000000000000, 0.000000000000000000, 0.000000000000000000 ) ;
#67 = FILL_AREA_STYLE_COLOUR ( '', #94 ) ;
#68 = DIMENSIONAL_EXPONENTS ( 1.000000000000000000, 0.000000000000000000, 0.000000000000000000, 0.000000000000000000, 0.000000000000000000, 0.000000000000000000, 0.000000000000000000 ) ;
#69 = DIRECTION ( 'NONE',  ( 1.000000000000000000, 0.000000000000000000, 0.000000000000000000 ) ) ;
#70 = ORIENTED_EDGE ( 'NONE', *, *, #7, .F. ) ;
#71 =( NAMED_UNIT ( * ) PLANE_ANGLE_UNIT ( ) SI_UNIT ( $, .RADIAN. ) );
#72 = FACE_OUTER_BOUND ( 'NONE', #99, .T. ) ;
#73 = MECHANICAL_DESIGN_GEOMETRIC_PRESENTATION_REPRESENTATION (  '', ( #22 ), #293 ) ;
#74 = DIRECTION ( 'NONE',  ( 1.545498952090414639E-17, 1.000000000000000000, 0.000000000000000000 ) ) ;
#75 = ORIENTED_EDGE ( 'NONE', *, *, #280, .T. ) ;
#76 = DIRECTION ( 'NONE',  ( -1.431940337298288554E-16, 1.000000000000000000, 0.000000000000000000 ) ) ;
#77 = ORIENTED_EDGE ( 'NONE', *, *, #139, .T. ) ;
#78 = PRESENTATION_STYLE_ASSIGNMENT (( #118 ) ) ;
#79 = ORIENTED_EDGE ( 'NONE', *, *, #91, .T. ) ;
#80 = AXIS2_PLACEMENT_3D ( 'NONE', #65, #168, #291 ) ;
#81 = DIRECTION ( 'NONE',  ( -1.545498952090414639E-17, -1.000000000000000000, -0.000000000000000000 ) ) ;
#82 = AXIS2_PLACEMENT_3D ( 'NONE', #246, #11, #157 ) ;
#83 = SURFACE_STYLE_USAGE ( .BOTH. , #295 ) ;
#84 = ADVANCED_FACE ( 'NONE', ( #38 ), #87, .T. ) ;
#85 = UNCERTAINTY_MEASURE_WITH_UNIT (LENGTH_MEASURE( 1.000000000000000082E-05 ), #19, 'distance_accuracy_value', 'NONE');
#86 = ADVANCED_BREP_SHAPE_REPRESENTATION ( '07037', ( #151, #155, #211 ), #132 ) ;
#87 = CYLINDRICAL_SURFACE ( 'NONE', #119, 0.3749999999999998890 ) ;
#88 = UNCERTAINTY_MEASURE_WITH_UNIT (LENGTH_MEASURE( 1.000000000000000082E-05 ), #2, 'distance_accuracy_value', 'NONE');
#89 = DIRECTION ( 'NONE',  ( -1.431940337298288554E-16, 1.000000000000000000, -0.000000000000000000 ) ) ;
#90 = CYLINDRICAL_SURFACE ( 'NONE', #9, 0.3749999999999998890 ) ;
#91 = EDGE_CURVE ( 'NONE', #25, #128, #16, .T. ) ;
#92 =( NAMED_UNIT ( * ) SI_UNIT ( $, .STERADIAN. ) SOLID_ANGLE_UNIT ( ) );
#93 = CIRCLE ( 'NONE', #265, 0.3750000000000001110 ) ;
#94 = COLOUR_RGB ( '',0.7921568627450980005, 0.8196078431372548767, 0.9333333333333333481 ) ;
#95 = APPLICATION_PROTOCOL_DEFINITION ( 'draft international standard', 'automotive_design', 1998, #208 ) ;
#96 = FILL_AREA_STYLE ('',( #98 ) ) ;
#97 = PRODUCT_CONTEXT ( 'NONE', #40, 'mechanical' ) ;
#98 = FILL_AREA_STYLE_COLOUR ( '', #173 ) ;
#99 = EDGE_LOOP ( 'NONE', ( #178, #147 ) ) ;
#100 = EDGE_CURVE ( 'NONE', #124, #101, #134, .T. ) ;
#101 = VERTEX_POINT ( 'NONE', #205 ) ;
#102 = EDGE_LOOP ( 'NONE', ( #219, #70, #53, #171 ) ) ;
#103 = DIRECTION ( 'NONE',  ( 1.000000000000000000, -1.545498952090414639E-17, 0.000000000000000000 ) ) ;
#104 = ORIENTED_EDGE ( 'NONE', *, *, #17, .T. ) ;
#105 = CONICAL_SURFACE ( 'NONE', #273, 0.05000000000000000278, 1.047197551196600074 ) ;
#106 = AXIS2_PLACEMENT_3D ( 'NONE', #115, #120, #277 ) ;
#107 = CARTESIAN_POINT ( 'NONE',  ( -0.3750000000000000555, 0.1876388374866273800, 0.000000000000000000 ) ) ;
#108 = FILL_AREA_STYLE ('',( #206 ) ) ;
#109 = STYLED_ITEM ( 'NONE', ( #78 ), #229 ) ;
#110 =( LENGTH_UNIT ( ) NAMED_UNIT ( * ) SI_UNIT ( $, .METRE. ) );
#111 = SURFACE_STYLE_USAGE ( .BOTH. , #230 ) ;
#112 = DIRECTION ( 'NONE',  ( 0.000000000000000000, 0.000000000000000000, 1.000000000000000000 ) ) ;
#113 = PLANE ( 'NONE',  #80 ) ;
#114 = CIRCLE ( 'NONE', #141, 0.3750000000000001110 ) ;
#115 = CARTESIAN_POINT ( 'NONE',  ( 3.414809992080329023E-16, 0.1876388374866272135, 0.000000000000000000 ) ) ;
#116 =( CONVERSION_BASED_UNIT ( 'INCH', #233 ) LENGTH_UNIT ( ) NAMED_UNIT ( #251 ) );
#117 = EDGE_CURVE ( 'NONE', #101, #46, #202, .T. ) ;
#118 = SURFACE_STYLE_USAGE ( .BOTH. , #24 ) ;
#119 = AXIS2_PLACEMENT_3D ( 'NONE', #270, #54, #158 ) ;
#120 = DIRECTION ( 'NONE',  ( -1.431940337298288554E-16, 1.000000000000000000, -0.000000000000000000 ) ) ;
#121 = FILL_AREA_STYLE ('',( #258 ) ) ;
#122 = EDGE_LOOP ( 'NONE', ( #259, #292 ) ) ;
#123 = PRESENTATION_STYLE_ASSIGNMENT (( #283 ) ) ;
#124 = VERTEX_POINT ( 'NONE', #225 ) ;
#125 = ADVANCED_FACE ( 'NONE', ( #14 ), #296, .T. ) ;
#126 = CARTESIAN_POINT ( 'NONE',  ( 0.3750000000000000555, 0.1876388374866272968, 4.592425496802573602E-17 ) ) ;
#127 = STYLED_ITEM ( 'NONE', ( #56 ), #151 ) ;
#128 = VERTEX_POINT ( 'NONE', #243 ) ;
#129 = ORIENTED_EDGE ( 'NONE', *, *, #27, .F. ) ;
#130 = CARTESIAN_POINT ( 'NONE',  ( 2.899956267070462108E-18, 0.1876388374866273800, 0.000000000000000000 ) ) ;
#131 = AXIS2_PLACEMENT_3D ( 'NONE', #5, #76, #193 ) ;
#132 =( GEOMETRIC_REPRESENTATION_CONTEXT ( 3 ) GLOBAL_UNCERTAINTY_ASSIGNED_CONTEXT ( ( #255 ) ) GLOBAL_UNIT_ASSIGNED_CONTEXT ( ( #116, #305, #188 ) ) REPRESENTATION_CONTEXT ( 'NONE', 'WORKASPACE' ) );
#133 = PRODUCT_RELATED_PRODUCT_CATEGORY ( 'part', '', ( #194 ) ) ;
#134 = LINE ( 'NONE', #228, #163 ) ;
#135 = PRESENTATION_STYLE_ASSIGNMENT (( #245 ) ) ;
#136 = DIRECTION ( 'NONE',  ( -1.431940337298288554E-16, 1.000000000000000000, -0.000000000000000000 ) ) ;
#137 = PRODUCT_DEFINITION_CONTEXT ( 'detailed design', #208, 'design' ) ;
#138 = DIRECTION ( 'NONE',  ( -1.000000000000000000, 0.000000000000000000, 0.000000000000000000 ) ) ;
#139 = EDGE_CURVE ( 'NONE', #309, #25, #169, .T. ) ;
#140 =( NAMED_UNIT ( * ) SI_UNIT ( $, .STERADIAN. ) SOLID_ANGLE_UNIT ( ) );
#141 = AXIS2_PLACEMENT_3D ( 'NONE', #186, #64, #257 ) ;
#142 =( LENGTH_UNIT ( ) NAMED_UNIT ( * ) SI_UNIT ( $, .METRE. ) );
#143 = PRESENTATION_STYLE_ASSIGNMENT (( #276 ) ) ;
#144 = UNCERTAINTY_MEASURE_WITH_UNIT (LENGTH_MEASURE( 1.000000000000000082E-05 ), #149, 'distance_accuracy_value', 'NONE');
#145 = CARTESIAN_POINT ( 'NONE',  ( 0.000000000000000000, 0.000000000000000000, 0.000000000000000000 ) ) ;
#146 = LENGTH_MEASURE_WITH_UNIT ( LENGTH_MEASURE( 0.02539999999999999897 ), #152 );
#147 = ORIENTED_EDGE ( 'NONE', *, *, #55, .T. ) ;
#148 = DIRECTION ( 'NONE',  ( 1.000000000000000000, 1.431940337298288554E-16, 0.000000000000000000 ) ) ;
#149 =( CONVERSION_BASED_UNIT ( 'INCH', #47 ) LENGTH_UNIT ( ) NAMED_UNIT ( #278 ) );
#150 = EDGE_LOOP ( 'NONE', ( #48, #235 ) ) ;
#151 = MANIFOLD_SOLID_BREP ( 'Revolve - Cutting Edge', #33 ) ;
#152 =( LENGTH_UNIT ( ) NAMED_UNIT ( * ) SI_UNIT ( $, .METRE. ) );
#153 = DIRECTION ( 'NONE',  ( 1.000000000000000000, -1.545498952090414639E-17, 0.000000000000000000 ) ) ;
#154 = MECHANICAL_DESIGN_GEOMETRIC_PRESENTATION_REPRESENTATION (  '', ( #45 ), #15 ) ;
#155 = MANIFOLD_SOLID_BREP ( 'Revolve - Tool Body (Tipped Off)', #209 ) ;
#156 = CARTESIAN_POINT ( 'NONE',  ( 1.194283505456284948E-35, 7.727494760452073194E-19, 0.000000000000000000 ) ) ;
#157 = DIRECTION ( 'NONE',  ( -1.000000000000000000, 1.545498952090414639E-17, 0.000000000000000000 ) ) ;
#158 = DIRECTION ( 'NONE',  ( -1.000000000000000000, 0.000000000000000000, 0.000000000000000000 ) ) ;
#159 = PRESENTATION_LAYER_ASSIGNMENT (  '', '', ( #127 ) ) ;
#160 = CARTESIAN_POINT ( 'NONE',  ( -6.123233995736770966E-17, 3.000000000000000444, 0.000000000000000000 ) ) ;
#161 = SURFACE_STYLE_FILL_AREA ( #271 ) ;
#162 = FILL_AREA_STYLE_COLOUR ( '', #227 ) ;
#163 = VECTOR ( 'NONE', #294, 39.37007874015748854 ) ;
#164 = FILL_AREA_STYLE_COLOUR ( '', #300 ) ;
#165 = SURFACE_STYLE_FILL_AREA ( #250 ) ;
#166 = UNCERTAINTY_MEASURE_WITH_UNIT (LENGTH_MEASURE( 1.000000000000000082E-05 ), #226, 'distance_accuracy_value', 'NONE');
#167 = CARTESIAN_POINT ( 'NONE',  ( 2.899956267070462108E-18, 0.1876388374866273800, 0.000000000000000000 ) ) ;
#168 = DIRECTION ( 'NONE',  ( -1.545498952090414639E-17, -1.000000000000000000, 0.000000000000000000 ) ) ;
#169 = CIRCLE ( 'NONE', #253, 0.3749999999999996669 ) ;
#170 = SURFACE_SIDE_STYLE ('',( #279 ) ) ;
#171 = ORIENTED_EDGE ( 'NONE', *, *, #303, .T. ) ;
#172 = ADVANCED_FACE ( 'NONE', ( #212 ), #90, .T. ) ;
#173 = COLOUR_RGB ( '',1.000000000000000000, 0.000000000000000000, 0.000000000000000000 ) ;
#174 = DIRECTION ( 'NONE',  ( 1.431940337298288554E-16, -1.000000000000000000, 0.000000000000000000 ) ) ;
#175 = AXIS2_PLACEMENT_3D ( 'NONE', #30, #308, #286 ) ;
#176 = DIRECTION ( 'NONE',  ( -1.000000000000000000, 1.545498952090414639E-17, 0.000000000000000000 ) ) ;
#177 = ORIENTED_EDGE ( 'NONE', *, *, #117, .T. ) ;
#178 = ORIENTED_EDGE ( 'NONE', *, *, #274, .T. ) ;
#179 =( GEOMETRIC_REPRESENTATION_CONTEXT ( 3 ) GLOBAL_UNCERTAINTY_ASSIGNED_CONTEXT ( ( #299 ) ) GLOBAL_UNIT_ASSIGNED_CONTEXT ( ( #213, #232, #92 ) ) REPRESENTATION_CONTEXT ( 'NONE', 'WORKASPACE' ) );
#180 = ADVANCED_FACE ( 'NONE', ( #61 ), #113, .T. ) ;
#181 = CARTESIAN_POINT ( 'NONE',  ( 3.414809992080329023E-16, 0.1876388374866272135, 0.000000000000000000 ) ) ;
#182 = DIRECTION ( 'NONE',  ( -1.431940337298288554E-16, 1.000000000000000000, -0.000000000000000000 ) ) ;
#183 = AXIS2_PLACEMENT_3D ( 'NONE', #156, #287, #103 ) ;
#184 = STYLED_ITEM ( 'NONE', ( #135 ), #125 ) ;
#185 =( CONVERSION_BASED_UNIT ( 'INCH', #302 ) LENGTH_UNIT ( ) NAMED_UNIT ( #68 ) );
#186 = CARTESIAN_POINT ( 'NONE',  ( -6.123233995736770966E-17, 3.000000000000000444, 0.000000000000000000 ) ) ;
#187 =( NAMED_UNIT ( * ) SI_UNIT ( $, .STERADIAN. ) SOLID_ANGLE_UNIT ( ) );
#188 =( NAMED_UNIT ( * ) SI_UNIT ( $, .STERADIAN. ) SOLID_ANGLE_UNIT ( ) );
#189 = FILL_AREA_STYLE ('',( #67 ) ) ;
#190 = SHAPE_DEFINITION_REPRESENTATION ( #224, #86 ) ;
#191 = SURFACE_SIDE_STYLE ('',( #49 ) ) ;
#192 = DIMENSIONAL_EXPONENTS ( 1.000000000000000000, 0.000000000000000000, 0.000000000000000000, 0.000000000000000000, 0.000000000000000000, 0.000000000000000000, 0.000000000000000000 ) ;
#193 = DIRECTION ( 'NONE',  ( -1.000000000000000000, -1.431940337298288554E-16, 0.000000000000000000 ) ) ;
#194 = PRODUCT ( '07037', '07037', '', ( #97 ) ) ;
#195 =( LENGTH_UNIT ( ) NAMED_UNIT ( * ) SI_UNIT ( $, .METRE. ) );
#196 = PRESENTATION_LAYER_ASSIGNMENT (  '', '', ( #45 ) ) ;
#197 = CARTESIAN_POINT ( 'NONE',  ( 1.194283505456284948E-35, 7.727494760452073194E-19, 0.000000000000000000 ) ) ;
#198 = FACE_OUTER_BOUND ( 'NONE', #267, .T. ) ;
#199 = EDGE_LOOP ( 'NONE', ( #200, #75, #104, #8 ) ) ;
#200 = ORIENTED_EDGE ( 'NONE', *, *, #91, .F. ) ;
#201 = ORIENTED_EDGE ( 'NONE', *, *, #303, .F. ) ;
#202 = CIRCLE ( 'NONE', #272, 0.3750000000000000555 ) ;
#203 = MECHANICAL_DESIGN_GEOMETRIC_PRESENTATION_REPRESENTATION (  '', ( #109 ), #307 ) ;
#204 =( LENGTH_UNIT ( ) NAMED_UNIT ( * ) SI_UNIT ( $, .METRE. ) );
#205 = CARTESIAN_POINT ( 'NONE',  ( 0.3750000000000000555, 0.1876388374866273800, 4.592425496802575451E-17 ) ) ;
#206 = FILL_AREA_STYLE_COLOUR ( '', #34 ) ;
#207 = LENGTH_MEASURE_WITH_UNIT ( LENGTH_MEASURE( 0.02539999999999999897 ), #110 );
#208 = APPLICATION_CONTEXT ( 'automotive_design' ) ;
#209 = CLOSED_SHELL ( 'NONE', ( #84, #256, #172, #12 ) ) ;
#210 = MECHANICAL_DESIGN_GEOMETRIC_PRESENTATION_REPRESENTATION (  '', ( #248 ), #269 ) ;
#211 = AXIS2_PLACEMENT_3D ( 'NONE', #145, #112, #69 ) ;
#212 = FACE_OUTER_BOUND ( 'NONE', #199, .T. ) ;
#213 =( CONVERSION_BASED_UNIT ( 'INCH', #231 ) LENGTH_UNIT ( ) NAMED_UNIT ( #66 ) );
#214 = VECTOR ( 'NONE', #136, 39.37007874015748143 ) ;
#215 = PRODUCT_DEFINITION ( 'UNKNOWN', '', #62, #137 ) ;
#216 = DIRECTION ( 'NONE',  ( -1.545498952090414639E-17, -1.000000000000000000, -0.000000000000000000 ) ) ;
#217 =( NAMED_UNIT ( * ) PLANE_ANGLE_UNIT ( ) SI_UNIT ( $, .RADIAN. ) );
#218 = ORIENTED_EDGE ( 'NONE', *, *, #17, .F. ) ;
#219 = ORIENTED_EDGE ( 'NONE', *, *, #100, .F. ) ;
#220 = PLANE ( 'NONE',  #131 ) ;
#221 = VECTOR ( 'NONE', #28, 39.37007874015748143 ) ;
#222 = LINE ( 'NONE', #6, #281 ) ;
#223 = EDGE_LOOP ( 'NONE', ( #201, #26 ) ) ;
#224 = PRODUCT_DEFINITION_SHAPE ( 'NONE', 'NONE',  #215 ) ;
#225 = CARTESIAN_POINT ( 'NONE',  ( 0.05000000000000000278, 0.000000000000000000, 2.602374448188125966E-17 ) ) ;
#226 =( CONVERSION_BASED_UNIT ( 'INCH', #207 ) LENGTH_UNIT ( ) NAMED_UNIT ( #284 ) );
#227 = COLOUR_RGB ( '',1.000000000000000000, 0.000000000000000000, 0.000000000000000000 ) ;
#228 = CARTESIAN_POINT ( 'NONE',  ( 0.05000000000000000278, 0.000000000000000000, 6.123233995736766344E-18 ) ) ;
#229 = ADVANCED_FACE ( 'NONE', ( #237 ), #242, .T. ) ;
#230 = SURFACE_SIDE_STYLE ('',( #165 ) ) ;
#231 = LENGTH_MEASURE_WITH_UNIT ( LENGTH_MEASURE( 0.02539999999999999897 ), #204 );
#232 =( NAMED_UNIT ( * ) PLANE_ANGLE_UNIT ( ) SI_UNIT ( $, .RADIAN. ) );
#233 = LENGTH_MEASURE_WITH_UNIT ( LENGTH_MEASURE( 0.02539999999999999897 ), #142 );
#234 = ADVANCED_FACE ( 'NONE', ( #198 ), #105, .T. ) ;
#235 = ORIENTED_EDGE ( 'NONE', *, *, #280, .F. ) ;
#236 = ORIENTED_EDGE ( 'NONE', *, *, #274, .F. ) ;
#237 = FACE_OUTER_BOUND ( 'NONE', #223, .T. ) ;
#238 = LINE ( 'NONE', #3, #221 ) ;
#239 = SURFACE_STYLE_FILL_AREA ( #121 ) ;
#240 = AXIS2_PLACEMENT_3D ( 'NONE', #241, #174, #148 ) ;
#241 = CARTESIAN_POINT ( 'NONE',  ( 0.3750000000000000555, 3.000000000000000444, 0.000000000000000000 ) ) ;
#242 = PLANE ( 'NONE',  #175 ) ;
#243 = CARTESIAN_POINT ( 'NONE',  ( 0.3750000000000000555, 3.000000000000000444, 4.592425496802573602E-17 ) ) ;
#244 = COLOUR_RGB ( '',1.000000000000000000, 0.000000000000000000, 0.000000000000000000 ) ;
#245 = SURFACE_STYLE_USAGE ( .BOTH. , #247 ) ;
#246 = CARTESIAN_POINT ( 'NONE',  ( 1.194283505456284948E-35, 7.727494760452073194E-19, 0.000000000000000000 ) ) ;
#247 = SURFACE_SIDE_STYLE ('',( #161 ) ) ;
#248 = STYLED_ITEM ( 'NONE', ( #123 ), #234 ) ;
#249 = AXIS2_PLACEMENT_3D ( 'NONE', #167, #216, #285 ) ;
#250 = FILL_AREA_STYLE ('',( #164 ) ) ;
#251 = DIMENSIONAL_EXPONENTS ( 1.000000000000000000, 0.000000000000000000, 0.000000000000000000, 0.000000000000000000, 0.000000000000000000, 0.000000000000000000, 0.000000000000000000 ) ;
#252 =( NAMED_UNIT ( * ) PLANE_ANGLE_UNIT ( ) SI_UNIT ( $, .RADIAN. ) );
#253 = AXIS2_PLACEMENT_3D ( 'NONE', #181, #268, #35 ) ;
#254 = CARTESIAN_POINT ( 'NONE',  ( -0.3749999999999993339, 0.1876388374866271580, 0.000000000000000000 ) ) ;
#255 = UNCERTAINTY_MEASURE_WITH_UNIT (LENGTH_MEASURE( 1.000000000000000082E-05 ), #116, 'distance_accuracy_value', 'NONE');
#256 = ADVANCED_FACE ( 'NONE', ( #262 ), #220, .F. ) ;
#257 = DIRECTION ( 'NONE',  ( -1.000000000000000000, 0.000000000000000000, 0.000000000000000000 ) ) ;
#258 = FILL_AREA_STYLE_COLOUR ( '', #244 ) ;
#259 = ORIENTED_EDGE ( 'NONE', *, *, #7, .T. ) ;
#260 =( NAMED_UNIT ( * ) SI_UNIT ( $, .STERADIAN. ) SOLID_ANGLE_UNIT ( ) );
#261 = PLANE ( 'NONE',  #240 ) ;
#262 = FACE_OUTER_BOUND ( 'NONE', #150, .T. ) ;
#263 = ORIENTED_EDGE ( 'NONE', *, *, #100, .T. ) ;
#264 = VERTEX_POINT ( 'NONE', #20 ) ;
#265 = AXIS2_PLACEMENT_3D ( 'NONE', #160, #182, #37 ) ;
#266 = PRESENTATION_LAYER_ASSIGNMENT (  '', '', ( #109 ) ) ;
#267 = EDGE_LOOP ( 'NONE', ( #290, #263, #177, #129 ) ) ;
#268 = DIRECTION ( 'NONE',  ( -1.431940337298288554E-16, 1.000000000000000000, -0.000000000000000000 ) ) ;
#269 =( GEOMETRIC_REPRESENTATION_CONTEXT ( 3 ) GLOBAL_UNCERTAINTY_ASSIGNED_CONTEXT ( ( #88 ) ) GLOBAL_UNIT_ASSIGNED_CONTEXT ( ( #2, #217, #260 ) ) REPRESENTATION_CONTEXT ( 'NONE', 'WORKASPACE' ) );
#270 = CARTESIAN_POINT ( 'NONE',  ( -6.123233995736772199E-17, 3.000000000000000444, 0.000000000000000000 ) ) ;
#271 = FILL_AREA_STYLE ('',( #162 ) ) ;
#272 = AXIS2_PLACEMENT_3D ( 'NONE', #130, #81, #10 ) ;
#273 = AXIS2_PLACEMENT_3D ( 'NONE', #289, #74, #176 ) ;
#274 = EDGE_CURVE ( 'NONE', #264, #128, #114, .T. ) ;
#275 = PRESENTATION_STYLE_ASSIGNMENT (( #111 ) ) ;
#276 = SURFACE_STYLE_USAGE ( .BOTH. , #170 ) ;
#277 = DIRECTION ( 'NONE',  ( -1.000000000000000000, -1.821231995776177205E-16, 0.000000000000000000 ) ) ;
#278 = DIMENSIONAL_EXPONENTS ( 1.000000000000000000, 0.000000000000000000, 0.000000000000000000, 0.000000000000000000, 0.000000000000000000, 0.000000000000000000, 0.000000000000000000 ) ;
#279 = SURFACE_STYLE_FILL_AREA ( #189 ) ;
#280 = EDGE_CURVE ( 'NONE', #25, #309, #42, .T. ) ;
#281 = VECTOR ( 'NONE', #59, 39.37007874015748854 ) ;
#282 = MECHANICAL_DESIGN_GEOMETRIC_PRESENTATION_REPRESENTATION (  '', ( #184 ), #39 ) ;
#283 = SURFACE_STYLE_USAGE ( .BOTH. , #191 ) ;
#284 = DIMENSIONAL_EXPONENTS ( 1.000000000000000000, 0.000000000000000000, 0.000000000000000000, 0.000000000000000000, 0.000000000000000000, 0.000000000000000000, 0.000000000000000000 ) ;
#285 = DIRECTION ( 'NONE',  ( 1.000000000000000000, 0.000000000000000000, 0.000000000000000000 ) ) ;
#286 = DIRECTION ( 'NONE',  ( -1.000000000000000000, 1.545498952090414639E-17, 0.000000000000000000 ) ) ;
#287 = DIRECTION ( 'NONE',  ( -1.545498952090414639E-17, -1.000000000000000000, -0.000000000000000000 ) ) ;
#288 = PRESENTATION_LAYER_ASSIGNMENT (  '', '', ( #184 ) ) ;
#289 = CARTESIAN_POINT ( 'NONE',  ( 1.194283505456284948E-35, 7.727494760452073194E-19, 0.000000000000000000 ) ) ;
#290 = ORIENTED_EDGE ( 'NONE', *, *, #1, .F. ) ;
#291 = DIRECTION ( 'NONE',  ( 1.000000000000000000, -1.545498952090414639E-17, 0.000000000000000000 ) ) ;
#292 = ORIENTED_EDGE ( 'NONE', *, *, #1, .T. ) ;
#293 =( GEOMETRIC_REPRESENTATION_CONTEXT ( 3 ) GLOBAL_UNCERTAINTY_ASSIGNED_CONTEXT ( ( #298 ) ) GLOBAL_UNIT_ASSIGNED_CONTEXT ( ( #185, #252, #140 ) ) REPRESENTATION_CONTEXT ( 'NONE', 'WORKASPACE' ) );
#294 = DIRECTION ( 'NONE',  ( 0.8660254037844397068, 0.4999999999999979461, 1.060575238724908024E-16 ) ) ;
#295 = SURFACE_SIDE_STYLE ('',( #297 ) ) ;
#296 = CONICAL_SURFACE ( 'NONE', #82, 0.05000000000000000278, 1.047197551196600074 ) ;
#297 = SURFACE_STYLE_FILL_AREA ( #108 ) ;
#298 = UNCERTAINTY_MEASURE_WITH_UNIT (LENGTH_MEASURE( 1.000000000000000082E-05 ), #185, 'distance_accuracy_value', 'NONE');
#299 = UNCERTAINTY_MEASURE_WITH_UNIT (LENGTH_MEASURE( 1.000000000000000082E-05 ), #213, 'distance_accuracy_value', 'NONE');
#300 = COLOUR_RGB ( '',1.000000000000000000, 0.000000000000000000, 0.000000000000000000 ) ;
#301 = PRESENTATION_LAYER_ASSIGNMENT (  '', '', ( #22 ) ) ;
#302 = LENGTH_MEASURE_WITH_UNIT ( LENGTH_MEASURE( 0.02539999999999999897 ), #63 );
#303 = EDGE_CURVE ( 'NONE', #46, #101, #31, .T. ) ;
#304 = DIMENSIONAL_EXPONENTS ( 1.000000000000000000, 0.000000000000000000, 0.000000000000000000, 0.000000000000000000, 0.000000000000000000, 0.000000000000000000, 0.000000000000000000 ) ;
#305 =( NAMED_UNIT ( * ) PLANE_ANGLE_UNIT ( ) SI_UNIT ( $, .RADIAN. ) );
#306 =( NAMED_UNIT ( * ) PLANE_ANGLE_UNIT ( ) SI_UNIT ( $, .RADIAN. ) );
#307 =( GEOMETRIC_REPRESENTATION_CONTEXT ( 3 ) GLOBAL_UNCERTAINTY_ASSIGNED_CONTEXT ( ( #144 ) ) GLOBAL_UNIT_ASSIGNED_CONTEXT ( ( #149, #71, #52 ) ) REPRESENTATION_CONTEXT ( 'NONE', 'WORKASPACE' ) );
#308 = DIRECTION ( 'NONE',  ( 1.545498952090414639E-17, 1.000000000000000000, 0.000000000000000000 ) ) ;
#309 = VERTEX_POINT ( 'NONE', #254 ) ;
ENDSEC;
END-ISO-10303-21;
