ISO-10303-21;
HEADER;
FILE_DESCRIPTION (( 'STEP AP214' ),
    '1' );
FILE_NAME ('Micro_RDB-110.STEP',
    '2021-08-31T16:59:33',
    ( '' ),
    ( '' ),
    'SwSTEP 2.0',
    'SolidWorks 2020',
    '' );
FILE_SCHEMA (( 'AUTOMOTIVE_DESIGN' ));
ENDSEC;

DATA;
#1 = CARTESIAN_POINT ( 'NONE',  ( -0.2497500000000000553, 0.0000000000000000000, 3.058555380870515566E-17 ) ) ;
#2 = MANIFOLD_SOLID_BREP ( 'Cut-Revolve1', #170 ) ;
#3 = CYLINDRICAL_SURFACE ( 'NONE', #164, 0.2497500000000000553 ) ;
#4 = DIRECTION ( 'NONE',  ( 0.0000000000000000000, 0.0000000000000000000, 1.000000000000000000 ) ) ;
#5 = DIRECTION ( 'NONE',  ( -1.000000000000000000, 0.0000000000000000000, 0.0000000000000000000 ) ) ;
#6 = CARTESIAN_POINT ( 'NONE',  ( 0.0000000000000000000, 0.0000000000000000000, 2.985000000000001208 ) ) ;
#7 = CARTESIAN_POINT ( 'NONE',  ( 0.2350000000000011524, 2.969768487932338510E-17, 3.000000000000000444 ) ) ;
#8 = CARTESIAN_POINT ( 'NONE',  ( 0.0000000000000000000, 0.0000000000000000000, 3.000000000000000444 ) ) ;
#9 = FACE_OUTER_BOUND ( 'NONE', #85, .T. ) ;
#10 = EDGE_CURVE ( 'NONE', #180, #105, #165, .T. ) ;
#11 = PRODUCT_DEFINITION_FORMATION_WITH_SPECIFIED_SOURCE ( 'ANY', '', #205, .NOT_KNOWN. ) ;
#12 = FACE_OUTER_BOUND ( 'NONE', #135, .T. ) ;
#13 = AXIS2_PLACEMENT_3D ( 'NONE', #36, #243, #96 ) ;
#14 = DIRECTION ( 'NONE',  ( -1.000000000000000000, 0.0000000000000000000, 0.0000000000000000000 ) ) ;
#15 = PRODUCT_DEFINITION ( 'UNKNOWN', '', #11, #99 ) ;
#16 = ORIENTED_EDGE ( 'NONE', *, *, #253, .F. ) ;
#17 = DIMENSIONAL_EXPONENTS ( 1.000000000000000000, 0.0000000000000000000, 0.0000000000000000000, 0.0000000000000000000, 0.0000000000000000000, 0.0000000000000000000, 0.0000000000000000000 ) ;
#18 = ADVANCED_FACE ( 'NONE', ( #158 ), #67, .F. ) ;
#19 = ORIENTED_EDGE ( 'NONE', *, *, #63, .T. ) ;
#20 = CIRCLE ( 'NONE', #227, 0.2500000000000000000 ) ;
#21 = EDGE_LOOP ( 'NONE', ( #108, #110 ) ) ;
#22 =( NAMED_UNIT ( * ) SI_UNIT ( $, .STERADIAN. ) SOLID_ANGLE_UNIT ( ) );
#23 = DIMENSIONAL_EXPONENTS ( 1.000000000000000000, 0.0000000000000000000, 0.0000000000000000000, 0.0000000000000000000, 0.0000000000000000000, 0.0000000000000000000, 0.0000000000000000000 ) ;
#24 = ORIENTED_EDGE ( 'NONE', *, *, #116, .F. ) ;
#25 = ORIENTED_EDGE ( 'NONE', *, *, #134, .T. ) ;
#26 = CONICAL_SURFACE ( 'NONE', #95, 0.2497500000000000553, 0.1745329251994339192 ) ;
#27 = DIRECTION ( 'NONE',  ( -1.000000000000000000, 0.0000000000000000000, 1.224646799147353700E-16 ) ) ;
#28 = ADVANCED_FACE ( 'NONE', ( #280 ), #3, .T. ) ;
#29 = AXIS2_PLACEMENT_3D ( 'NONE', #162, #117, #277 ) ;
#30 = CIRCLE ( 'NONE', #196, 0.2497500000000000553 ) ;
#31 = PRESENTATION_STYLE_ASSIGNMENT (( #209 ) ) ;
#32 = FACE_OUTER_BOUND ( 'NONE', #152, .T. ) ;
#33 = FACE_OUTER_BOUND ( 'NONE', #21, .T. ) ;
#34 = DIRECTION ( 'NONE',  ( 0.0000000000000000000, 0.0000000000000000000, 1.000000000000000000 ) ) ;
#35 = CARTESIAN_POINT ( 'NONE',  ( 0.0000000000000000000, 0.0000000000000000000, 3.000000000000000444 ) ) ;
#36 = CARTESIAN_POINT ( 'NONE',  ( 0.0000000000000000000, 0.0000000000000000000, 0.0000000000000000000 ) ) ;
#37 = AXIS2_PLACEMENT_3D ( 'NONE', #91, #113, #283 ) ;
#38 = VERTEX_POINT ( 'NONE', #163 ) ;
#39 = SURFACE_STYLE_USAGE ( .BOTH. , #223 ) ;
#40 = ORIENTED_EDGE ( 'NONE', *, *, #151, .F. ) ;
#41 = APPLICATION_PROTOCOL_DEFINITION ( 'draft international standard', 'automotive_design', 1998, #215 ) ;
#42 = ORIENTED_EDGE ( 'NONE', *, *, #253, .T. ) ;
#43 = VECTOR ( 'NONE', #57, 39.37007874015748854 ) ;
#44 = SHAPE_DEFINITION_REPRESENTATION ( #111, #153 ) ;
#45 = SURFACE_SIDE_STYLE ('',( #256 ) ) ;
#46 = DIRECTION ( 'NONE',  ( 1.000000000000000000, 0.0000000000000000000, 0.0000000000000000000 ) ) ;
#47 = ORIENTED_EDGE ( 'NONE', *, *, #172, .T. ) ;
#48 = DIRECTION ( 'NONE',  ( -1.000000000000000000, 0.0000000000000000000, 0.0000000000000000000 ) ) ;
#49 = AXIS2_PLACEMENT_3D ( 'NONE', #245, #80, #46 ) ;
#50 = DIRECTION ( 'NONE',  ( 0.0000000000000000000, 0.0000000000000000000, -1.000000000000000000 ) ) ;
#51 = CARTESIAN_POINT ( 'NONE',  ( 1.224646799147353454E-16, 0.0000000000000000000, 1.000000000000000000 ) ) ;
#52 = CONICAL_SURFACE ( 'NONE', #86, 0.2350000000000011524, 0.7853981633974380649 ) ;
#53 = CARTESIAN_POINT ( 'NONE',  ( -0.2497499999999999165, 3.058555380870515566E-17, 1.000000000000000000 ) ) ;
#54 = DIRECTION ( 'NONE',  ( -1.224646799147353454E-16, -0.0000000000000000000, -1.000000000000000000 ) ) ;
#55 = STYLED_ITEM ( 'NONE', ( #31 ), #2 ) ;
#56 = DIRECTION ( 'NONE',  ( -1.000000000000000000, 0.0000000000000000000, 0.0000000000000000000 ) ) ;
#57 = DIRECTION ( 'NONE',  ( 0.7071067811865402453, 8.659560562354845344E-17, -0.7071067811865546782 ) ) ;
#58 = CARTESIAN_POINT ( 'NONE',  ( 0.2500000000000000000, 3.061616997868382402E-17, 2.985000000000001208 ) ) ;
#59 = FILL_AREA_STYLE_COLOUR ( '', #213 ) ;
#60 = ORIENTED_EDGE ( 'NONE', *, *, #258, .T. ) ;
#61 =( LENGTH_UNIT ( ) NAMED_UNIT ( * ) SI_UNIT ( $, .METRE. ) );
#62 = ORIENTED_EDGE ( 'NONE', *, *, #151, .T. ) ;
#63 = EDGE_CURVE ( 'NONE', #273, #90, #69, .T. ) ;
#64 = AXIS2_PLACEMENT_3D ( 'NONE', #79, #216, #103 ) ;
#65 = EDGE_LOOP ( 'NONE', ( #294, #184, #130, #229 ) ) ;
#66 = ORIENTED_EDGE ( 'NONE', *, *, #197, .F. ) ;
#67 = PLANE ( 'NONE',  #37 ) ;
#68 = FACE_OUTER_BOUND ( 'NONE', #65, .T. ) ;
#69 = LINE ( 'NONE', #278, #291 ) ;
#70 = DIRECTION ( 'NONE',  ( -0.0000000000000000000, -0.0000000000000000000, -1.000000000000000000 ) ) ;
#71 = EDGE_CURVE ( 'NONE', #180, #90, #125, .T. ) ;
#72 = AXIS2_PLACEMENT_3D ( 'NONE', #188, #118, #48 ) ;
#73 = COLOUR_RGB ( '',0.7921568627450980005, 0.8196078431372548767, 0.9333333333333333481 ) ;
#74 = DIRECTION ( 'NONE',  ( -0.0000000000000000000, -0.0000000000000000000, -1.000000000000000000 ) ) ;
#75 = DIRECTION ( 'NONE',  ( -1.000000000000000000, 0.0000000000000000000, 1.224646799147353700E-16 ) ) ;
#76 = CARTESIAN_POINT ( 'NONE',  ( 0.2497500000000000553, 3.058555380870515566E-17, -3.058555380870515566E-17 ) ) ;
#77 = CARTESIAN_POINT ( 'NONE',  ( 0.2497500000000001941, 0.0000000000000000000, 1.000000000000000000 ) ) ;
#78 = APPLICATION_CONTEXT ( 'automotive_design' ) ;
#79 = CARTESIAN_POINT ( 'NONE',  ( 1.224646799147353454E-16, 0.0000000000000000000, 1.000000000000000000 ) ) ;
#80 = DIRECTION ( 'NONE',  ( -1.224646799147353454E-16, -0.0000000000000000000, -1.000000000000000000 ) ) ;
#81 = EDGE_LOOP ( 'NONE', ( #25, #47, #183, #24 ) ) ;
#82 = ORIENTED_EDGE ( 'NONE', *, *, #71, .T. ) ;
#83 = EDGE_CURVE ( 'NONE', #88, #105, #148, .T. ) ;
#84 =( NAMED_UNIT ( * ) PLANE_ANGLE_UNIT ( ) SI_UNIT ( $, .RADIAN. ) );
#85 = EDGE_LOOP ( 'NONE', ( #40, #16, #252, #296 ) ) ;
#86 = AXIS2_PLACEMENT_3D ( 'NONE', #8, #263, #222 ) ;
#87 =( LENGTH_UNIT ( ) NAMED_UNIT ( * ) SI_UNIT ( $, .METRE. ) );
#88 = VERTEX_POINT ( 'NONE', #212 ) ;
#89 = MECHANICAL_DESIGN_GEOMETRIC_PRESENTATION_REPRESENTATION (  '', ( #55 ), #289 ) ;
#90 = VERTEX_POINT ( 'NONE', #238 ) ;
#91 = CARTESIAN_POINT ( 'NONE',  ( 0.0000000000000000000, 0.0000000000000000000, 0.0000000000000000000 ) ) ;
#92 = ADVANCED_FACE ( 'NONE', ( #68 ), #274, .T. ) ;
#93 = EDGE_CURVE ( 'NONE', #179, #224, #275, .T. ) ;
#94 =( LENGTH_UNIT ( ) NAMED_UNIT ( * ) SI_UNIT ( $, .METRE. ) );
#95 = AXIS2_PLACEMENT_3D ( 'NONE', #119, #214, #144 ) ;
#96 = DIRECTION ( 'NONE',  ( -1.000000000000000000, 0.0000000000000000000, 1.224646799147353207E-16 ) ) ;
#97 = PRODUCT_RELATED_PRODUCT_CATEGORY ( 'part', '', ( #205 ) ) ;
#98 = CARTESIAN_POINT ( 'NONE',  ( -0.2350000000000011524, 0.0000000000000000000, 3.000000000000000444 ) ) ;
#99 = PRODUCT_DEFINITION_CONTEXT ( 'detailed design', #78, 'design' ) ;
#100 = CARTESIAN_POINT ( 'NONE',  ( -0.2497499999999999165, 3.060086189369449292E-17, 1.000000000000000000 ) ) ;
#101 = VECTOR ( 'NONE', #246, 39.37007874015748143 ) ;
#102 = VECTOR ( 'NONE', #211, 39.37007874015748143 ) ;
#103 = DIRECTION ( 'NONE',  ( 1.000000000000000000, 0.0000000000000000000, 0.0000000000000000000 ) ) ;
#104 = DIMENSIONAL_EXPONENTS ( 1.000000000000000000, 0.0000000000000000000, 0.0000000000000000000, 0.0000000000000000000, 0.0000000000000000000, 0.0000000000000000000, 0.0000000000000000000 ) ;
#105 = VERTEX_POINT ( 'NONE', #187 ) ;
#106 = ORIENTED_EDGE ( 'NONE', *, *, #83, .F. ) ;
#107 = LENGTH_MEASURE_WITH_UNIT ( LENGTH_MEASURE( 0.02539999999999999897 ), #87 );
#108 = ORIENTED_EDGE ( 'NONE', *, *, #131, .T. ) ;
#109 = EDGE_LOOP ( 'NONE', ( #208, #202 ) ) ;
#110 = ORIENTED_EDGE ( 'NONE', *, *, #240, .T. ) ;
#111 = PRODUCT_DEFINITION_SHAPE ( 'NONE', 'NONE',  #15 ) ;
#112 = DIRECTION ( 'NONE',  ( 0.0000000000000000000, 0.0000000000000000000, -1.000000000000000000 ) ) ;
#113 = DIRECTION ( 'NONE',  ( 0.0000000000000000000, 0.0000000000000000000, 1.000000000000000000 ) ) ;
#114 = AXIS2_PLACEMENT_3D ( 'NONE', #169, #122, #75 ) ;
#115 = CARTESIAN_POINT ( 'NONE',  ( 0.0000000000000000000, 0.0000000000000000000, 2.985000000000001208 ) ) ;
#116 = EDGE_CURVE ( 'NONE', #250, #224, #235, .T. ) ;
#117 = DIRECTION ( 'NONE',  ( -1.224646799147353454E-16, -0.0000000000000000000, -1.000000000000000000 ) ) ;
#118 = DIRECTION ( 'NONE',  ( 0.0000000000000000000, 0.0000000000000000000, -1.000000000000000000 ) ) ;
#119 = CARTESIAN_POINT ( 'NONE',  ( 1.224646799147353454E-16, 0.0000000000000000000, 1.000000000000000000 ) ) ;
#120 = CARTESIAN_POINT ( 'NONE',  ( -0.2497499999999999998, 0.0000000000000000000, 6.117110761741031132E-17 ) ) ;
#121 = DIRECTION ( 'NONE',  ( 1.000000000000000000, 0.0000000000000000000, 0.0000000000000000000 ) ) ;
#122 = DIRECTION ( 'NONE',  ( -1.224646799147353454E-16, -0.0000000000000000000, -1.000000000000000000 ) ) ;
#123 = EDGE_CURVE ( 'NONE', #90, #180, #20, .T. ) ;
#124 = AXIS2_PLACEMENT_3D ( 'NONE', #292, #54, #14 ) ;
#125 = CIRCLE ( 'NONE', #156, 0.2500000000000000000 ) ;
#126 = CARTESIAN_POINT ( 'NONE',  ( 0.2350000000000011524, 2.877919977996294002E-17, 3.000000000000000444 ) ) ;
#127 = UNCERTAINTY_MEASURE_WITH_UNIT (LENGTH_MEASURE( 1.000000000000000082E-05 ), #133, 'distance_accuracy_value', 'NONE');
#128 = FILL_AREA_STYLE ('',( #59 ) ) ;
#129 = ORIENTED_EDGE ( 'NONE', *, *, #228, .F. ) ;
#130 = ORIENTED_EDGE ( 'NONE', *, *, #123, .F. ) ;
#131 = EDGE_CURVE ( 'NONE', #273, #176, #265, .T. ) ;
#132 = FILL_AREA_STYLE ('',( #255 ) ) ;
#133 =( CONVERSION_BASED_UNIT ( 'INCH', #201 ) LENGTH_UNIT ( ) NAMED_UNIT ( #17 ) );
#134 = EDGE_CURVE ( 'NONE', #250, #38, #30, .T. ) ;
#135 = EDGE_LOOP ( 'NONE', ( #269, #82, #60, #150 ) ) ;
#136 = DIRECTION ( 'NONE',  ( -1.224646799147353454E-16, -0.0000000000000000000, -1.000000000000000000 ) ) ;
#137 = CARTESIAN_POINT ( 'NONE',  ( 0.0000000000000000000, 0.0000000000000000000, 3.000000000000000444 ) ) ;
#138 = DIRECTION ( 'NONE',  ( -1.000000000000000000, 0.0000000000000000000, 1.224646799147353207E-16 ) ) ;
#139 = VECTOR ( 'NONE', #191, 39.37007874015748143 ) ;
#140 = DIRECTION ( 'NONE',  ( -1.224646799147353454E-16, -0.0000000000000000000, -1.000000000000000000 ) ) ;
#141 = AXIS2_PLACEMENT_3D ( 'NONE', #199, #181, #254 ) ;
#142 = ADVANCED_FACE ( 'NONE', ( #9 ), #247, .T. ) ;
#143 = CARTESIAN_POINT ( 'NONE',  ( 0.2500000000000000000, 3.061616997868382402E-17, 3.000000000000000444 ) ) ;
#144 = DIRECTION ( 'NONE',  ( 1.000000000000000000, 0.0000000000000000000, 0.0000000000000000000 ) ) ;
#145 = CARTESIAN_POINT ( 'NONE',  ( 0.0000000000000000000, 0.0000000000000000000, 3.000000000000000444 ) ) ;
#146 = CYLINDRICAL_SURFACE ( 'NONE', #268, 0.2500000000000000000 ) ;
#147 = CARTESIAN_POINT ( 'NONE',  ( -0.2500000000000000000, 0.0000000000000000000, 3.000000000000000444 ) ) ;
#148 = CIRCLE ( 'NONE', #29, 0.2500000000000000000 ) ;
#149 = PRODUCT_CONTEXT ( 'NONE', #215, 'mechanical' ) ;
#150 = ORIENTED_EDGE ( 'NONE', *, *, #287, .F. ) ;
#151 = EDGE_CURVE ( 'NONE', #250, #88, #285, .T. ) ;
#152 = EDGE_LOOP ( 'NONE', ( #230, #62, #203, #66 ) ) ;
#153 = ADVANCED_BREP_SHAPE_REPRESENTATION ( 'Micro_RDB-110', ( #2, #141 ), #233 ) ;
#154 = ADVANCED_FACE ( 'NONE', ( #190 ), #173, .T. ) ;
#155 = EDGE_LOOP ( 'NONE', ( #226, #232, #106, #159 ) ) ;
#156 = AXIS2_PLACEMENT_3D ( 'NONE', #115, #50, #241 ) ;
#157 = AXIS2_PLACEMENT_3D ( 'NONE', #282, #136, #27 ) ;
#158 = FACE_OUTER_BOUND ( 'NONE', #109, .T. ) ;
#159 = ORIENTED_EDGE ( 'NONE', *, *, #258, .F. ) ;
#160 =( NAMED_UNIT ( * ) PLANE_ANGLE_UNIT ( ) SI_UNIT ( $, .RADIAN. ) );
#161 =( GEOMETRIC_REPRESENTATION_CONTEXT ( 3 ) GLOBAL_UNCERTAINTY_ASSIGNED_CONTEXT ( ( #127 ) ) GLOBAL_UNIT_ASSIGNED_CONTEXT ( ( #133, #293, #178 ) ) REPRESENTATION_CONTEXT ( 'NONE', 'WORKASPACE' ) );
#162 = CARTESIAN_POINT ( 'NONE',  ( 1.226383128429217454E-16, 0.0000000000000000000, 1.001417820454904017 ) ) ;
#163 = CARTESIAN_POINT ( 'NONE',  ( 0.2497500000000001941, 0.0000000000000000000, 1.000000000000000000 ) ) ;
#164 = AXIS2_PLACEMENT_3D ( 'NONE', #261, #185, #138 ) ;
#165 = LINE ( 'NONE', #143, #249 ) ;
#166 = PRESENTATION_LAYER_ASSIGNMENT (  '', '', ( #55 ) ) ;
#167 = DIRECTION ( 'NONE',  ( -0.1736481776669312194, 2.126576849575783625E-17, 0.9848077530122080203 ) ) ;
#168 = LINE ( 'NONE', #126, #43 ) ;
#169 = CARTESIAN_POINT ( 'NONE',  ( 3.745650057197990990E-33, 0.0000000000000000000, 3.058555380870515566E-17 ) ) ;
#170 = CLOSED_SHELL ( 'NONE', ( #154, #270, #92, #281, #217, #177, #236, #142, #28, #18 ) ) ;
#171 = AXIS2_PLACEMENT_3D ( 'NONE', #137, #4, #237 ) ;
#172 = EDGE_CURVE ( 'NONE', #38, #179, #267, .T. ) ;
#173 = CYLINDRICAL_SURFACE ( 'NONE', #13, 0.2497500000000000553 ) ;
#174 = CYLINDRICAL_SURFACE ( 'NONE', #207, 0.2500000000000000000 ) ;
#175 = UNCERTAINTY_MEASURE_WITH_UNIT (LENGTH_MEASURE( 1.000000000000000082E-05 ), #210, 'distance_accuracy_value', 'NONE');
#176 = VERTEX_POINT ( 'NONE', #7 ) ;
#177 = ADVANCED_FACE ( 'NONE', ( #33 ), #290, .T. ) ;
#178 =( NAMED_UNIT ( * ) SI_UNIT ( $, .STERADIAN. ) SOLID_ANGLE_UNIT ( ) );
#179 = VERTEX_POINT ( 'NONE', #193 ) ;
#180 = VERTEX_POINT ( 'NONE', #58 ) ;
#181 = DIRECTION ( 'NONE',  ( 0.0000000000000000000, 0.0000000000000000000, 1.000000000000000000 ) ) ;
#182 = AXIS2_PLACEMENT_3D ( 'NONE', #145, #198, #218 ) ;
#183 = ORIENTED_EDGE ( 'NONE', *, *, #204, .F. ) ;
#184 = ORIENTED_EDGE ( 'NONE', *, *, #228, .T. ) ;
#185 = DIRECTION ( 'NONE',  ( -1.224646799147353454E-16, -0.0000000000000000000, -1.000000000000000000 ) ) ;
#186 =( NAMED_UNIT ( * ) SI_UNIT ( $, .STERADIAN. ) SOLID_ANGLE_UNIT ( ) );
#187 = CARTESIAN_POINT ( 'NONE',  ( 0.2500000000000001110, 3.061616997868383634E-17, 1.001417820454904017 ) ) ;
#188 = CARTESIAN_POINT ( 'NONE',  ( 0.0000000000000000000, 0.0000000000000000000, 3.000000000000000444 ) ) ;
#189 = CIRCLE ( 'NONE', #49, 0.2500000000000000000 ) ;
#190 = FACE_OUTER_BOUND ( 'NONE', #81, .T. ) ;
#191 = DIRECTION ( 'NONE',  ( -1.224646799147353454E-16, -0.0000000000000000000, -1.000000000000000000 ) ) ;
#192 = FACE_OUTER_BOUND ( 'NONE', #155, .T. ) ;
#193 = CARTESIAN_POINT ( 'NONE',  ( 0.2497499999999999998, 3.058555380870514950E-17, -3.791200677927629740E-33 ) ) ;
#194 = VECTOR ( 'NONE', #167, 39.37007874015747433 ) ;
#195 = STYLED_ITEM ( 'NONE', ( #225 ), #153 ) ;
#196 = AXIS2_PLACEMENT_3D ( 'NONE', #51, #140, #5 ) ;
#197 = EDGE_CURVE ( 'NONE', #38, #105, #286, .T. ) ;
#198 = DIRECTION ( 'NONE',  ( 0.0000000000000000000, 0.0000000000000000000, 1.000000000000000000 ) ) ;
#199 = CARTESIAN_POINT ( 'NONE',  ( 0.0000000000000000000, 0.0000000000000000000, 0.0000000000000000000 ) ) ;
#200 = ORIENTED_EDGE ( 'NONE', *, *, #131, .F. ) ;
#201 = LENGTH_MEASURE_WITH_UNIT ( LENGTH_MEASURE( 0.02539999999999999897 ), #61 );
#202 = ORIENTED_EDGE ( 'NONE', *, *, #93, .T. ) ;
#203 = ORIENTED_EDGE ( 'NONE', *, *, #83, .T. ) ;
#204 = EDGE_CURVE ( 'NONE', #224, #179, #221, .T. ) ;
#205 = PRODUCT ( 'Micro_RDB-110', 'Micro_RDB-110', '', ( #149 ) ) ;
#206 = EDGE_LOOP ( 'NONE', ( #271, #42, #295, #297 ) ) ;
#207 = AXIS2_PLACEMENT_3D ( 'NONE', #262, #266, #244 ) ;
#208 = ORIENTED_EDGE ( 'NONE', *, *, #204, .T. ) ;
#209 = SURFACE_STYLE_USAGE ( .BOTH. , #45 ) ;
#210 =( CONVERSION_BASED_UNIT ( 'INCH', #239 ) LENGTH_UNIT ( ) NAMED_UNIT ( #23 ) );
#211 = DIRECTION ( 'NONE',  ( -1.224646799147353454E-16, -0.0000000000000000000, -1.000000000000000000 ) ) ;
#212 = CARTESIAN_POINT ( 'NONE',  ( -0.2499999999999998612, 0.0000000000000000000, 1.001417820454904017 ) ) ;
#213 = COLOUR_RGB ( '',0.7921568627450980005, 0.8196078431372548767, 0.9333333333333333481 ) ;
#214 = DIRECTION ( 'NONE',  ( 1.224646799147353454E-16, 0.0000000000000000000, 1.000000000000000000 ) ) ;
#215 = APPLICATION_CONTEXT ( 'automotive_design' ) ;
#216 = DIRECTION ( 'NONE',  ( 1.224646799147353454E-16, 0.0000000000000000000, 1.000000000000000000 ) ) ;
#217 = ADVANCED_FACE ( 'NONE', ( #12 ), #174, .T. ) ;
#218 = DIRECTION ( 'NONE',  ( 1.000000000000000000, 0.0000000000000000000, -0.0000000000000000000 ) ) ;
#219 = FACE_OUTER_BOUND ( 'NONE', #276, .T. ) ;
#220 = AXIS2_PLACEMENT_3D ( 'NONE', #35, #34, #121 ) ;
#221 = CIRCLE ( 'NONE', #114, 0.2497499999999999998 ) ;
#222 = DIRECTION ( 'NONE',  ( -1.000000000000000000, 0.0000000000000000000, 0.0000000000000000000 ) ) ;
#223 = SURFACE_SIDE_STYLE ('',( #272 ) ) ;
#224 = VERTEX_POINT ( 'NONE', #120 ) ;
#225 = PRESENTATION_STYLE_ASSIGNMENT (( #39 ) ) ;
#226 = ORIENTED_EDGE ( 'NONE', *, *, #123, .T. ) ;
#227 = AXIS2_PLACEMENT_3D ( 'NONE', #6, #112, #257 ) ;
#228 = EDGE_CURVE ( 'NONE', #176, #180, #168, .T. ) ;
#229 = ORIENTED_EDGE ( 'NONE', *, *, #63, .F. ) ;
#230 = ORIENTED_EDGE ( 'NONE', *, *, #134, .F. ) ;
#231 = APPLICATION_PROTOCOL_DEFINITION ( 'draft international standard', 'automotive_design', 1998, #78 ) ;
#232 = ORIENTED_EDGE ( 'NONE', *, *, #10, .T. ) ;
#233 =( GEOMETRIC_REPRESENTATION_CONTEXT ( 3 ) GLOBAL_UNCERTAINTY_ASSIGNED_CONTEXT ( ( #248 ) ) GLOBAL_UNIT_ASSIGNED_CONTEXT ( ( #251, #84, #22 ) ) REPRESENTATION_CONTEXT ( 'NONE', 'WORKASPACE' ) );
#234 = MECHANICAL_DESIGN_GEOMETRIC_PRESENTATION_REPRESENTATION (  '', ( #195 ), #161 ) ;
#235 = LINE ( 'NONE', #1, #102 ) ;
#236 = ADVANCED_FACE ( 'NONE', ( #219 ), #52, .T. ) ;
#237 = DIRECTION ( 'NONE',  ( 1.000000000000000000, 0.0000000000000000000, 0.0000000000000000000 ) ) ;
#238 = CARTESIAN_POINT ( 'NONE',  ( -0.2500000000000000000, 0.0000000000000000000, 2.985000000000001208 ) ) ;
#239 = LENGTH_MEASURE_WITH_UNIT ( LENGTH_MEASURE( 0.02539999999999999897 ), #94 );
#240 = EDGE_CURVE ( 'NONE', #176, #273, #279, .T. ) ;
#241 = DIRECTION ( 'NONE',  ( 1.000000000000000000, 0.0000000000000000000, 0.0000000000000000000 ) ) ;
#242 = LINE ( 'NONE', #147, #298 ) ;
#243 = DIRECTION ( 'NONE',  ( -1.224646799147353454E-16, -0.0000000000000000000, -1.000000000000000000 ) ) ;
#244 = DIRECTION ( 'NONE',  ( -1.000000000000000000, 0.0000000000000000000, 0.0000000000000000000 ) ) ;
#245 = CARTESIAN_POINT ( 'NONE',  ( 1.226383128429217454E-16, 0.0000000000000000000, 1.001417820454904017 ) ) ;
#246 = DIRECTION ( 'NONE',  ( 0.1736481776669314137, 0.0000000000000000000, 0.9848077530122077983 ) ) ;
#247 = CONICAL_SURFACE ( 'NONE', #64, 0.2497500000000000553, 0.1745329251994339192 ) ;
#248 = UNCERTAINTY_MEASURE_WITH_UNIT (LENGTH_MEASURE( 1.000000000000000082E-05 ), #251, 'distance_accuracy_value', 'NONE');
#249 = VECTOR ( 'NONE', #70, 39.37007874015748143 ) ;
#250 = VERTEX_POINT ( 'NONE', #100 ) ;
#251 =( CONVERSION_BASED_UNIT ( 'INCH', #107 ) LENGTH_UNIT ( ) NAMED_UNIT ( #104 ) );
#252 = ORIENTED_EDGE ( 'NONE', *, *, #197, .T. ) ;
#253 = EDGE_CURVE ( 'NONE', #38, #250, #260, .T. ) ;
#254 = DIRECTION ( 'NONE',  ( 1.000000000000000000, 0.0000000000000000000, 0.0000000000000000000 ) ) ;
#255 = FILL_AREA_STYLE_COLOUR ( '', #73 ) ;
#256 = SURFACE_STYLE_FILL_AREA ( #132 ) ;
#257 = DIRECTION ( 'NONE',  ( 1.000000000000000000, 0.0000000000000000000, 0.0000000000000000000 ) ) ;
#258 = EDGE_CURVE ( 'NONE', #90, #88, #242, .T. ) ;
#259 = DIRECTION ( 'NONE',  ( -0.7071067811865402453, 0.0000000000000000000, -0.7071067811865546782 ) ) ;
#260 = CIRCLE ( 'NONE', #124, 0.2497500000000000553 ) ;
#261 = CARTESIAN_POINT ( 'NONE',  ( 0.0000000000000000000, 0.0000000000000000000, 0.0000000000000000000 ) ) ;
#262 = CARTESIAN_POINT ( 'NONE',  ( 0.0000000000000000000, 0.0000000000000000000, 3.000000000000000444 ) ) ;
#263 = DIRECTION ( 'NONE',  ( 0.0000000000000000000, 0.0000000000000000000, -1.000000000000000000 ) ) ;
#264 = DIRECTION ( 'NONE',  ( -0.0000000000000000000, -0.0000000000000000000, -1.000000000000000000 ) ) ;
#265 = CIRCLE ( 'NONE', #171, 0.2350000000000011524 ) ;
#266 = DIRECTION ( 'NONE',  ( -0.0000000000000000000, -0.0000000000000000000, -1.000000000000000000 ) ) ;
#267 = LINE ( 'NONE', #76, #139 ) ;
#268 = AXIS2_PLACEMENT_3D ( 'NONE', #288, #264, #56 ) ;
#269 = ORIENTED_EDGE ( 'NONE', *, *, #10, .F. ) ;
#270 = ADVANCED_FACE ( 'NONE', ( #32 ), #26, .T. ) ;
#271 = ORIENTED_EDGE ( 'NONE', *, *, #172, .F. ) ;
#272 = SURFACE_STYLE_FILL_AREA ( #128 ) ;
#273 = VERTEX_POINT ( 'NONE', #98 ) ;
#274 = CONICAL_SURFACE ( 'NONE', #72, 0.2350000000000011524, 0.7853981633974380649 ) ;
#275 = CIRCLE ( 'NONE', #157, 0.2497499999999999998 ) ;
#276 = EDGE_LOOP ( 'NONE', ( #129, #200, #19, #299 ) ) ;
#277 = DIRECTION ( 'NONE',  ( 1.000000000000000000, 0.0000000000000000000, 0.0000000000000000000 ) ) ;
#278 = CARTESIAN_POINT ( 'NONE',  ( -0.2350000000000011524, 0.0000000000000000000, 3.000000000000000444 ) ) ;
#279 = CIRCLE ( 'NONE', #220, 0.2350000000000011524 ) ;
#280 = FACE_OUTER_BOUND ( 'NONE', #206, .T. ) ;
#281 = ADVANCED_FACE ( 'NONE', ( #192 ), #146, .T. ) ;
#282 = CARTESIAN_POINT ( 'NONE',  ( 3.745650057197990990E-33, 0.0000000000000000000, 3.058555380870515566E-17 ) ) ;
#283 = DIRECTION ( 'NONE',  ( 1.000000000000000000, 0.0000000000000000000, -0.0000000000000000000 ) ) ;
#284 = PRESENTATION_LAYER_ASSIGNMENT (  '', '', ( #195 ) ) ;
#285 = LINE ( 'NONE', #53, #194 ) ;
#286 = LINE ( 'NONE', #77, #101 ) ;
#287 = EDGE_CURVE ( 'NONE', #105, #88, #189, .T. ) ;
#288 = CARTESIAN_POINT ( 'NONE',  ( 0.0000000000000000000, 0.0000000000000000000, 3.000000000000000444 ) ) ;
#289 =( GEOMETRIC_REPRESENTATION_CONTEXT ( 3 ) GLOBAL_UNCERTAINTY_ASSIGNED_CONTEXT ( ( #175 ) ) GLOBAL_UNIT_ASSIGNED_CONTEXT ( ( #210, #160, #186 ) ) REPRESENTATION_CONTEXT ( 'NONE', 'WORKASPACE' ) );
#290 = PLANE ( 'NONE',  #182 ) ;
#291 = VECTOR ( 'NONE', #259, 39.37007874015748854 ) ;
#292 = CARTESIAN_POINT ( 'NONE',  ( 1.224646799147353454E-16, 0.0000000000000000000, 1.000000000000000000 ) ) ;
#293 =( NAMED_UNIT ( * ) PLANE_ANGLE_UNIT ( ) SI_UNIT ( $, .RADIAN. ) );
#294 = ORIENTED_EDGE ( 'NONE', *, *, #240, .F. ) ;
#295 = ORIENTED_EDGE ( 'NONE', *, *, #116, .T. ) ;
#296 = ORIENTED_EDGE ( 'NONE', *, *, #287, .T. ) ;
#297 = ORIENTED_EDGE ( 'NONE', *, *, #93, .F. ) ;
#298 = VECTOR ( 'NONE', #74, 39.37007874015748143 ) ;
#299 = ORIENTED_EDGE ( 'NONE', *, *, #71, .F. ) ;
ENDSEC;
END-ISO-10303-21;
