ISO-10303-21;
HEADER;
FILE_DESCRIPTION (( 'STEP AP214' ),
    '1' );
FILE_NAME ('30197.STEP',
    '2023-06-22T18:08:38',
    ( '' ),
    ( '' ),
    'SwSTEP 2.0',
    'SolidWorks 2023',
    '' );
FILE_SCHEMA (( 'AUTOMOTIVE_DESIGN' ));
ENDSEC;

DATA;
#1 = FILL_AREA_STYLE ('',( #298 ) ) ;
#2 = DIRECTION ( 'NONE',  ( -3.265724797726275178E-17, 1.000000000000000000, -0.000000000000000000 ) ) ;
#3 = SURFACE_STYLE_USAGE ( .BOTH. , #282 ) ;
#4 = LENGTH_MEASURE_WITH_UNIT ( LENGTH_MEASURE( 0.02539999999999999897 ), #307 );
#5 = CARTESIAN_POINT ( 'NONE',  ( -1.404197054395280421E-18, 0.6679980216144647542, 0.000000000000000000 ) ) ;
#6 =( NAMED_UNIT ( * ) SI_UNIT ( $, .STERADIAN. ) SOLID_ANGLE_UNIT ( ) );
#7 = CARTESIAN_POINT ( 'NONE',  ( 0.000000000000000000, 0.6250000000000000000, 0.000000000000000000 ) ) ;
#8 = AXIS2_PLACEMENT_3D ( 'NONE', #351, #215, #169 ) ;
#9 = CIRCLE ( 'NONE', #157, 0.1406000000000000028 ) ;
#10 = EDGE_LOOP ( 'NONE', ( #137, #83 ) ) ;
#11 = CARTESIAN_POINT ( 'NONE',  ( 0.000000000000000000, 0.6250000000000000000, 0.000000000000000000 ) ) ;
#12 = ORIENTED_EDGE ( 'NONE', *, *, #190, .F. ) ;
#13 = PRESENTATION_STYLE_ASSIGNMENT (( #153 ) ) ;
#14 = ORIENTED_EDGE ( 'NONE', *, *, #267, .T. ) ;
#15 = PRODUCT ( '30197', '30197', '', ( #278 ) ) ;
#16 = SURFACE_STYLE_USAGE ( .BOTH. , #213 ) ;
#17 = ORIENTED_EDGE ( 'NONE', *, *, #65, .T. ) ;
#18 = VERTEX_POINT ( 'NONE', #163 ) ;
#19 = CLOSED_SHELL ( 'NONE', ( #207, #229, #320, #287 ) ) ;
#20 = VECTOR ( 'NONE', #310, 39.37007874015748143 ) ;
#21 = UNCERTAINTY_MEASURE_WITH_UNIT (LENGTH_MEASURE( 1.000000000000000082E-05 ), #216, 'distance_accuracy_value', 'NONE');
#22 = DIRECTION ( 'NONE',  ( -3.265724797726275178E-17, 1.000000000000000000, -0.000000000000000000 ) ) ;
#23 = EDGE_LOOP ( 'NONE', ( #268, #173 ) ) ;
#24 =( NAMED_UNIT ( * ) SI_UNIT ( $, .STERADIAN. ) SOLID_ANGLE_UNIT ( ) );
#25 = CONICAL_SURFACE ( 'NONE', #108, 0.1405999999999999750, 0.3490658503988654515 ) ;
#26 = AXIS2_PLACEMENT_3D ( 'NONE', #30, #337, #296 ) ;
#27 =( LENGTH_UNIT ( ) NAMED_UNIT ( * ) SI_UNIT ( $, .METRE. ) );
#28 = DIRECTION ( 'NONE',  ( 0.000000000000000000, -0.000000000000000000, 1.000000000000000000 ) ) ;
#29 = DIRECTION ( 'NONE',  ( -3.265724797726275178E-17, 1.000000000000000000, -0.000000000000000000 ) ) ;
#30 = CARTESIAN_POINT ( 'NONE',  ( 0.000000000000000000, 0.000000000000000000, 0.000000000000000000 ) ) ;
#31 = EDGE_LOOP ( 'NONE', ( #246, #40, #226, #333 ) ) ;
#32 = PRESENTATION_STYLE_ASSIGNMENT (( #247 ) ) ;
#33 =( LENGTH_UNIT ( ) NAMED_UNIT ( * ) SI_UNIT ( $, .METRE. ) );
#34 = CYLINDRICAL_SURFACE ( 'NONE', #321, 0.1406000000000000028 ) ;
#35 = CIRCLE ( 'NONE', #8, 0.1406000000000000028 ) ;
#36 = DIRECTION ( 'NONE',  ( -3.265724797726275178E-17, 1.000000000000000000, -0.000000000000000000 ) ) ;
#37 = DIRECTION ( 'NONE',  ( -1.000000000000000000, 0.000000000000000000, 0.000000000000000000 ) ) ;
#38 =( NAMED_UNIT ( * ) SI_UNIT ( $, .STERADIAN. ) SOLID_ANGLE_UNIT ( ) );
#39 = ORIENTED_EDGE ( 'NONE', *, *, #65, .F. ) ;
#40 = ORIENTED_EDGE ( 'NONE', *, *, #178, .T. ) ;
#41 = VECTOR ( 'NONE', #356, 39.37007874015748143 ) ;
#42 = CONICAL_SURFACE ( 'NONE', #181, 0.1405999999999999750, 0.3490658503988654515 ) ;
#43 = AXIS2_PLACEMENT_3D ( 'NONE', #291, #58, #295 ) ;
#44 = LINE ( 'NONE', #254, #118 ) ;
#45 = APPLICATION_CONTEXT ( 'automotive_design' ) ;
#46 = ADVANCED_FACE ( 'NONE', ( #241 ), #200, .T. ) ;
#47 = MECHANICAL_DESIGN_GEOMETRIC_PRESENTATION_REPRESENTATION (  '', ( #285 ), #72 ) ;
#48 = PRESENTATION_LAYER_ASSIGNMENT (  '', '', ( #161 ) ) ;
#49 = UNCERTAINTY_MEASURE_WITH_UNIT (LENGTH_MEASURE( 1.000000000000000082E-05 ), #162, 'distance_accuracy_value', 'NONE');
#50 = SURFACE_SIDE_STYLE ('',( #328 ) ) ;
#51 = CIRCLE ( 'NONE', #204, 0.1562500000000000000 ) ;
#52 = PRODUCT_DEFINITION_FORMATION_WITH_SPECIFIED_SOURCE ( 'ANY', '', #15, .NOT_KNOWN. ) ;
#53 = FILL_AREA_STYLE_COLOUR ( '', #272 ) ;
#54 = CARTESIAN_POINT ( 'NONE',  ( 1.721853399601178125E-17, 0.6250000000000000000, 0.1405999999999999750 ) ) ;
#55 = EDGE_CURVE ( 'NONE', #18, #126, #35, .T. ) ;
#56 = CARTESIAN_POINT ( 'NONE',  ( 0.000000000000000000, 0.000000000000000000, 0.000000000000000000 ) ) ;
#57 = PRESENTATION_LAYER_ASSIGNMENT (  '', '', ( #133 ) ) ;
#58 = DIRECTION ( 'NONE',  ( -3.265724797726275178E-17, 1.000000000000000000, -0.000000000000000000 ) ) ;
#59 =( NAMED_UNIT ( * ) PLANE_ANGLE_UNIT ( ) SI_UNIT ( $, .RADIAN. ) );
#60 = DIMENSIONAL_EXPONENTS ( 1.000000000000000000, 0.000000000000000000, 0.000000000000000000, 0.000000000000000000, 0.000000000000000000, 0.000000000000000000, 0.000000000000000000 ) ;
#61 = SURFACE_STYLE_FILL_AREA ( #251 ) ;
#62 = CLOSED_SHELL ( 'NONE', ( #46, #92, #84, #240, #68, #275 ) ) ;
#63 = COLOUR_RGB ( '',1.000000000000000000, 0.000000000000000000, 0.000000000000000000 ) ;
#64 = ORIENTED_EDGE ( 'NONE', *, *, #101, .T. ) ;
#65 = EDGE_CURVE ( 'NONE', #196, #232, #263, .T. ) ;
#66 = PLANE ( 'NONE',  #85 ) ;
#67 = EDGE_LOOP ( 'NONE', ( #100, #14, #236, #358 ) ) ;
#68 = ADVANCED_FACE ( 'NONE', ( #279 ), #187, .T. ) ;
#69 = ORIENTED_EDGE ( 'NONE', *, *, #190, .T. ) ;
#70 = EDGE_LOOP ( 'NONE', ( #165, #262, #245, #139 ) ) ;
#71 = VERTEX_POINT ( 'NONE', #94 ) ;
#72 =( GEOMETRIC_REPRESENTATION_CONTEXT ( 3 ) GLOBAL_UNCERTAINTY_ASSIGNED_CONTEXT ( ( #49 ) ) GLOBAL_UNIT_ASSIGNED_CONTEXT ( ( #162, #143, #145 ) ) REPRESENTATION_CONTEXT ( 'NONE', 'WORKASPACE' ) );
#73 = CIRCLE ( 'NONE', #104, 0.1562500000000000000 ) ;
#74 = FILL_AREA_STYLE_COLOUR ( '', #286 ) ;
#75 = LINE ( 'NONE', #105, #41 ) ;
#76 = ORIENTED_EDGE ( 'NONE', *, *, #348, .T. ) ;
#77 = UNCERTAINTY_MEASURE_WITH_UNIT (LENGTH_MEASURE( 1.000000000000000082E-05 ), #135, 'distance_accuracy_value', 'NONE');
#78 = CIRCLE ( 'NONE', #129, 0.1562499999999999445 ) ;
#79 = AXIS2_PLACEMENT_3D ( 'NONE', #335, #318, #189 ) ;
#80 = EDGE_CURVE ( 'NONE', #71, #126, #44, .T. ) ;
#81 =( LENGTH_UNIT ( ) NAMED_UNIT ( * ) SI_UNIT ( $, .METRE. ) );
#82 = CYLINDRICAL_SURFACE ( 'NONE', #288, 0.1406000000000000028 ) ;
#83 = ORIENTED_EDGE ( 'NONE', *, *, #55, .T. ) ;
#84 = ADVANCED_FACE ( 'NONE', ( #338 ), #66, .F. ) ;
#85 = AXIS2_PLACEMENT_3D ( 'NONE', #283, #256, #322 ) ;
#86 = AXIS2_PLACEMENT_3D ( 'NONE', #300, #167, #28 ) ;
#87 = LENGTH_MEASURE_WITH_UNIT ( LENGTH_MEASURE( 0.02539999999999999897 ), #27 );
#88 = FILL_AREA_STYLE ('',( #176 ) ) ;
#89 = LINE ( 'NONE', #280, #347 ) ;
#90 = CARTESIAN_POINT ( 'NONE',  ( 0.1405999999999999750, 0.6250000000000000000, 1.817682011634458332E-17 ) ) ;
#91 = ORIENTED_EDGE ( 'NONE', *, *, #125, .T. ) ;
#92 = ADVANCED_FACE ( 'NONE', ( #258 ), #25, .T. ) ;
#93 = MECHANICAL_DESIGN_GEOMETRIC_PRESENTATION_REPRESENTATION (  '', ( #133 ), #186 ) ;
#94 = CARTESIAN_POINT ( 'NONE',  ( 0.000000000000000000, 0.6250000000000000000, -0.1405999999999999750 ) ) ;
#95 = DIRECTION ( 'NONE',  ( -0.000000000000000000, -1.000000000000000000, -0.000000000000000000 ) ) ;
#96 = FILL_AREA_STYLE ('',( #224 ) ) ;
#97 = DIRECTION ( 'NONE',  ( 0.3420201433256682688, 0.9396926207859085389, 4.188538737676986835E-17 ) ) ;
#98 = APPLICATION_CONTEXT ( 'automotive_design' ) ;
#99 = STYLED_ITEM ( 'NONE', ( #32 ), #320 ) ;
#100 = ORIENTED_EDGE ( 'NONE', *, *, #114, .T. ) ;
#101 = EDGE_CURVE ( 'NONE', #159, #317, #75, .T. ) ;
#102 = AXIS2_PLACEMENT_3D ( 'NONE', #266, #22, #138 ) ;
#103 = EDGE_LOOP ( 'NONE', ( #180, #69, #64, #206 ) ) ;
#104 = AXIS2_PLACEMENT_3D ( 'NONE', #155, #179, #257 ) ;
#105 = CARTESIAN_POINT ( 'NONE',  ( -0.1562500000000000278, 2.500000000000000000, 0.000000000000000000 ) ) ;
#106 = PRESENTATION_STYLE_ASSIGNMENT (( #331 ) ) ;
#107 = LENGTH_MEASURE_WITH_UNIT ( LENGTH_MEASURE( 0.02539999999999999897 ), #350 );
#108 = AXIS2_PLACEMENT_3D ( 'NONE', #289, #128, #234 ) ;
#109 = MANIFOLD_SOLID_BREP ( 'Revolve - Tool Body (Reduced Cut Diameter)', #62 ) ;
#110 = STYLED_ITEM ( 'NONE', ( #210 ), #207 ) ;
#111 = FACE_OUTER_BOUND ( 'NONE', #31, .T. ) ;
#112 = CARTESIAN_POINT ( 'NONE',  ( 0.000000000000000000, 0.000000000000000000, 0.000000000000000000 ) ) ;
#113 = CARTESIAN_POINT ( 'NONE',  ( 0.1562499999999999167, 2.500000000000000000, 1.913510623667738847E-17 ) ) ;
#114 = EDGE_CURVE ( 'NONE', #159, #325, #78, .T. ) ;
#115 = LENGTH_MEASURE_WITH_UNIT ( LENGTH_MEASURE( 0.02539999999999999897 ), #355 );
#116 = CARTESIAN_POINT ( 'NONE',  ( -1.404197054395280421E-18, 0.6679980216144647542, 0.000000000000000000 ) ) ;
#117 = FACE_OUTER_BOUND ( 'NONE', #270, .T. ) ;
#118 = VECTOR ( 'NONE', #312, 39.37007874015748143 ) ;
#119 = MECHANICAL_DESIGN_GEOMETRIC_PRESENTATION_REPRESENTATION (  '', ( #326 ), #264 ) ;
#120 = MANIFOLD_SOLID_BREP ( 'Revolve - Cutting Edge', #19 ) ;
#121 =( CONVERSION_BASED_UNIT ( 'INCH', #115 ) LENGTH_UNIT ( ) NAMED_UNIT ( #164 ) );
#122 = DIRECTION ( 'NONE',  ( -1.000000000000000000, 0.000000000000000000, 0.000000000000000000 ) ) ;
#123 = DIRECTION ( 'NONE',  ( -3.265724797726275178E-17, 1.000000000000000000, -0.000000000000000000 ) ) ;
#124 = LINE ( 'NONE', #113, #259 ) ;
#125 = EDGE_CURVE ( 'NONE', #232, #159, #152, .T. ) ;
#126 = VERTEX_POINT ( 'NONE', #230 ) ;
#127 = DIRECTION ( 'NONE',  ( -0.000000000000000000, -1.000000000000000000, -0.000000000000000000 ) ) ;
#128 = DIRECTION ( 'NONE',  ( -3.265724797726275178E-17, 1.000000000000000000, -0.000000000000000000 ) ) ;
#129 = AXIS2_PLACEMENT_3D ( 'NONE', #116, #334, #37 ) ;
#130 =( GEOMETRIC_REPRESENTATION_CONTEXT ( 3 ) GLOBAL_UNCERTAINTY_ASSIGNED_CONTEXT ( ( #313 ) ) GLOBAL_UNIT_ASSIGNED_CONTEXT ( ( #199, #59, #146 ) ) REPRESENTATION_CONTEXT ( 'NONE', 'WORKASPACE' ) );
#131 =( GEOMETRIC_REPRESENTATION_CONTEXT ( 3 ) GLOBAL_UNCERTAINTY_ASSIGNED_CONTEXT ( ( #308 ) ) GLOBAL_UNIT_ASSIGNED_CONTEXT ( ( #292, #299, #297 ) ) REPRESENTATION_CONTEXT ( 'NONE', 'WORKASPACE' ) );
#132 = PRESENTATION_LAYER_ASSIGNMENT (  '', '', ( #285 ) ) ;
#133 = STYLED_ITEM ( 'NONE', ( #13 ), #287 ) ;
#134 = ORIENTED_EDGE ( 'NONE', *, *, #114, .F. ) ;
#135 =( CONVERSION_BASED_UNIT ( 'INCH', #332 ) LENGTH_UNIT ( ) NAMED_UNIT ( #250 ) );
#136 =( NAMED_UNIT ( * ) PLANE_ANGLE_UNIT ( ) SI_UNIT ( $, .RADIAN. ) );
#137 = ORIENTED_EDGE ( 'NONE', *, *, #336, .T. ) ;
#138 = DIRECTION ( 'NONE',  ( -1.000000000000000000, 0.000000000000000000, 0.000000000000000000 ) ) ;
#139 = ORIENTED_EDGE ( 'NONE', *, *, #80, .F. ) ;
#140 = DIMENSIONAL_EXPONENTS ( 1.000000000000000000, 0.000000000000000000, 0.000000000000000000, 0.000000000000000000, 0.000000000000000000, 0.000000000000000000, 0.000000000000000000 ) ;
#141 = DIRECTION ( 'NONE',  ( 1.000000000000000000, 0.000000000000000000, 0.000000000000000000 ) ) ;
#142 = DIRECTION ( 'NONE',  ( -1.000000000000000000, 0.000000000000000000, 0.000000000000000000 ) ) ;
#143 =( NAMED_UNIT ( * ) PLANE_ANGLE_UNIT ( ) SI_UNIT ( $, .RADIAN. ) );
#144 = CARTESIAN_POINT ( 'NONE',  ( 0.1562499999999999445, 2.500000000000000000, 1.913510623667738847E-17 ) ) ;
#145 =( NAMED_UNIT ( * ) SI_UNIT ( $, .STERADIAN. ) SOLID_ANGLE_UNIT ( ) );
#146 =( NAMED_UNIT ( * ) SI_UNIT ( $, .STERADIAN. ) SOLID_ANGLE_UNIT ( ) );
#147 = DIRECTION ( 'NONE',  ( -1.000000000000000000, 0.000000000000000000, 0.000000000000000000 ) ) ;
#148 =( GEOMETRIC_REPRESENTATION_CONTEXT ( 3 ) GLOBAL_UNCERTAINTY_ASSIGNED_CONTEXT ( ( #21 ) ) GLOBAL_UNIT_ASSIGNED_CONTEXT ( ( #216, #197, #38 ) ) REPRESENTATION_CONTEXT ( 'NONE', 'WORKASPACE' ) );
#149 = DIRECTION ( 'NONE',  ( -1.000000000000000000, 0.000000000000000000, 0.000000000000000000 ) ) ;
#150 = EDGE_CURVE ( 'NONE', #196, #325, #315, .T. ) ;
#151 = AXIS2_PLACEMENT_3D ( 'NONE', #11, #127, #231 ) ;
#152 = LINE ( 'NONE', #255, #20 ) ;
#153 = SURFACE_STYLE_USAGE ( .BOTH. , #319 ) ;
#154 = DIRECTION ( 'NONE',  ( -3.265724797726275178E-17, 1.000000000000000000, -0.000000000000000000 ) ) ;
#155 = CARTESIAN_POINT ( 'NONE',  ( -6.123233995736766036E-17, 2.500000000000000000, 0.000000000000000000 ) ) ;
#156 = CARTESIAN_POINT ( 'NONE',  ( 0.000000000000000000, 0.000000000000000000, 0.000000000000000000 ) ) ;
#157 = AXIS2_PLACEMENT_3D ( 'NONE', #156, #95, #195 ) ;
#158 = ORIENTED_EDGE ( 'NONE', *, *, #150, .F. ) ;
#159 = VERTEX_POINT ( 'NONE', #188 ) ;
#160 = SURFACE_STYLE_FILL_AREA ( #290 ) ;
#161 = STYLED_ITEM ( 'NONE', ( #106 ), #229 ) ;
#162 =( CONVERSION_BASED_UNIT ( 'INCH', #219 ) LENGTH_UNIT ( ) NAMED_UNIT ( #60 ) );
#163 = CARTESIAN_POINT ( 'NONE',  ( 1.721853399601178741E-17, 0.000000000000000000, 0.1406000000000000028 ) ) ;
#164 = DIMENSIONAL_EXPONENTS ( 1.000000000000000000, 0.000000000000000000, 0.000000000000000000, 0.000000000000000000, 0.000000000000000000, 0.000000000000000000, 0.000000000000000000 ) ;
#165 = ORIENTED_EDGE ( 'NONE', *, *, #233, .T. ) ;
#166 = DIRECTION ( 'NONE',  ( 0.000000000000000000, 0.000000000000000000, 1.000000000000000000 ) ) ;
#167 = DIRECTION ( 'NONE',  ( 0.000000000000000000, 1.000000000000000000, 0.000000000000000000 ) ) ;
#168 = DIRECTION ( 'NONE',  ( -0.000000000000000000, -1.000000000000000000, -0.000000000000000000 ) ) ;
#169 = DIRECTION ( 'NONE',  ( 0.000000000000000000, 0.000000000000000000, -1.000000000000000000 ) ) ;
#170 = CIRCLE ( 'NONE', #205, 0.1405999999999999750 ) ;
#171 = EDGE_CURVE ( 'NONE', #317, #225, #73, .T. ) ;
#172 = CARTESIAN_POINT ( 'NONE',  ( 0.000000000000000000, 0.000000000000000000, 0.000000000000000000 ) ) ;
#173 = ORIENTED_EDGE ( 'NONE', *, *, #178, .F. ) ;
#174 = CARTESIAN_POINT ( 'NONE',  ( 0.000000000000000000, 0.6250000000000000000, 0.000000000000000000 ) ) ;
#175 = ADVANCED_BREP_SHAPE_REPRESENTATION ( '30197', ( #120, #109, #228 ), #131 ) ;
#176 = FILL_AREA_STYLE_COLOUR ( '', #343 ) ;
#177 = APPLICATION_PROTOCOL_DEFINITION ( 'draft international standard', 'automotive_design', 1998, #45 ) ;
#178 = EDGE_CURVE ( 'NONE', #211, #71, #302, .T. ) ;
#179 = DIRECTION ( 'NONE',  ( -3.265724797726275178E-17, 1.000000000000000000, -0.000000000000000000 ) ) ;
#180 = ORIENTED_EDGE ( 'NONE', *, *, #267, .F. ) ;
#181 = AXIS2_PLACEMENT_3D ( 'NONE', #174, #244, #147 ) ;
#182 = UNCERTAINTY_MEASURE_WITH_UNIT (LENGTH_MEASURE( 1.000000000000000082E-05 ), #121, 'distance_accuracy_value', 'NONE');
#183 = SURFACE_STYLE_FILL_AREA ( #1 ) ;
#184 = FILL_AREA_STYLE_COLOUR ( '', #218 ) ;
#185 = EDGE_CURVE ( 'NONE', #211, #18, #89, .T. ) ;
#186 =( GEOMETRIC_REPRESENTATION_CONTEXT ( 3 ) GLOBAL_UNCERTAINTY_ASSIGNED_CONTEXT ( ( #182 ) ) GLOBAL_UNIT_ASSIGNED_CONTEXT ( ( #121, #309, #341 ) ) REPRESENTATION_CONTEXT ( 'NONE', 'WORKASPACE' ) );
#187 = CYLINDRICAL_SURFACE ( 'NONE', #352, 0.1562499999999999722 ) ;
#188 = CARTESIAN_POINT ( 'NONE',  ( -0.1562499999999999445, 0.6679980216144647542, 0.000000000000000000 ) ) ;
#189 = DIRECTION ( 'NONE',  ( 1.000000000000000000, 3.265724797726275178E-17, 0.000000000000000000 ) ) ;
#190 = EDGE_CURVE ( 'NONE', #325, #159, #192, .T. ) ;
#191 = EDGE_LOOP ( 'NONE', ( #158, #17, #91, #12 ) ) ;
#192 = CIRCLE ( 'NONE', #316, 0.1562499999999999445 ) ;
#193 = CIRCLE ( 'NONE', #43, 0.1405999999999999750 ) ;
#194 = EDGE_CURVE ( 'NONE', #225, #317, #51, .T. ) ;
#195 = DIRECTION ( 'NONE',  ( 0.000000000000000000, 0.000000000000000000, -1.000000000000000000 ) ) ;
#196 = VERTEX_POINT ( 'NONE', #90 ) ;
#197 =( NAMED_UNIT ( * ) PLANE_ANGLE_UNIT ( ) SI_UNIT ( $, .RADIAN. ) );
#198 = PLANE ( 'NONE',  #86 ) ;
#199 =( CONVERSION_BASED_UNIT ( 'INCH', #107 ) LENGTH_UNIT ( ) NAMED_UNIT ( #306 ) );
#200 = CYLINDRICAL_SURFACE ( 'NONE', #102, 0.1562499999999999722 ) ;
#201 = FACE_OUTER_BOUND ( 'NONE', #70, .T. ) ;
#202 = FACE_OUTER_BOUND ( 'NONE', #10, .T. ) ;
#203 = COLOUR_RGB ( '',0.7921568627450980005, 0.8196078431372548767, 0.9333333333333333481 ) ;
#204 = AXIS2_PLACEMENT_3D ( 'NONE', #248, #123, #222 ) ;
#205 = AXIS2_PLACEMENT_3D ( 'NONE', #7, #344, #314 ) ;
#206 = ORIENTED_EDGE ( 'NONE', *, *, #194, .F. ) ;
#207 = ADVANCED_FACE ( 'NONE', ( #201 ), #82, .T. ) ;
#208 = AXIS2_PLACEMENT_3D ( 'NONE', #273, #29, #142 ) ;
#209 = MECHANICAL_DESIGN_GEOMETRIC_PRESENTATION_REPRESENTATION (  '', ( #110 ), #130 ) ;
#210 = PRESENTATION_STYLE_ASSIGNMENT (( #16 ) ) ;
#211 = VERTEX_POINT ( 'NONE', #54 ) ;
#212 = SURFACE_SIDE_STYLE ('',( #61 ) ) ;
#213 = SURFACE_SIDE_STYLE ('',( #323 ) ) ;
#214 = EDGE_LOOP ( 'NONE', ( #76, #235, #134, #277 ) ) ;
#215 = DIRECTION ( 'NONE',  ( -0.000000000000000000, -1.000000000000000000, -0.000000000000000000 ) ) ;
#216 =( CONVERSION_BASED_UNIT ( 'INCH', #4 ) LENGTH_UNIT ( ) NAMED_UNIT ( #221 ) );
#217 = SURFACE_SIDE_STYLE ('',( #269 ) ) ;
#218 = COLOUR_RGB ( '',1.000000000000000000, 0.000000000000000000, 0.000000000000000000 ) ;
#219 = LENGTH_MEASURE_WITH_UNIT ( LENGTH_MEASURE( 0.02539999999999999897 ), #33 );
#220 = PLANE ( 'NONE',  #79 ) ;
#221 = DIMENSIONAL_EXPONENTS ( 1.000000000000000000, 0.000000000000000000, 0.000000000000000000, 0.000000000000000000, 0.000000000000000000, 0.000000000000000000, 0.000000000000000000 ) ;
#222 = DIRECTION ( 'NONE',  ( -1.000000000000000000, 0.000000000000000000, 0.000000000000000000 ) ) ;
#223 = SURFACE_STYLE_USAGE ( .BOTH. , #212 ) ;
#224 = FILL_AREA_STYLE_COLOUR ( '', #63 ) ;
#225 = VERTEX_POINT ( 'NONE', #144 ) ;
#226 = ORIENTED_EDGE ( 'NONE', *, *, #80, .T. ) ;
#227 = PRESENTATION_LAYER_ASSIGNMENT (  '', '', ( #99 ) ) ;
#228 = AXIS2_PLACEMENT_3D ( 'NONE', #112, #166, #141 ) ;
#229 = ADVANCED_FACE ( 'NONE', ( #243 ), #198, .T. ) ;
#230 = CARTESIAN_POINT ( 'NONE',  ( 0.000000000000000000, 0.000000000000000000, -0.1406000000000000028 ) ) ;
#231 = DIRECTION ( 'NONE',  ( 0.000000000000000000, 0.000000000000000000, -1.000000000000000000 ) ) ;
#232 = VERTEX_POINT ( 'NONE', #305 ) ;
#233 = EDGE_CURVE ( 'NONE', #71, #211, #170, .T. ) ;
#234 = DIRECTION ( 'NONE',  ( -1.000000000000000000, 0.000000000000000000, 0.000000000000000000 ) ) ;
#235 = ORIENTED_EDGE ( 'NONE', *, *, #150, .T. ) ;
#236 = ORIENTED_EDGE ( 'NONE', *, *, #171, .F. ) ;
#237 = ORIENTED_EDGE ( 'NONE', *, *, #171, .T. ) ;
#238 = PRESENTATION_LAYER_ASSIGNMENT (  '', '', ( #326 ) ) ;
#239 = ORIENTED_EDGE ( 'NONE', *, *, #348, .F. ) ;
#240 = ADVANCED_FACE ( 'NONE', ( #249 ), #42, .T. ) ;
#241 = FACE_OUTER_BOUND ( 'NONE', #67, .T. ) ;
#242 = DIRECTION ( 'NONE',  ( 0.000000000000000000, 0.000000000000000000, -1.000000000000000000 ) ) ;
#243 = FACE_OUTER_BOUND ( 'NONE', #23, .T. ) ;
#244 = DIRECTION ( 'NONE',  ( -3.265724797726275178E-17, 1.000000000000000000, -0.000000000000000000 ) ) ;
#245 = ORIENTED_EDGE ( 'NONE', *, *, #336, .F. ) ;
#246 = ORIENTED_EDGE ( 'NONE', *, *, #185, .F. ) ;
#247 = SURFACE_STYLE_USAGE ( .BOTH. , #217 ) ;
#248 = CARTESIAN_POINT ( 'NONE',  ( -6.123233995736766036E-17, 2.500000000000000000, 0.000000000000000000 ) ) ;
#249 = FACE_OUTER_BOUND ( 'NONE', #191, .T. ) ;
#250 = DIMENSIONAL_EXPONENTS ( 1.000000000000000000, 0.000000000000000000, 0.000000000000000000, 0.000000000000000000, 0.000000000000000000, 0.000000000000000000, 0.000000000000000000 ) ;
#251 = FILL_AREA_STYLE ('',( #53 ) ) ;
#252 = CARTESIAN_POINT ( 'NONE',  ( 0.1562499999999999445, 0.6679980216144647542, 1.913510623667738539E-17 ) ) ;
#253 = MECHANICAL_DESIGN_GEOMETRIC_PRESENTATION_REPRESENTATION (  '', ( #161 ), #353 ) ;
#254 = CARTESIAN_POINT ( 'NONE',  ( 0.000000000000000000, 0.000000000000000000, -0.1406000000000000028 ) ) ;
#255 = CARTESIAN_POINT ( 'NONE',  ( -0.1405999999999999750, 0.6250000000000000000, 0.000000000000000000 ) ) ;
#256 = DIRECTION ( 'NONE',  ( -3.265724797726275178E-17, 1.000000000000000000, 0.000000000000000000 ) ) ;
#257 = DIRECTION ( 'NONE',  ( -1.000000000000000000, 0.000000000000000000, 0.000000000000000000 ) ) ;
#258 = FACE_OUTER_BOUND ( 'NONE', #214, .T. ) ;
#259 = VECTOR ( 'NONE', #2, 39.37007874015748143 ) ;
#260 = PRODUCT_DEFINITION_CONTEXT ( 'detailed design', #45, 'design' ) ;
#261 = PRODUCT_DEFINITION_SHAPE ( 'NONE', 'NONE',  #301 ) ;
#262 = ORIENTED_EDGE ( 'NONE', *, *, #185, .T. ) ;
#263 = CIRCLE ( 'NONE', #208, 0.1405999999999999750 ) ;
#264 =( GEOMETRIC_REPRESENTATION_CONTEXT ( 3 ) GLOBAL_UNCERTAINTY_ASSIGNED_CONTEXT ( ( #77 ) ) GLOBAL_UNIT_ASSIGNED_CONTEXT ( ( #135, #324, #6 ) ) REPRESENTATION_CONTEXT ( 'NONE', 'WORKASPACE' ) );
#265 = LENGTH_MEASURE_WITH_UNIT ( LENGTH_MEASURE( 0.02539999999999999897 ), #81 );
#266 = CARTESIAN_POINT ( 'NONE',  ( -6.123233995736766036E-17, 2.500000000000000000, 0.000000000000000000 ) ) ;
#267 = EDGE_CURVE ( 'NONE', #325, #225, #124, .T. ) ;
#268 = ORIENTED_EDGE ( 'NONE', *, *, #233, .F. ) ;
#269 = SURFACE_STYLE_FILL_AREA ( #88 ) ;
#270 = EDGE_LOOP ( 'NONE', ( #237, #293 ) ) ;
#271 = APPLICATION_PROTOCOL_DEFINITION ( 'draft international standard', 'automotive_design', 1998, #98 ) ;
#272 = COLOUR_RGB ( '',0.7921568627450980005, 0.8196078431372548767, 0.9333333333333333481 ) ;
#273 = CARTESIAN_POINT ( 'NONE',  ( 0.000000000000000000, 0.6250000000000000000, 0.000000000000000000 ) ) ;
#274 = VECTOR ( 'NONE', #97, 39.37007874015748143 ) ;
#275 = ADVANCED_FACE ( 'NONE', ( #117 ), #220, .F. ) ;
#276 = DIRECTION ( 'NONE',  ( 0.000000000000000000, 0.000000000000000000, -1.000000000000000000 ) ) ;
#277 = ORIENTED_EDGE ( 'NONE', *, *, #125, .F. ) ;
#278 = PRODUCT_CONTEXT ( 'NONE', #98, 'mechanical' ) ;
#279 = FACE_OUTER_BOUND ( 'NONE', #103, .T. ) ;
#280 = CARTESIAN_POINT ( 'NONE',  ( 1.721853399601178741E-17, 0.000000000000000000, 0.1406000000000000028 ) ) ;
#281 = MECHANICAL_DESIGN_GEOMETRIC_PRESENTATION_REPRESENTATION (  '', ( #99 ), #148 ) ;
#282 = SURFACE_SIDE_STYLE ('',( #183 ) ) ;
#283 = CARTESIAN_POINT ( 'NONE',  ( 7.497465793502476207E-35, 0.6250000000000000000, 0.000000000000000000 ) ) ;
#284 = EDGE_LOOP ( 'NONE', ( #239, #39 ) ) ;
#285 = STYLED_ITEM ( 'NONE', ( #349 ), #109 ) ;
#286 = COLOUR_RGB ( '',1.000000000000000000, 0.000000000000000000, 0.000000000000000000 ) ;
#287 = ADVANCED_FACE ( 'NONE', ( #202 ), #330, .T. ) ;
#288 = AXIS2_PLACEMENT_3D ( 'NONE', #56, #168, #276 ) ;
#289 = CARTESIAN_POINT ( 'NONE',  ( 0.000000000000000000, 0.6250000000000000000, 0.000000000000000000 ) ) ;
#290 = FILL_AREA_STYLE ('',( #74 ) ) ;
#291 = CARTESIAN_POINT ( 'NONE',  ( 0.000000000000000000, 0.6250000000000000000, 0.000000000000000000 ) ) ;
#292 =( CONVERSION_BASED_UNIT ( 'INCH', #87 ) LENGTH_UNIT ( ) NAMED_UNIT ( #303 ) );
#293 = ORIENTED_EDGE ( 'NONE', *, *, #194, .T. ) ;
#294 = UNCERTAINTY_MEASURE_WITH_UNIT (LENGTH_MEASURE( 1.000000000000000082E-05 ), #329, 'distance_accuracy_value', 'NONE');
#295 = DIRECTION ( 'NONE',  ( -1.000000000000000000, 0.000000000000000000, 0.000000000000000000 ) ) ;
#296 = DIRECTION ( 'NONE',  ( 0.000000000000000000, 0.000000000000000000, -1.000000000000000000 ) ) ;
#297 =( NAMED_UNIT ( * ) SI_UNIT ( $, .STERADIAN. ) SOLID_ANGLE_UNIT ( ) );
#298 = FILL_AREA_STYLE_COLOUR ( '', #203 ) ;
#299 =( NAMED_UNIT ( * ) PLANE_ANGLE_UNIT ( ) SI_UNIT ( $, .RADIAN. ) );
#300 = CARTESIAN_POINT ( 'NONE',  ( 0.000000000000000000, 0.6250000000000000000, 0.000000000000000000 ) ) ;
#301 = PRODUCT_DEFINITION ( 'UNKNOWN', '', #52, #260 ) ;
#302 = CIRCLE ( 'NONE', #151, 0.1405999999999999750 ) ;
#303 = DIMENSIONAL_EXPONENTS ( 1.000000000000000000, 0.000000000000000000, 0.000000000000000000, 0.000000000000000000, 0.000000000000000000, 0.000000000000000000, 0.000000000000000000 ) ;
#304 = DIRECTION ( 'NONE',  ( -0.000000000000000000, -1.000000000000000000, -0.000000000000000000 ) ) ;
#305 = CARTESIAN_POINT ( 'NONE',  ( -0.1405999999999999750, 0.6250000000000000000, 0.000000000000000000 ) ) ;
#306 = DIMENSIONAL_EXPONENTS ( 1.000000000000000000, 0.000000000000000000, 0.000000000000000000, 0.000000000000000000, 0.000000000000000000, 0.000000000000000000, 0.000000000000000000 ) ;
#307 =( LENGTH_UNIT ( ) NAMED_UNIT ( * ) SI_UNIT ( $, .METRE. ) );
#308 = UNCERTAINTY_MEASURE_WITH_UNIT (LENGTH_MEASURE( 1.000000000000000082E-05 ), #292, 'distance_accuracy_value', 'NONE');
#309 =( NAMED_UNIT ( * ) PLANE_ANGLE_UNIT ( ) SI_UNIT ( $, .RADIAN. ) );
#310 = DIRECTION ( 'NONE',  ( -0.3420201433256683798, 0.9396926207859085389, 0.000000000000000000 ) ) ;
#311 = SHAPE_DEFINITION_REPRESENTATION ( #261, #175 ) ;
#312 = DIRECTION ( 'NONE',  ( -0.000000000000000000, -1.000000000000000000, -0.000000000000000000 ) ) ;
#313 = UNCERTAINTY_MEASURE_WITH_UNIT (LENGTH_MEASURE( 1.000000000000000082E-05 ), #199, 'distance_accuracy_value', 'NONE');
#314 = DIRECTION ( 'NONE',  ( 0.000000000000000000, 0.000000000000000000, -1.000000000000000000 ) ) ;
#315 = LINE ( 'NONE', #345, #274 ) ;
#316 = AXIS2_PLACEMENT_3D ( 'NONE', #5, #36, #149 ) ;
#317 = VERTEX_POINT ( 'NONE', #357 ) ;
#318 = DIRECTION ( 'NONE',  ( 3.265724797726275178E-17, -1.000000000000000000, 0.000000000000000000 ) ) ;
#319 = SURFACE_SIDE_STYLE ('',( #160 ) ) ;
#320 = ADVANCED_FACE ( 'NONE', ( #111 ), #34, .T. ) ;
#321 = AXIS2_PLACEMENT_3D ( 'NONE', #172, #304, #242 ) ;
#322 = DIRECTION ( 'NONE',  ( -1.000000000000000000, -3.265724797726275178E-17, 0.000000000000000000 ) ) ;
#323 = SURFACE_STYLE_FILL_AREA ( #354 ) ;
#324 =( NAMED_UNIT ( * ) PLANE_ANGLE_UNIT ( ) SI_UNIT ( $, .RADIAN. ) );
#325 = VERTEX_POINT ( 'NONE', #252 ) ;
#326 = STYLED_ITEM ( 'NONE', ( #340 ), #120 ) ;
#327 = PRESENTATION_LAYER_ASSIGNMENT (  '', '', ( #110 ) ) ;
#328 = SURFACE_STYLE_FILL_AREA ( #96 ) ;
#329 =( CONVERSION_BASED_UNIT ( 'INCH', #265 ) LENGTH_UNIT ( ) NAMED_UNIT ( #140 ) );
#330 = PLANE ( 'NONE',  #26 ) ;
#331 = SURFACE_STYLE_USAGE ( .BOTH. , #50 ) ;
#332 = LENGTH_MEASURE_WITH_UNIT ( LENGTH_MEASURE( 0.02539999999999999897 ), #359 );
#333 = ORIENTED_EDGE ( 'NONE', *, *, #55, .F. ) ;
#334 = DIRECTION ( 'NONE',  ( -3.265724797726275178E-17, 1.000000000000000000, -0.000000000000000000 ) ) ;
#335 = CARTESIAN_POINT ( 'NONE',  ( 0.1562499999999999445, 2.500000000000000000, 0.000000000000000000 ) ) ;
#336 = EDGE_CURVE ( 'NONE', #126, #18, #9, .T. ) ;
#337 = DIRECTION ( 'NONE',  ( 0.000000000000000000, -1.000000000000000000, -0.000000000000000000 ) ) ;
#338 = FACE_OUTER_BOUND ( 'NONE', #284, .T. ) ;
#339 = DIRECTION ( 'NONE',  ( -0.000000000000000000, -1.000000000000000000, -0.000000000000000000 ) ) ;
#340 = PRESENTATION_STYLE_ASSIGNMENT (( #223 ) ) ;
#341 =( NAMED_UNIT ( * ) SI_UNIT ( $, .STERADIAN. ) SOLID_ANGLE_UNIT ( ) );
#342 = CARTESIAN_POINT ( 'NONE',  ( -6.123233995736766036E-17, 2.500000000000000000, 0.000000000000000000 ) ) ;
#343 = COLOUR_RGB ( '',1.000000000000000000, 0.000000000000000000, 0.000000000000000000 ) ;
#344 = DIRECTION ( 'NONE',  ( -0.000000000000000000, -1.000000000000000000, -0.000000000000000000 ) ) ;
#345 = CARTESIAN_POINT ( 'NONE',  ( 0.1405999999999999750, 0.6250000000000000000, 1.721853399601178125E-17 ) ) ;
#346 = PRODUCT_RELATED_PRODUCT_CATEGORY ( 'part', '', ( #15 ) ) ;
#347 = VECTOR ( 'NONE', #339, 39.37007874015748143 ) ;
#348 = EDGE_CURVE ( 'NONE', #232, #196, #193, .T. ) ;
#349 = PRESENTATION_STYLE_ASSIGNMENT (( #3 ) ) ;
#350 =( LENGTH_UNIT ( ) NAMED_UNIT ( * ) SI_UNIT ( $, .METRE. ) );
#351 = CARTESIAN_POINT ( 'NONE',  ( 0.000000000000000000, 0.000000000000000000, 0.000000000000000000 ) ) ;
#352 = AXIS2_PLACEMENT_3D ( 'NONE', #342, #154, #122 ) ;
#353 =( GEOMETRIC_REPRESENTATION_CONTEXT ( 3 ) GLOBAL_UNCERTAINTY_ASSIGNED_CONTEXT ( ( #294 ) ) GLOBAL_UNIT_ASSIGNED_CONTEXT ( ( #329, #136, #24 ) ) REPRESENTATION_CONTEXT ( 'NONE', 'WORKASPACE' ) );
#354 = FILL_AREA_STYLE ('',( #184 ) ) ;
#355 =( LENGTH_UNIT ( ) NAMED_UNIT ( * ) SI_UNIT ( $, .METRE. ) );
#356 = DIRECTION ( 'NONE',  ( -3.265724797726275178E-17, 1.000000000000000000, -0.000000000000000000 ) ) ;
#357 = CARTESIAN_POINT ( 'NONE',  ( -0.1562500000000000833, 2.500000000000000000, 0.000000000000000000 ) ) ;
#358 = ORIENTED_EDGE ( 'NONE', *, *, #101, .F. ) ;
#359 =( LENGTH_UNIT ( ) NAMED_UNIT ( * ) SI_UNIT ( $, .METRE. ) );
ENDSEC;
END-ISO-10303-21;
