ISO-10303-21;
HEADER;
FILE_DESCRIPTION (( 'STEP AP214' ),
    '1' );
FILE_NAME ('Micro_RMEM-006-2X.STEP',
    '2021-09-01T23:40:40',
    ( '' ),
    ( '' ),
    'SwSTEP 2.0',
    'SolidWorks 2020',
    '' );
FILE_SCHEMA (( 'AUTOMOTIVE_DESIGN' ));
ENDSEC;

DATA;
#1 = AXIS2_PLACEMENT_3D ( 'NONE', #258, #178, #169 ) ;
#2 = ORIENTED_EDGE ( 'NONE', *, *, #260, .T. ) ;
#3 = ORIENTED_EDGE ( 'NONE', *, *, #203, .T. ) ;
#4 = EDGE_LOOP ( 'NONE', ( #85, #2, #172, #238 ) ) ;
#5 = CIRCLE ( 'NONE', #139, 0.05905500000000000332 ) ;
#6 = EDGE_CURVE ( 'NONE', #53, #131, #222, .T. ) ;
#7 = EDGE_LOOP ( 'NONE', ( #252, #285 ) ) ;
#8 = EDGE_CURVE ( 'NONE', #109, #27, #12, .T. ) ;
#9 = LINE ( 'NONE', #80, #210 ) ;
#10 = ORIENTED_EDGE ( 'NONE', *, *, #90, .T. ) ;
#11 = UNCERTAINTY_MEASURE_WITH_UNIT (LENGTH_MEASURE( 1.000000000000000082E-05 ), #137, 'distance_accuracy_value', 'NONE');
#12 = CIRCLE ( 'NONE', #111, 0.01179918900000000333 ) ;
#13 = STYLED_ITEM ( 'NONE', ( #281 ), #283 ) ;
#14 = ORIENTED_EDGE ( 'NONE', *, *, #74, .F. ) ;
#15 =( NAMED_UNIT ( * ) PLANE_ANGLE_UNIT ( ) SI_UNIT ( $, .RADIAN. ) );
#16 =( LENGTH_UNIT ( ) NAMED_UNIT ( * ) SI_UNIT ( $, .METRE. ) );
#17 = CIRCLE ( 'NONE', #63, 0.01179918900000000333 ) ;
#18 =( GEOMETRIC_REPRESENTATION_CONTEXT ( 3 ) GLOBAL_UNCERTAINTY_ASSIGNED_CONTEXT ( ( #191 ) ) GLOBAL_UNIT_ASSIGNED_CONTEXT ( ( #293, #15, #151 ) ) REPRESENTATION_CONTEXT ( 'NONE', 'WORKASPACE' ) );
#19 = EDGE_CURVE ( 'NONE', #208, #31, #282, .T. ) ;
#20 = ORIENTED_EDGE ( 'NONE', *, *, #8, .T. ) ;
#21 = DIRECTION ( 'NONE',  ( -1.000000000000000000, 0.0000000000000000000, 1.224646799147353207E-16 ) ) ;
#22 = CARTESIAN_POINT ( 'NONE',  ( 0.04405499999999973326, 5.395181473643630390E-18, 1.496062999999999921 ) ) ;
#23 = EDGE_CURVE ( 'NONE', #131, #31, #299, .T. ) ;
#24 = DIRECTION ( 'NONE',  ( 1.000000000000000000, 0.0000000000000000000, -0.0000000000000000000 ) ) ;
#25 = AXIS2_PLACEMENT_3D ( 'NONE', #279, #81, #108 ) ;
#26 = SURFACE_STYLE_USAGE ( .BOTH. , #249 ) ;
#27 = VERTEX_POINT ( 'NONE', #179 ) ;
#28 = DIRECTION ( 'NONE',  ( 1.000000000000000000, 0.0000000000000000000, 0.0000000000000000000 ) ) ;
#29 = PRODUCT_CONTEXT ( 'NONE', #231, 'mechanical' ) ;
#30 = ADVANCED_FACE ( 'NONE', ( #96 ), #152, .T. ) ;
#31 = VERTEX_POINT ( 'NONE', #155 ) ;
#32 = ORIENTED_EDGE ( 'NONE', *, *, #8, .F. ) ;
#33 = CARTESIAN_POINT ( 'NONE',  ( -0.01179918899999999465, 4.338567788251580372E-18, 0.07086599999999999844 ) ) ;
#34 = DIRECTION ( 'NONE',  ( 0.0000000000000000000, 0.0000000000000000000, -1.000000000000000000 ) ) ;
#35 = ORIENTED_EDGE ( 'NONE', *, *, #203, .F. ) ;
#36 = AXIS2_PLACEMENT_3D ( 'NONE', #264, #267, #232 ) ;
#37 = CARTESIAN_POINT ( 'NONE',  ( -0.01179918899999999465, 1.444983904138466284E-18, 0.07086599999999999844 ) ) ;
#38 = CLOSED_SHELL ( 'NONE', ( #68, #86, #120, #242, #30, #246, #164, #233, #119, #230 ) ) ;
#39 = DIRECTION ( 'NONE',  ( -1.000000000000000000, 0.0000000000000000000, 0.0000000000000000000 ) ) ;
#40 = DIRECTION ( 'NONE',  ( -1.224646799147353207E-16, -0.0000000000000000000, -1.000000000000000000 ) ) ;
#41 = AXIS2_PLACEMENT_3D ( 'NONE', #265, #217, #72 ) ;
#42 = COLOUR_RGB ( '',0.7921568627450980005, 0.8196078431372548767, 0.9333333333333333481 ) ;
#43 = SURFACE_STYLE_FILL_AREA ( #113 ) ;
#44 = ORIENTED_EDGE ( 'NONE', *, *, #289, .T. ) ;
#45 = EDGE_CURVE ( 'NONE', #202, #88, #274, .T. ) ;
#46 = SURFACE_STYLE_USAGE ( .BOTH. , #154 ) ;
#47 = APPLICATION_PROTOCOL_DEFINITION ( 'draft international standard', 'automotive_design', 1998, #231 ) ;
#48 = AXIS2_PLACEMENT_3D ( 'NONE', #192, #34, #284 ) ;
#49 = AXIS2_PLACEMENT_3D ( 'NONE', #124, #201, #241 ) ;
#50 =( NAMED_UNIT ( * ) PLANE_ANGLE_UNIT ( ) SI_UNIT ( $, .RADIAN. ) );
#51 = EDGE_CURVE ( 'NONE', #256, #109, #250, .T. ) ;
#52 = ORIENTED_EDGE ( 'NONE', *, *, #19, .T. ) ;
#53 = VERTEX_POINT ( 'NONE', #135 ) ;
#54 = APPLICATION_PROTOCOL_DEFINITION ( 'draft international standard', 'automotive_design', 1998, #269 ) ;
#55 = DIRECTION ( 'NONE',  ( -1.224646799147353207E-16, -0.0000000000000000000, -1.000000000000000000 ) ) ;
#56 = DIRECTION ( 'NONE',  ( 0.0000000000000000000, 0.0000000000000000000, -1.000000000000000000 ) ) ;
#57 = ORIENTED_EDGE ( 'NONE', *, *, #133, .T. ) ;
#58 = SURFACE_STYLE_FILL_AREA ( #225 ) ;
#59 = DIMENSIONAL_EXPONENTS ( 1.000000000000000000, 0.0000000000000000000, 0.0000000000000000000, 0.0000000000000000000, 0.0000000000000000000, 0.0000000000000000000, 0.0000000000000000000 ) ;
#60 = DIRECTION ( 'NONE',  ( -1.000000000000000000, 0.0000000000000000000, 1.224646799147353207E-16 ) ) ;
#61 = ORIENTED_EDGE ( 'NONE', *, *, #19, .F. ) ;
#62 = CARTESIAN_POINT ( 'NONE',  ( 0.01179918900000000333, 1.444983904138466284E-18, -1.444983904138466284E-18 ) ) ;
#63 = AXIS2_PLACEMENT_3D ( 'NONE', #149, #236, #266 ) ;
#64 = CARTESIAN_POINT ( 'NONE',  ( 0.04405499999999973326, 6.313666573004162521E-18, 1.496062999999999921 ) ) ;
#65 = ORIENTED_EDGE ( 'NONE', *, *, #51, .T. ) ;
#66 = CIRCLE ( 'NONE', #218, 0.04405499999999973326 ) ;
#67 = DIRECTION ( 'NONE',  ( 0.0000000000000000000, 0.0000000000000000000, -1.000000000000000000 ) ) ;
#68 = ADVANCED_FACE ( 'NONE', ( #132 ), #185, .T. ) ;
#69 =( NAMED_UNIT ( * ) PLANE_ANGLE_UNIT ( ) SI_UNIT ( $, .RADIAN. ) );
#70 = DIRECTION ( 'NONE',  ( -0.0000000000000000000, -0.0000000000000000000, -1.000000000000000000 ) ) ;
#71 = PRODUCT ( 'Micro_RMEM-006-2X', 'Micro_RMEM-006-2X', '', ( #29 ) ) ;
#72 = DIRECTION ( 'NONE',  ( 1.000000000000000000, 0.0000000000000000000, 0.0000000000000000000 ) ) ;
#73 = CARTESIAN_POINT ( 'NONE',  ( 0.01179918900000000333, 1.444983904138466284E-18, 0.0000000000000000000 ) ) ;
#74 = EDGE_CURVE ( 'NONE', #31, #208, #237, .T. ) ;
#75 = DIRECTION ( 'NONE',  ( -0.0000000000000000000, -0.0000000000000000000, -1.000000000000000000 ) ) ;
#76 =( CONVERSION_BASED_UNIT ( 'INCH', #147 ) LENGTH_UNIT ( ) NAMED_UNIT ( #194 ) );
#77 = ORIENTED_EDGE ( 'NONE', *, *, #105, .F. ) ;
#78 = EDGE_CURVE ( 'NONE', #256, #208, #9, .T. ) ;
#79 = DIRECTION ( 'NONE',  ( -1.000000000000000000, 0.0000000000000000000, 1.224646799147353207E-16 ) ) ;
#80 = CARTESIAN_POINT ( 'NONE',  ( 0.01179918900000001200, 0.0000000000000000000, 0.07086599999999999844 ) ) ;
#81 = DIRECTION ( 'NONE',  ( 0.0000000000000000000, 0.0000000000000000000, -1.000000000000000000 ) ) ;
#82 = AXIS2_PLACEMENT_3D ( 'NONE', #177, #239, #128 ) ;
#83 = DIRECTION ( 'NONE',  ( 0.0000000000000000000, 0.0000000000000000000, 1.000000000000000000 ) ) ;
#84 = CARTESIAN_POINT ( 'NONE',  ( 0.0000000000000000000, 0.0000000000000000000, 1.496062999999999921 ) ) ;
#85 = ORIENTED_EDGE ( 'NONE', *, *, #212, .F. ) ;
#86 = ADVANCED_FACE ( 'NONE', ( #286 ), #273, .T. ) ;
#87 = VECTOR ( 'NONE', #174, 39.37007874015748143 ) ;
#88 = VERTEX_POINT ( 'NONE', #263 ) ;
#89 = ORIENTED_EDGE ( 'NONE', *, *, #78, .T. ) ;
#90 = EDGE_CURVE ( 'NONE', #131, #53, #5, .T. ) ;
#91 = CARTESIAN_POINT ( 'NONE',  ( 0.0000000000000000000, 0.0000000000000000000, 1.496062999999999921 ) ) ;
#92 = CARTESIAN_POINT ( 'NONE',  ( 0.0000000000000000000, 0.0000000000000000000, 1.496062999999999921 ) ) ;
#93 = LINE ( 'NONE', #173, #150 ) ;
#94 = EDGE_CURVE ( 'NONE', #53, #208, #93, .T. ) ;
#95 = FILL_AREA_STYLE_COLOUR ( '', #42 ) ;
#96 = FACE_OUTER_BOUND ( 'NONE', #248, .T. ) ;
#97 = VECTOR ( 'NONE', #180, 39.37007874015748143 ) ;
#98 = AXIS2_PLACEMENT_3D ( 'NONE', #91, #199, #24 ) ;
#99 = DIRECTION ( 'NONE',  ( -1.000000000000000000, 0.0000000000000000000, 0.0000000000000000000 ) ) ;
#100 = CARTESIAN_POINT ( 'NONE',  ( -0.05905500000000000332, 0.0000000000000000000, 1.496062999999999921 ) ) ;
#101 = ORIENTED_EDGE ( 'NONE', *, *, #290, .F. ) ;
#102 = CONICAL_SURFACE ( 'NONE', #48, 0.04405499999999973326, 0.7853981633974491672 ) ;
#103 = ORIENTED_EDGE ( 'NONE', *, *, #163, .F. ) ;
#104 = ORIENTED_EDGE ( 'NONE', *, *, #260, .F. ) ;
#105 = EDGE_CURVE ( 'NONE', #256, #160, #17, .T. ) ;
#106 = CARTESIAN_POINT ( 'NONE',  ( 0.0000000000000000000, 0.0000000000000000000, 1.496062999999999921 ) ) ;
#107 = SHAPE_DEFINITION_REPRESENTATION ( #244, #283 ) ;
#108 = DIRECTION ( 'NONE',  ( 1.000000000000000000, 0.0000000000000000000, 0.0000000000000000000 ) ) ;
#109 = VERTEX_POINT ( 'NONE', #73 ) ;
#110 = FACE_OUTER_BOUND ( 'NONE', #143, .T. ) ;
#111 = AXIS2_PLACEMENT_3D ( 'NONE', #271, #156, #221 ) ;
#112 = CARTESIAN_POINT ( 'NONE',  ( 0.0000000000000000000, 0.0000000000000000000, 1.481062999999999574 ) ) ;
#113 = FILL_AREA_STYLE ('',( #95 ) ) ;
#114 = FACE_OUTER_BOUND ( 'NONE', #190, .T. ) ;
#115 = CYLINDRICAL_SURFACE ( 'NONE', #214, 0.01179918900000000333 ) ;
#116 =( LENGTH_UNIT ( ) NAMED_UNIT ( * ) SI_UNIT ( $, .METRE. ) );
#117 =( LENGTH_UNIT ( ) NAMED_UNIT ( * ) SI_UNIT ( $, .METRE. ) );
#118 = CARTESIAN_POINT ( 'NONE',  ( 0.0000000000000000000, 0.0000000000000000000, 1.496062999999999921 ) ) ;
#119 = ADVANCED_FACE ( 'NONE', ( #127 ), #115, .T. ) ;
#120 = ADVANCED_FACE ( 'NONE', ( #243 ), #144, .T. ) ;
#121 = ORIENTED_EDGE ( 'NONE', *, *, #6, .T. ) ;
#122 = DIRECTION ( 'NONE',  ( 0.0000000000000000000, 0.0000000000000000000, 1.000000000000000000 ) ) ;
#123 = LINE ( 'NONE', #22, #276 ) ;
#124 = CARTESIAN_POINT ( 'NONE',  ( 0.0000000000000000000, 0.0000000000000000000, 0.0000000000000000000 ) ) ;
#125 = PRESENTATION_STYLE_ASSIGNMENT (( #46 ) ) ;
#126 = MECHANICAL_DESIGN_GEOMETRIC_PRESENTATION_REPRESENTATION (  '', ( #13 ), #259 ) ;
#127 = FACE_OUTER_BOUND ( 'NONE', #134, .T. ) ;
#128 = DIRECTION ( 'NONE',  ( -1.000000000000000000, 0.0000000000000000000, 0.0000000000000000000 ) ) ;
#129 = AXIS2_PLACEMENT_3D ( 'NONE', #84, #83, #278 ) ;
#130 = MECHANICAL_DESIGN_GEOMETRIC_PRESENTATION_REPRESENTATION (  '', ( #165 ), #18 ) ;
#131 = VERTEX_POINT ( 'NONE', #272 ) ;
#132 = FACE_OUTER_BOUND ( 'NONE', #187, .T. ) ;
#133 = EDGE_CURVE ( 'NONE', #88, #131, #157, .T. ) ;
#134 = EDGE_LOOP ( 'NONE', ( #206, #261, #3, #32 ) ) ;
#135 = CARTESIAN_POINT ( 'NONE',  ( 0.05905500000000000332, 7.232151672364695422E-18, 1.481062999999999574 ) ) ;
#136 = ORIENTED_EDGE ( 'NONE', *, *, #45, .F. ) ;
#137 =( CONVERSION_BASED_UNIT ( 'INCH', #184 ) LENGTH_UNIT ( ) NAMED_UNIT ( #186 ) );
#138 = FACE_OUTER_BOUND ( 'NONE', #275, .T. ) ;
#139 = AXIS2_PLACEMENT_3D ( 'NONE', #112, #67, #294 ) ;
#140 = AXIS2_PLACEMENT_3D ( 'NONE', #92, #75, #39 ) ;
#141 = ORIENTED_EDGE ( 'NONE', *, *, #212, .T. ) ;
#142 = ORIENTED_EDGE ( 'NONE', *, *, #23, .F. ) ;
#143 = EDGE_LOOP ( 'NONE', ( #10, #277, #14, #142 ) ) ;
#144 = CONICAL_SURFACE ( 'NONE', #257, 0.04405499999999973326, 0.7853981633974491672 ) ;
#145 = VECTOR ( 'NONE', #296, 39.37007874015747433 ) ;
#146 = ORIENTED_EDGE ( 'NONE', *, *, #94, .F. ) ;
#147 = LENGTH_MEASURE_WITH_UNIT ( LENGTH_MEASURE( 0.02539999999999999897 ), #116 );
#148 = PLANE ( 'NONE',  #98 ) ;
#149 = CARTESIAN_POINT ( 'NONE',  ( 8.678582006837632658E-18, 0.0000000000000000000, 0.07086599999999999844 ) ) ;
#150 = VECTOR ( 'NONE', #70, 39.37007874015748143 ) ;
#151 =( NAMED_UNIT ( * ) SI_UNIT ( $, .STERADIAN. ) SOLID_ANGLE_UNIT ( ) );
#152 = CYLINDRICAL_SURFACE ( 'NONE', #82, 0.05905500000000000332 ) ;
#153 = LINE ( 'NONE', #168, #87 ) ;
#154 = SURFACE_SIDE_STYLE ('',( #43 ) ) ;
#155 = CARTESIAN_POINT ( 'NONE',  ( -0.05905499999999996169, 0.0000000000000000000, 0.3388670217955891406 ) ) ;
#156 = DIRECTION ( 'NONE',  ( -1.224646799147353207E-16, -0.0000000000000000000, -1.000000000000000000 ) ) ;
#157 = LINE ( 'NONE', #247, #188 ) ;
#158 =( NAMED_UNIT ( * ) SI_UNIT ( $, .STERADIAN. ) SOLID_ANGLE_UNIT ( ) );
#159 = ORIENTED_EDGE ( 'NONE', *, *, #23, .T. ) ;
#160 = VERTEX_POINT ( 'NONE', #33 ) ;
#161 = AXIS2_PLACEMENT_3D ( 'NONE', #166, #298, #99 ) ;
#162 = CARTESIAN_POINT ( 'NONE',  ( 0.0000000000000000000, 0.0000000000000000000, 0.0000000000000000000 ) ) ;
#163 = EDGE_CURVE ( 'NONE', #88, #202, #66, .T. ) ;
#164 = ADVANCED_FACE ( 'NONE', ( #138 ), #102, .T. ) ;
#165 = STYLED_ITEM ( 'NONE', ( #125 ), #292 ) ;
#166 = CARTESIAN_POINT ( 'NONE',  ( 8.678582006837632658E-18, 0.0000000000000000000, 0.07086599999999999844 ) ) ;
#167 = EDGE_LOOP ( 'NONE', ( #204, #20 ) ) ;
#168 = CARTESIAN_POINT ( 'NONE',  ( -0.01179918900000000333, 0.0000000000000000000, 1.444983904138466284E-18 ) ) ;
#169 = DIRECTION ( 'NONE',  ( 1.000000000000000000, 0.0000000000000000000, 0.0000000000000000000 ) ) ;
#170 = CIRCLE ( 'NONE', #161, 0.01179918900000000333 ) ;
#171 = PRESENTATION_LAYER_ASSIGNMENT (  '', '', ( #13 ) ) ;
#172 = ORIENTED_EDGE ( 'NONE', *, *, #74, .T. ) ;
#173 = CARTESIAN_POINT ( 'NONE',  ( 0.05905500000000000332, 7.232151672364695422E-18, 1.496062999999999921 ) ) ;
#174 = DIRECTION ( 'NONE',  ( -1.224646799147353207E-16, -0.0000000000000000000, -1.000000000000000000 ) ) ;
#175 = VECTOR ( 'NONE', #55, 39.37007874015748143 ) ;
#176 = PLANE ( 'NONE',  #183 ) ;
#177 = CARTESIAN_POINT ( 'NONE',  ( 0.0000000000000000000, 0.0000000000000000000, 1.496062999999999921 ) ) ;
#178 = DIRECTION ( 'NONE',  ( 1.224646799147353207E-16, 0.0000000000000000000, 1.000000000000000000 ) ) ;
#179 = CARTESIAN_POINT ( 'NONE',  ( -0.01179918900000000333, 0.0000000000000000000, 2.889967808276932569E-18 ) ) ;
#180 = DIRECTION ( 'NONE',  ( -0.0000000000000000000, -0.0000000000000000000, -1.000000000000000000 ) ) ;
#181 = DIRECTION ( 'NONE',  ( -1.000000000000000000, 0.0000000000000000000, 0.0000000000000000000 ) ) ;
#182 = ORIENTED_EDGE ( 'NONE', *, *, #90, .F. ) ;
#183 = AXIS2_PLACEMENT_3D ( 'NONE', #216, #291, #211 ) ;
#184 = LENGTH_MEASURE_WITH_UNIT ( LENGTH_MEASURE( 0.02539999999999999897 ), #117 );
#185 = CYLINDRICAL_SURFACE ( 'NONE', #287, 0.01179918900000000333 ) ;
#186 = DIMENSIONAL_EXPONENTS ( 1.000000000000000000, 0.0000000000000000000, 0.0000000000000000000, 0.0000000000000000000, 0.0000000000000000000, 0.0000000000000000000, 0.0000000000000000000 ) ;
#187 = EDGE_LOOP ( 'NONE', ( #141, #65, #101, #35 ) ) ;
#188 = VECTOR ( 'NONE', #251, 39.37007874015748143 ) ;
#189 = CARTESIAN_POINT ( 'NONE',  ( 0.05905500000000004496, 7.232151672364700045E-18, 0.3388670217955891406 ) ) ;
#190 = EDGE_LOOP ( 'NONE', ( #104, #77, #89, #52 ) ) ;
#191 = UNCERTAINTY_MEASURE_WITH_UNIT (LENGTH_MEASURE( 1.000000000000000082E-05 ), #293, 'distance_accuracy_value', 'NONE');
#192 = CARTESIAN_POINT ( 'NONE',  ( 0.0000000000000000000, 0.0000000000000000000, 1.496062999999999921 ) ) ;
#193 = ORIENTED_EDGE ( 'NONE', *, *, #133, .F. ) ;
#194 = DIMENSIONAL_EXPONENTS ( 1.000000000000000000, 0.0000000000000000000, 0.0000000000000000000, 0.0000000000000000000, 0.0000000000000000000, 0.0000000000000000000, 0.0000000000000000000 ) ;
#195 = LENGTH_MEASURE_WITH_UNIT ( LENGTH_MEASURE( 0.02539999999999999897 ), #16 );
#196 = PRODUCT_DEFINITION ( 'UNKNOWN', '', #288, #207 ) ;
#197 = COLOUR_RGB ( '',0.7921568627450980005, 0.8196078431372548767, 0.9333333333333333481 ) ;
#198 = CYLINDRICAL_SURFACE ( 'NONE', #140, 0.05905500000000000332 ) ;
#199 = DIRECTION ( 'NONE',  ( 0.0000000000000000000, 0.0000000000000000000, 1.000000000000000000 ) ) ;
#200 = CIRCLE ( 'NONE', #253, 0.01179918900000000333 ) ;
#201 = DIRECTION ( 'NONE',  ( 0.0000000000000000000, 0.0000000000000000000, 1.000000000000000000 ) ) ;
#202 = VERTEX_POINT ( 'NONE', #64 ) ;
#203 = EDGE_CURVE ( 'NONE', #160, #27, #153, .T. ) ;
#204 = ORIENTED_EDGE ( 'NONE', *, *, #290, .T. ) ;
#205 = AXIS2_PLACEMENT_3D ( 'NONE', #223, #227, #28 ) ;
#206 = ORIENTED_EDGE ( 'NONE', *, *, #51, .F. ) ;
#207 = PRODUCT_DEFINITION_CONTEXT ( 'detailed design', #269, 'design' ) ;
#208 = VERTEX_POINT ( 'NONE', #189 ) ;
#209 = DIRECTION ( 'NONE',  ( 1.000000000000000000, 0.0000000000000000000, 0.0000000000000000000 ) ) ;
#210 = VECTOR ( 'NONE', #234, 39.37007874015748143 ) ;
#211 = DIRECTION ( 'NONE',  ( 1.000000000000000000, 0.0000000000000000000, -0.0000000000000000000 ) ) ;
#212 = EDGE_CURVE ( 'NONE', #160, #256, #170, .T. ) ;
#213 = CARTESIAN_POINT ( 'NONE',  ( 0.01179918900000001200, 0.0000000000000000000, 0.07086599999999999844 ) ) ;
#214 = AXIS2_PLACEMENT_3D ( 'NONE', #270, #224, #79 ) ;
#215 = FACE_OUTER_BOUND ( 'NONE', #7, .T. ) ;
#216 = CARTESIAN_POINT ( 'NONE',  ( 0.0000000000000000000, 0.0000000000000000000, 0.0000000000000000000 ) ) ;
#217 = DIRECTION ( 'NONE',  ( -1.224646799147353207E-16, -0.0000000000000000000, -1.000000000000000000 ) ) ;
#218 = AXIS2_PLACEMENT_3D ( 'NONE', #106, #122, #209 ) ;
#219 = FILL_AREA_STYLE_COLOUR ( '', #197 ) ;
#220 = PRESENTATION_LAYER_ASSIGNMENT (  '', '', ( #165 ) ) ;
#221 = DIRECTION ( 'NONE',  ( -1.000000000000000000, 0.0000000000000000000, 1.224646799147353207E-16 ) ) ;
#222 = CIRCLE ( 'NONE', #25, 0.05905500000000000332 ) ;
#223 = CARTESIAN_POINT ( 'NONE',  ( 4.149924135785646237E-17, 0.0000000000000000000, 0.3388670217955891406 ) ) ;
#224 = DIRECTION ( 'NONE',  ( -1.224646799147353207E-16, -0.0000000000000000000, -1.000000000000000000 ) ) ;
#225 = FILL_AREA_STYLE ('',( #219 ) ) ;
#226 = PRODUCT_RELATED_PRODUCT_CATEGORY ( 'part', '', ( #71 ) ) ;
#227 = DIRECTION ( 'NONE',  ( -1.224646799147353207E-16, -0.0000000000000000000, -1.000000000000000000 ) ) ;
#228 = CONICAL_SURFACE ( 'NONE', #36, 0.01179918900000000333, 0.1745329251994338637 ) ;
#229 = UNCERTAINTY_MEASURE_WITH_UNIT (LENGTH_MEASURE( 1.000000000000000082E-05 ), #76, 'distance_accuracy_value', 'NONE');
#230 = ADVANCED_FACE ( 'NONE', ( #268 ), #176, .F. ) ;
#231 = APPLICATION_CONTEXT ( 'automotive_design' ) ;
#232 = DIRECTION ( 'NONE',  ( 1.000000000000000000, 0.0000000000000000000, 0.0000000000000000000 ) ) ;
#233 = ADVANCED_FACE ( 'NONE', ( #114 ), #228, .T. ) ;
#234 = DIRECTION ( 'NONE',  ( 0.1736481776669313581, 0.0000000000000000000, 0.9848077530122077983 ) ) ;
#235 = LINE ( 'NONE', #37, #145 ) ;
#236 = DIRECTION ( 'NONE',  ( -1.224646799147353207E-16, -0.0000000000000000000, -1.000000000000000000 ) ) ;
#237 = CIRCLE ( 'NONE', #205, 0.05905500000000000332 ) ;
#238 = ORIENTED_EDGE ( 'NONE', *, *, #78, .F. ) ;
#239 = DIRECTION ( 'NONE',  ( -0.0000000000000000000, -0.0000000000000000000, -1.000000000000000000 ) ) ;
#240 = CARTESIAN_POINT ( 'NONE',  ( 1.769594913022618550E-34, 0.0000000000000000000, 1.444983904138466284E-18 ) ) ;
#241 = DIRECTION ( 'NONE',  ( 1.000000000000000000, 0.0000000000000000000, 0.0000000000000000000 ) ) ;
#242 = ADVANCED_FACE ( 'NONE', ( #110 ), #198, .T. ) ;
#243 = FACE_OUTER_BOUND ( 'NONE', #297, .T. ) ;
#244 = PRODUCT_DEFINITION_SHAPE ( 'NONE', 'NONE',  #196 ) ;
#245 =( GEOMETRIC_REPRESENTATION_CONTEXT ( 3 ) GLOBAL_UNCERTAINTY_ASSIGNED_CONTEXT ( ( #229 ) ) GLOBAL_UNIT_ASSIGNED_CONTEXT ( ( #76, #69, #158 ) ) REPRESENTATION_CONTEXT ( 'NONE', 'WORKASPACE' ) );
#246 = ADVANCED_FACE ( 'NONE', ( #215 ), #148, .T. ) ;
#247 = CARTESIAN_POINT ( 'NONE',  ( -0.04405499999999973326, 0.0000000000000000000, 1.496062999999999921 ) ) ;
#248 = EDGE_LOOP ( 'NONE', ( #146, #121, #159, #61 ) ) ;
#249 = SURFACE_SIDE_STYLE ('',( #58 ) ) ;
#250 = LINE ( 'NONE', #62, #175 ) ;
#251 = DIRECTION ( 'NONE',  ( -0.7071067811865482389, 0.0000000000000000000, -0.7071067811865469066 ) ) ;
#252 = ORIENTED_EDGE ( 'NONE', *, *, #163, .T. ) ;
#253 = AXIS2_PLACEMENT_3D ( 'NONE', #240, #40, #21 ) ;
#254 = ORIENTED_EDGE ( 'NONE', *, *, #289, .F. ) ;
#255 = DIRECTION ( 'NONE',  ( -1.224646799147353207E-16, -0.0000000000000000000, -1.000000000000000000 ) ) ;
#256 = VERTEX_POINT ( 'NONE', #213 ) ;
#257 = AXIS2_PLACEMENT_3D ( 'NONE', #118, #56, #181 ) ;
#258 = CARTESIAN_POINT ( 'NONE',  ( 8.678582006837632658E-18, 0.0000000000000000000, 0.07086599999999999844 ) ) ;
#259 =( GEOMETRIC_REPRESENTATION_CONTEXT ( 3 ) GLOBAL_UNCERTAINTY_ASSIGNED_CONTEXT ( ( #11 ) ) GLOBAL_UNIT_ASSIGNED_CONTEXT ( ( #137, #50, #280 ) ) REPRESENTATION_CONTEXT ( 'NONE', 'WORKASPACE' ) );
#260 = EDGE_CURVE ( 'NONE', #160, #31, #235, .T. ) ;
#261 = ORIENTED_EDGE ( 'NONE', *, *, #105, .T. ) ;
#262 = ORIENTED_EDGE ( 'NONE', *, *, #6, .F. ) ;
#263 = CARTESIAN_POINT ( 'NONE',  ( -0.04405499999999973326, 0.0000000000000000000, 1.496062999999999921 ) ) ;
#264 = CARTESIAN_POINT ( 'NONE',  ( 8.678582006837632658E-18, 0.0000000000000000000, 0.07086599999999999844 ) ) ;
#265 = CARTESIAN_POINT ( 'NONE',  ( 4.149924135785646237E-17, 0.0000000000000000000, 0.3388670217955891406 ) ) ;
#266 = DIRECTION ( 'NONE',  ( -1.000000000000000000, 0.0000000000000000000, 0.0000000000000000000 ) ) ;
#267 = DIRECTION ( 'NONE',  ( 1.224646799147353207E-16, 0.0000000000000000000, 1.000000000000000000 ) ) ;
#268 = FACE_OUTER_BOUND ( 'NONE', #167, .T. ) ;
#269 = APPLICATION_CONTEXT ( 'automotive_design' ) ;
#270 = CARTESIAN_POINT ( 'NONE',  ( 0.0000000000000000000, 0.0000000000000000000, 0.0000000000000000000 ) ) ;
#271 = CARTESIAN_POINT ( 'NONE',  ( 1.769594913022618550E-34, 0.0000000000000000000, 1.444983904138466284E-18 ) ) ;
#272 = CARTESIAN_POINT ( 'NONE',  ( -0.05905500000000000332, 0.0000000000000000000, 1.481062999999999574 ) ) ;
#273 = CONICAL_SURFACE ( 'NONE', #1, 0.01179918900000000333, 0.1745329251994338637 ) ;
#274 = CIRCLE ( 'NONE', #129, 0.04405499999999973326 ) ;
#275 = EDGE_LOOP ( 'NONE', ( #254, #103, #57, #262 ) ) ;
#276 = VECTOR ( 'NONE', #295, 39.37007874015748143 ) ;
#277 = ORIENTED_EDGE ( 'NONE', *, *, #94, .T. ) ;
#278 = DIRECTION ( 'NONE',  ( 1.000000000000000000, 0.0000000000000000000, 0.0000000000000000000 ) ) ;
#279 = CARTESIAN_POINT ( 'NONE',  ( 0.0000000000000000000, 0.0000000000000000000, 1.481062999999999574 ) ) ;
#280 =( NAMED_UNIT ( * ) SI_UNIT ( $, .STERADIAN. ) SOLID_ANGLE_UNIT ( ) );
#281 = PRESENTATION_STYLE_ASSIGNMENT (( #26 ) ) ;
#282 = CIRCLE ( 'NONE', #41, 0.05905500000000000332 ) ;
#283 = ADVANCED_BREP_SHAPE_REPRESENTATION ( 'Micro_RMEM-006-2X', ( #292, #49 ), #245 ) ;
#284 = DIRECTION ( 'NONE',  ( -1.000000000000000000, 0.0000000000000000000, 0.0000000000000000000 ) ) ;
#285 = ORIENTED_EDGE ( 'NONE', *, *, #45, .T. ) ;
#286 = FACE_OUTER_BOUND ( 'NONE', #4, .T. ) ;
#287 = AXIS2_PLACEMENT_3D ( 'NONE', #162, #255, #60 ) ;
#288 = PRODUCT_DEFINITION_FORMATION_WITH_SPECIFIED_SOURCE ( 'ANY', '', #71, .NOT_KNOWN. ) ;
#289 = EDGE_CURVE ( 'NONE', #202, #53, #123, .T. ) ;
#290 = EDGE_CURVE ( 'NONE', #27, #109, #200, .T. ) ;
#291 = DIRECTION ( 'NONE',  ( 0.0000000000000000000, 0.0000000000000000000, 1.000000000000000000 ) ) ;
#292 = MANIFOLD_SOLID_BREP ( 'Cut-Revolve1', #38 ) ;
#293 =( CONVERSION_BASED_UNIT ( 'INCH', #195 ) LENGTH_UNIT ( ) NAMED_UNIT ( #59 ) );
#294 = DIRECTION ( 'NONE',  ( 1.000000000000000000, 0.0000000000000000000, 0.0000000000000000000 ) ) ;
#295 = DIRECTION ( 'NONE',  ( 0.7071067811865482389, 8.659560562354941486E-17, -0.7071067811865469066 ) ) ;
#296 = DIRECTION ( 'NONE',  ( -0.1736481776669311639, 2.126576849575783008E-17, 0.9848077530122080203 ) ) ;
#297 = EDGE_LOOP ( 'NONE', ( #136, #44, #182, #193 ) ) ;
#298 = DIRECTION ( 'NONE',  ( -1.224646799147353207E-16, -0.0000000000000000000, -1.000000000000000000 ) ) ;
#299 = LINE ( 'NONE', #100, #97 ) ;
ENDSEC;
END-ISO-10303-21;
