ISO-10303-21;
HEADER;
FILE_DESCRIPTION (( 'STEP AP214' ),
    '1' );
FILE_NAME ('84630.STEP',
    '2023-06-23T14:09:34',
    ( '' ),
    ( '' ),
    'SwSTEP 2.0',
    'SolidWorks 2023',
    '' );
FILE_SCHEMA (( 'AUTOMOTIVE_DESIGN' ));
ENDSEC;

DATA;
#1 = EDGE_CURVE ( 'NONE', #248, #68, #93, .T. ) ;
#2 = PRESENTATION_STYLE_ASSIGNMENT (( #144 ) ) ;
#3 = AXIS2_PLACEMENT_3D ( 'NONE', #355, #163, #245 ) ;
#4 = DIRECTION ( 'NONE',  ( -1.000000000000000000, -3.265724797726275178E-17, 0.000000000000000000 ) ) ;
#5 = DIRECTION ( 'NONE',  ( -3.265724797726275178E-17, 1.000000000000000000, -0.000000000000000000 ) ) ;
#6 = MANIFOLD_SOLID_BREP ( 'Revolve - Cutting Edge', #296 ) ;
#7 = CIRCLE ( 'NONE', #243, 0.1250000000000000000 ) ;
#8 = DIRECTION ( 'NONE',  ( -0.000000000000000000, -1.000000000000000000, -0.000000000000000000 ) ) ;
#9 = SURFACE_STYLE_FILL_AREA ( #11 ) ;
#10 = PRESENTATION_LAYER_ASSIGNMENT (  '', '', ( #253 ) ) ;
#11 = FILL_AREA_STYLE ('',( #293 ) ) ;
#12 = FILL_AREA_STYLE ('',( #160 ) ) ;
#13 = ORIENTED_EDGE ( 'NONE', *, *, #342, .T. ) ;
#14 = DIRECTION ( 'NONE',  ( 1.000000000000000000, 3.265724797726275178E-17, 0.000000000000000000 ) ) ;
#15 = ORIENTED_EDGE ( 'NONE', *, *, #212, .F. ) ;
#16 = MECHANICAL_DESIGN_GEOMETRIC_PRESENTATION_REPRESENTATION (  '', ( #253 ), #303 ) ;
#17 = AXIS2_PLACEMENT_3D ( 'NONE', #82, #90, #262 ) ;
#18 = PRESENTATION_STYLE_ASSIGNMENT (( #66 ) ) ;
#19 = APPLICATION_CONTEXT ( 'automotive_design' ) ;
#20 = ADVANCED_FACE ( 'NONE', ( #269 ), #346, .F. ) ;
#21 = PRESENTATION_STYLE_ASSIGNMENT (( #119 ) ) ;
#22 = ORIENTED_EDGE ( 'NONE', *, *, #329, .F. ) ;
#23 =( NAMED_UNIT ( * ) PLANE_ANGLE_UNIT ( ) SI_UNIT ( $, .RADIAN. ) );
#24 = CARTESIAN_POINT ( 'NONE',  ( -0.1250000000000000000, 0.6679980216144647542, 0.000000000000000000 ) ) ;
#25 =( CONVERSION_BASED_UNIT ( 'INCH', #98 ) LENGTH_UNIT ( ) NAMED_UNIT ( #210 ) );
#26 = COLOUR_RGB ( '',0.7921568627450980005, 0.8196078431372548767, 0.9333333333333333481 ) ;
#27 = SURFACE_STYLE_FILL_AREA ( #132 ) ;
#28 = PLANE ( 'NONE',  #69 ) ;
#29 = CARTESIAN_POINT ( 'NONE',  ( 5.831066034989302227E-35, 0.6250000000000000000, 0.000000000000000000 ) ) ;
#30 = AXIS2_PLACEMENT_3D ( 'NONE', #264, #216, #347 ) ;
#31 = DIRECTION ( 'NONE',  ( -3.265724797726275178E-17, 1.000000000000000000, -0.000000000000000000 ) ) ;
#32 = EDGE_CURVE ( 'NONE', #57, #236, #247, .T. ) ;
#33 = DIRECTION ( 'NONE',  ( -3.265724797726275178E-17, 1.000000000000000000, -0.000000000000000000 ) ) ;
#34 = APPLICATION_CONTEXT ( 'automotive_design' ) ;
#35 = PRODUCT_RELATED_PRODUCT_CATEGORY ( 'part', '', ( #179 ) ) ;
#36 = VECTOR ( 'NONE', #341, 39.37007874015748143 ) ;
#37 = SURFACE_SIDE_STYLE ('',( #180 ) ) ;
#38 = PLANE ( 'NONE',  #186 ) ;
#39 = EDGE_LOOP ( 'NONE', ( #299, #302, #305, #191 ) ) ;
#40 = SHAPE_DEFINITION_REPRESENTATION ( #143, #314 ) ;
#41 = CYLINDRICAL_SURFACE ( 'NONE', #30, 0.1250000000000000278 ) ;
#42 = LENGTH_MEASURE_WITH_UNIT ( LENGTH_MEASURE( 0.02539999999999999897 ), #227 );
#43 = ORIENTED_EDGE ( 'NONE', *, *, #113, .F. ) ;
#44 = MECHANICAL_DESIGN_GEOMETRIC_PRESENTATION_REPRESENTATION (  '', ( #109 ), #330 ) ;
#45 =( NAMED_UNIT ( * ) SI_UNIT ( $, .STERADIAN. ) SOLID_ANGLE_UNIT ( ) );
#46 = LENGTH_MEASURE_WITH_UNIT ( LENGTH_MEASURE( 0.02539999999999999897 ), #92 );
#47 = ORIENTED_EDGE ( 'NONE', *, *, #223, .T. ) ;
#48 = ADVANCED_FACE ( 'NONE', ( #278 ), #280, .T. ) ;
#49 = FACE_OUTER_BOUND ( 'NONE', #240, .T. ) ;
#50 = CIRCLE ( 'NONE', #158, 0.1250000000000000555 ) ;
#51 = CARTESIAN_POINT ( 'NONE',  ( 0.1093500000000000028, 0.6250000000000000000, 1.434979886900910994E-17 ) ) ;
#52 = CARTESIAN_POINT ( 'NONE',  ( -6.123233995736766036E-17, 2.500000000000000000, 0.000000000000000000 ) ) ;
#53 = CIRCLE ( 'NONE', #151, 0.1093500000000000028 ) ;
#54 = PRODUCT_DEFINITION_CONTEXT ( 'detailed design', #19, 'design' ) ;
#55 = DIRECTION ( 'NONE',  ( -1.000000000000000000, 0.000000000000000000, 0.000000000000000000 ) ) ;
#56 = DIRECTION ( 'NONE',  ( 0.000000000000000000, 0.000000000000000000, -1.000000000000000000 ) ) ;
#57 = VERTEX_POINT ( 'NONE', #211 ) ;
#58 = FILL_AREA_STYLE ('',( #84 ) ) ;
#59 = FACE_OUTER_BOUND ( 'NONE', #154, .T. ) ;
#60 = FILL_AREA_STYLE ('',( #313 ) ) ;
#61 = EDGE_CURVE ( 'NONE', #193, #164, #53, .T. ) ;
#62 =( GEOMETRIC_REPRESENTATION_CONTEXT ( 3 ) GLOBAL_UNCERTAINTY_ASSIGNED_CONTEXT ( ( #139 ) ) GLOBAL_UNIT_ASSIGNED_CONTEXT ( ( #288, #83, #237 ) ) REPRESENTATION_CONTEXT ( 'NONE', 'WORKASPACE' ) );
#63 = COLOUR_RGB ( '',1.000000000000000000, 0.000000000000000000, 0.000000000000000000 ) ;
#64 = ADVANCED_FACE ( 'NONE', ( #116 ), #41, .T. ) ;
#65 = SURFACE_SIDE_STYLE ('',( #157 ) ) ;
#66 = SURFACE_STYLE_USAGE ( .BOTH. , #65 ) ;
#67 = DIRECTION ( 'NONE',  ( -0.000000000000000000, -1.000000000000000000, -0.000000000000000000 ) ) ;
#68 = VERTEX_POINT ( 'NONE', #183 ) ;
#69 = AXIS2_PLACEMENT_3D ( 'NONE', #333, #251, #77 ) ;
#70 = ADVANCED_FACE ( 'NONE', ( #81 ), #94, .T. ) ;
#71 = CARTESIAN_POINT ( 'NONE',  ( 0.000000000000000000, 0.6250000000000000000, -0.1093500000000000028 ) ) ;
#72 = CARTESIAN_POINT ( 'NONE',  ( 0.1250000000000000000, 2.500000000000000000, 0.000000000000000000 ) ) ;
#73 = DIRECTION ( 'NONE',  ( -3.265724797726275178E-17, 1.000000000000000000, 0.000000000000000000 ) ) ;
#74 = LINE ( 'NONE', #202, #80 ) ;
#75 = AXIS2_PLACEMENT_3D ( 'NONE', #110, #31, #55 ) ;
#76 =( LENGTH_UNIT ( ) NAMED_UNIT ( * ) SI_UNIT ( $, .METRE. ) );
#77 = DIRECTION ( 'NONE',  ( 0.000000000000000000, -0.000000000000000000, 1.000000000000000000 ) ) ;
#78 = CARTESIAN_POINT ( 'NONE',  ( 0.1250000000000000000, 0.6679980216144647542, 1.530808498934191509E-17 ) ) ;
#79 = AXIS2_PLACEMENT_3D ( 'NONE', #72, #221, #14 ) ;
#80 = VECTOR ( 'NONE', #308, 39.37007874015748143 ) ;
#81 = FACE_OUTER_BOUND ( 'NONE', #263, .T. ) ;
#82 = CARTESIAN_POINT ( 'NONE',  ( 0.000000000000000000, 0.000000000000000000, 0.000000000000000000 ) ) ;
#83 =( NAMED_UNIT ( * ) PLANE_ANGLE_UNIT ( ) SI_UNIT ( $, .RADIAN. ) );
#84 = FILL_AREA_STYLE_COLOUR ( '', #173 ) ;
#85 =( NAMED_UNIT ( * ) SI_UNIT ( $, .STERADIAN. ) SOLID_ANGLE_UNIT ( ) );
#86 = DIRECTION ( 'NONE',  ( 0.000000000000000000, 0.000000000000000000, -1.000000000000000000 ) ) ;
#87 = COLOUR_RGB ( '',1.000000000000000000, 0.000000000000000000, 0.000000000000000000 ) ;
#88 =( NAMED_UNIT ( * ) SI_UNIT ( $, .STERADIAN. ) SOLID_ANGLE_UNIT ( ) );
#89 = ADVANCED_FACE ( 'NONE', ( #59 ), #38, .T. ) ;
#90 = DIRECTION ( 'NONE',  ( 0.000000000000000000, 0.000000000000000000, 1.000000000000000000 ) ) ;
#91 = CARTESIAN_POINT ( 'NONE',  ( 0.000000000000000000, 0.6250000000000000000, 0.000000000000000000 ) ) ;
#92 =( LENGTH_UNIT ( ) NAMED_UNIT ( * ) SI_UNIT ( $, .METRE. ) );
#93 = LINE ( 'NONE', #178, #118 ) ;
#94 = CONICAL_SURFACE ( 'NONE', #239, 0.1093500000000000028, 0.3490658503988662287 ) ;
#95 =( NAMED_UNIT ( * ) SI_UNIT ( $, .STERADIAN. ) SOLID_ANGLE_UNIT ( ) );
#96 = ORIENTED_EDGE ( 'NONE', *, *, #259, .T. ) ;
#97 = AXIS2_PLACEMENT_3D ( 'NONE', #127, #196, #271 ) ;
#98 = LENGTH_MEASURE_WITH_UNIT ( LENGTH_MEASURE( 0.02539999999999999897 ), #156 );
#99 =( NAMED_UNIT ( * ) PLANE_ANGLE_UNIT ( ) SI_UNIT ( $, .RADIAN. ) );
#100 = CARTESIAN_POINT ( 'NONE',  ( 0.000000000000000000, 0.000000000000000000, -0.1093500000000000028 ) ) ;
#101 = FACE_OUTER_BOUND ( 'NONE', #198, .T. ) ;
#102 = ORIENTED_EDGE ( 'NONE', *, *, #277, .T. ) ;
#103 = SURFACE_STYLE_FILL_AREA ( #135 ) ;
#104 = LENGTH_MEASURE_WITH_UNIT ( LENGTH_MEASURE( 0.02539999999999999897 ), #76 );
#105 = UNCERTAINTY_MEASURE_WITH_UNIT (LENGTH_MEASURE( 1.000000000000000082E-05 ), #25, 'distance_accuracy_value', 'NONE');
#106 = DIMENSIONAL_EXPONENTS ( 1.000000000000000000, 0.000000000000000000, 0.000000000000000000, 0.000000000000000000, 0.000000000000000000, 0.000000000000000000, 0.000000000000000000 ) ;
#107 = DIRECTION ( 'NONE',  ( -3.265724797726275178E-17, 1.000000000000000000, -0.000000000000000000 ) ) ;
#108 = CLOSED_SHELL ( 'NONE', ( #64, #300, #287, #70, #336, #20 ) ) ;
#109 = STYLED_ITEM ( 'NONE', ( #130 ), #181 ) ;
#110 = CARTESIAN_POINT ( 'NONE',  ( 0.000000000000000000, 0.6250000000000000000, 0.000000000000000000 ) ) ;
#111 = DIMENSIONAL_EXPONENTS ( 1.000000000000000000, 0.000000000000000000, 0.000000000000000000, 0.000000000000000000, 0.000000000000000000, 0.000000000000000000, 0.000000000000000000 ) ;
#112 = DIRECTION ( 'NONE',  ( -1.000000000000000000, 0.000000000000000000, 0.000000000000000000 ) ) ;
#113 = EDGE_CURVE ( 'NONE', #189, #220, #282, .T. ) ;
#114 =( LENGTH_UNIT ( ) NAMED_UNIT ( * ) SI_UNIT ( $, .METRE. ) );
#115 = STYLED_ITEM ( 'NONE', ( #21 ), #121 ) ;
#116 = FACE_OUTER_BOUND ( 'NONE', #39, .T. ) ;
#117 = DIRECTION ( 'NONE',  ( -0.000000000000000000, -1.000000000000000000, -0.000000000000000000 ) ) ;
#118 = VECTOR ( 'NONE', #33, 39.37007874015748143 ) ;
#119 = SURFACE_STYLE_USAGE ( .BOTH. , #37 ) ;
#120 = ORIENTED_EDGE ( 'NONE', *, *, #137, .F. ) ;
#121 = MANIFOLD_SOLID_BREP ( 'Revolve - Tool Body (Reduced Cut Diameter)', #108 ) ;
#122 = FACE_OUTER_BOUND ( 'NONE', #268, .T. ) ;
#123 = ORIENTED_EDGE ( 'NONE', *, *, #61, .T. ) ;
#124 = ORIENTED_EDGE ( 'NONE', *, *, #167, .F. ) ;
#125 = AXIS2_PLACEMENT_3D ( 'NONE', #213, #192, #249 ) ;
#126 =( GEOMETRIC_REPRESENTATION_CONTEXT ( 3 ) GLOBAL_UNCERTAINTY_ASSIGNED_CONTEXT ( ( #207 ) ) GLOBAL_UNIT_ASSIGNED_CONTEXT ( ( #149, #148, #85 ) ) REPRESENTATION_CONTEXT ( 'NONE', 'WORKASPACE' ) );
#127 = CARTESIAN_POINT ( 'NONE',  ( 0.000000000000000000, 0.6250000000000000000, 0.000000000000000000 ) ) ;
#128 = CARTESIAN_POINT ( 'NONE',  ( 0.1093500000000000028, 0.6250000000000000000, 1.339151274867630787E-17 ) ) ;
#129 = ORIENTED_EDGE ( 'NONE', *, *, #342, .F. ) ;
#130 = PRESENTATION_STYLE_ASSIGNMENT (( #222 ) ) ;
#131 = ORIENTED_EDGE ( 'NONE', *, *, #167, .T. ) ;
#132 = FILL_AREA_STYLE ('',( #311 ) ) ;
#133 = ORIENTED_EDGE ( 'NONE', *, *, #32, .F. ) ;
#134 = MECHANICAL_DESIGN_GEOMETRIC_PRESENTATION_REPRESENTATION (  '', ( #265 ), #141 ) ;
#135 = FILL_AREA_STYLE ('',( #327 ) ) ;
#136 = PLANE ( 'NONE',  #174 ) ;
#137 = EDGE_CURVE ( 'NONE', #220, #189, #289, .T. ) ;
#138 =( LENGTH_UNIT ( ) NAMED_UNIT ( * ) SI_UNIT ( $, .METRE. ) );
#139 = UNCERTAINTY_MEASURE_WITH_UNIT (LENGTH_MEASURE( 1.000000000000000082E-05 ), #288, 'distance_accuracy_value', 'NONE');
#140 = DIRECTION ( 'NONE',  ( -1.000000000000000000, 0.000000000000000000, 0.000000000000000000 ) ) ;
#141 =( GEOMETRIC_REPRESENTATION_CONTEXT ( 3 ) GLOBAL_UNCERTAINTY_ASSIGNED_CONTEXT ( ( #176 ) ) GLOBAL_UNIT_ASSIGNED_CONTEXT ( ( #214, #295, #88 ) ) REPRESENTATION_CONTEXT ( 'NONE', 'WORKASPACE' ) );
#142 = MECHANICAL_DESIGN_GEOMETRIC_PRESENTATION_REPRESENTATION (  '', ( #166 ), #286 ) ;
#143 = PRODUCT_DEFINITION_SHAPE ( 'NONE', 'NONE',  #322 ) ;
#144 = SURFACE_STYLE_USAGE ( .BOTH. , #284 ) ;
#145 = LENGTH_MEASURE_WITH_UNIT ( LENGTH_MEASURE( 0.02539999999999999897 ), #235 );
#146 = LENGTH_MEASURE_WITH_UNIT ( LENGTH_MEASURE( 0.02539999999999999897 ), #138 );
#147 = AXIS2_PLACEMENT_3D ( 'NONE', #349, #67, #188 ) ;
#148 =( NAMED_UNIT ( * ) PLANE_ANGLE_UNIT ( ) SI_UNIT ( $, .RADIAN. ) );
#149 =( CONVERSION_BASED_UNIT ( 'INCH', #145 ) LENGTH_UNIT ( ) NAMED_UNIT ( #111 ) );
#150 = DIRECTION ( 'NONE',  ( -0.000000000000000000, -1.000000000000000000, -0.000000000000000000 ) ) ;
#151 = AXIS2_PLACEMENT_3D ( 'NONE', #91, #8, #56 ) ;
#152 = CIRCLE ( 'NONE', #203, 0.1250000000000000000 ) ;
#153 = CARTESIAN_POINT ( 'NONE',  ( 0.000000000000000000, 0.000000000000000000, 0.000000000000000000 ) ) ;
#154 = EDGE_LOOP ( 'NONE', ( #197, #332 ) ) ;
#155 = ORIENTED_EDGE ( 'NONE', *, *, #320, .T. ) ;
#156 =( LENGTH_UNIT ( ) NAMED_UNIT ( * ) SI_UNIT ( $, .METRE. ) );
#157 = SURFACE_STYLE_FILL_AREA ( #58 ) ;
#158 = AXIS2_PLACEMENT_3D ( 'NONE', #258, #5, #112 ) ;
#159 = CARTESIAN_POINT ( 'NONE',  ( 1.339151274867630787E-17, 0.6250000000000000000, 0.1093500000000000028 ) ) ;
#160 = FILL_AREA_STYLE_COLOUR ( '', #63 ) ;
#161 = EDGE_LOOP ( 'NONE', ( #359, #348 ) ) ;
#162 = CARTESIAN_POINT ( 'NONE',  ( -0.1093500000000000028, 0.6250000000000000000, 0.000000000000000000 ) ) ;
#163 = DIRECTION ( 'NONE',  ( -3.265724797726275178E-17, 1.000000000000000000, -0.000000000000000000 ) ) ;
#164 = VERTEX_POINT ( 'NONE', #71 ) ;
#165 = CARTESIAN_POINT ( 'NONE',  ( 0.000000000000000000, 0.6250000000000000000, 0.000000000000000000 ) ) ;
#166 = STYLED_ITEM ( 'NONE', ( #2 ), #270 ) ;
#167 = EDGE_CURVE ( 'NONE', #68, #294, #324, .T. ) ;
#168 = CARTESIAN_POINT ( 'NONE',  ( -1.404197054395280421E-18, 0.6679980216144647542, 0.000000000000000000 ) ) ;
#169 = DIRECTION ( 'NONE',  ( -3.265724797726275178E-17, 1.000000000000000000, -0.000000000000000000 ) ) ;
#170 = UNCERTAINTY_MEASURE_WITH_UNIT (LENGTH_MEASURE( 1.000000000000000082E-05 ), #325, 'distance_accuracy_value', 'NONE');
#171 = DIMENSIONAL_EXPONENTS ( 1.000000000000000000, 0.000000000000000000, 0.000000000000000000, 0.000000000000000000, 0.000000000000000000, 0.000000000000000000, 0.000000000000000000 ) ;
#172 =( NAMED_UNIT ( * ) SI_UNIT ( $, .STERADIAN. ) SOLID_ANGLE_UNIT ( ) );
#173 = COLOUR_RGB ( '',0.7921568627450980005, 0.8196078431372548767, 0.9333333333333333481 ) ;
#174 = AXIS2_PLACEMENT_3D ( 'NONE', #29, #73, #4 ) ;
#175 = APPLICATION_PROTOCOL_DEFINITION ( 'draft international standard', 'automotive_design', 1998, #19 ) ;
#176 = UNCERTAINTY_MEASURE_WITH_UNIT (LENGTH_MEASURE( 1.000000000000000082E-05 ), #214, 'distance_accuracy_value', 'NONE');
#177 = DIRECTION ( 'NONE',  ( -1.000000000000000000, 0.000000000000000000, 0.000000000000000000 ) ) ;
#178 = CARTESIAN_POINT ( 'NONE',  ( 0.1249999999999999584, 2.500000000000000000, 1.530808498934191817E-17 ) ) ;
#179 = PRODUCT ( '84630', '84630', '', ( #317 ) ) ;
#180 = SURFACE_STYLE_FILL_AREA ( #60 ) ;
#181 = ADVANCED_FACE ( 'NONE', ( #122 ), #219, .T. ) ;
#182 = PRODUCT_DEFINITION_FORMATION_WITH_SPECIFIED_SOURCE ( 'ANY', '', #179, .NOT_KNOWN. ) ;
#183 = CARTESIAN_POINT ( 'NONE',  ( 0.1250000000000000278, 2.500000000000000000, 1.530808498934192125E-17 ) ) ;
#184 = ORIENTED_EDGE ( 'NONE', *, *, #329, .T. ) ;
#185 = DIRECTION ( 'NONE',  ( 0.000000000000000000, 0.000000000000000000, -1.000000000000000000 ) ) ;
#186 = AXIS2_PLACEMENT_3D ( 'NONE', #153, #319, #233 ) ;
#187 = CONICAL_SURFACE ( 'NONE', #226, 0.1093500000000000028, 0.3490658503988662287 ) ;
#188 = DIRECTION ( 'NONE',  ( 0.000000000000000000, 0.000000000000000000, -1.000000000000000000 ) ) ;
#189 = VERTEX_POINT ( 'NONE', #301 ) ;
#190 =( CONVERSION_BASED_UNIT ( 'INCH', #46 ) LENGTH_UNIT ( ) NAMED_UNIT ( #106 ) );
#191 = ORIENTED_EDGE ( 'NONE', *, *, #320, .F. ) ;
#192 = DIRECTION ( 'NONE',  ( -0.000000000000000000, -1.000000000000000000, -0.000000000000000000 ) ) ;
#193 = VERTEX_POINT ( 'NONE', #159 ) ;
#194 = EDGE_CURVE ( 'NONE', #57, #328, #339, .T. ) ;
#195 = CIRCLE ( 'NONE', #352, 0.1093500000000000028 ) ;
#196 = DIRECTION ( 'NONE',  ( -3.265724797726275178E-17, 1.000000000000000000, -0.000000000000000000 ) ) ;
#197 = ORIENTED_EDGE ( 'NONE', *, *, #113, .T. ) ;
#198 = EDGE_LOOP ( 'NONE', ( #318, #350 ) ) ;
#199 = DIRECTION ( 'NONE',  ( -0.3420201433256690460, 0.9396926207859082059, 0.000000000000000000 ) ) ;
#200 = UNCERTAINTY_MEASURE_WITH_UNIT (LENGTH_MEASURE( 1.000000000000000082E-05 ), #190, 'distance_accuracy_value', 'NONE');
#201 =( NAMED_UNIT ( * ) PLANE_ANGLE_UNIT ( ) SI_UNIT ( $, .RADIAN. ) );
#202 = CARTESIAN_POINT ( 'NONE',  ( -0.1250000000000001110, 2.500000000000000000, 0.000000000000000000 ) ) ;
#203 = AXIS2_PLACEMENT_3D ( 'NONE', #168, #107, #340 ) ;
#204 = SURFACE_STYLE_USAGE ( .BOTH. , #337 ) ;
#205 = FACE_OUTER_BOUND ( 'NONE', #356, .T. ) ;
#206 = CARTESIAN_POINT ( 'NONE',  ( 0.000000000000000000, 0.6250000000000000000, 0.000000000000000000 ) ) ;
#207 = UNCERTAINTY_MEASURE_WITH_UNIT (LENGTH_MEASURE( 1.000000000000000082E-05 ), #149, 'distance_accuracy_value', 'NONE');
#208 = DIRECTION ( 'NONE',  ( -0.000000000000000000, -1.000000000000000000, -0.000000000000000000 ) ) ;
#209 = MECHANICAL_DESIGN_GEOMETRIC_PRESENTATION_REPRESENTATION (  '', ( #338 ), #62 ) ;
#210 = DIMENSIONAL_EXPONENTS ( 1.000000000000000000, 0.000000000000000000, 0.000000000000000000, 0.000000000000000000, 0.000000000000000000, 0.000000000000000000, 0.000000000000000000 ) ;
#211 = CARTESIAN_POINT ( 'NONE',  ( -0.1093500000000000028, 0.6250000000000000000, 0.000000000000000000 ) ) ;
#212 = EDGE_CURVE ( 'NONE', #328, #248, #274, .T. ) ;
#213 = CARTESIAN_POINT ( 'NONE',  ( 0.000000000000000000, 0.000000000000000000, 0.000000000000000000 ) ) ;
#214 =( CONVERSION_BASED_UNIT ( 'INCH', #146 ) LENGTH_UNIT ( ) NAMED_UNIT ( #343 ) );
#215 = CARTESIAN_POINT ( 'NONE',  ( 0.000000000000000000, 0.000000000000000000, 0.000000000000000000 ) ) ;
#216 = DIRECTION ( 'NONE',  ( -3.265724797726275178E-17, 1.000000000000000000, -0.000000000000000000 ) ) ;
#217 = SURFACE_STYLE_FILL_AREA ( #12 ) ;
#218 = AXIS2_PLACEMENT_3D ( 'NONE', #312, #150, #185 ) ;
#219 = CYLINDRICAL_SURFACE ( 'NONE', #147, 0.1093500000000000028 ) ;
#220 = VERTEX_POINT ( 'NONE', #298 ) ;
#221 = DIRECTION ( 'NONE',  ( 3.265724797726275178E-17, -1.000000000000000000, 0.000000000000000000 ) ) ;
#222 = SURFACE_STYLE_USAGE ( .BOTH. , #224 ) ;
#223 = EDGE_CURVE ( 'NONE', #164, #189, #304, .T. ) ;
#224 = SURFACE_SIDE_STYLE ('',( #217 ) ) ;
#225 = COLOUR_RGB ( '',1.000000000000000000, 0.000000000000000000, 0.000000000000000000 ) ;
#226 = AXIS2_PLACEMENT_3D ( 'NONE', #165, #250, #335 ) ;
#227 =( LENGTH_UNIT ( ) NAMED_UNIT ( * ) SI_UNIT ( $, .METRE. ) );
#228 = ORIENTED_EDGE ( 'NONE', *, *, #244, .F. ) ;
#229 =( CONVERSION_BASED_UNIT ( 'INCH', #104 ) LENGTH_UNIT ( ) NAMED_UNIT ( #257 ) );
#230 = CARTESIAN_POINT ( 'NONE',  ( 1.339151274867630787E-17, 0.000000000000000000, 0.1093500000000000028 ) ) ;
#231 = DIMENSIONAL_EXPONENTS ( 1.000000000000000000, 0.000000000000000000, 0.000000000000000000, 0.000000000000000000, 0.000000000000000000, 0.000000000000000000, 0.000000000000000000 ) ;
#232 = FACE_OUTER_BOUND ( 'NONE', #161, .T. ) ;
#233 = DIRECTION ( 'NONE',  ( 0.000000000000000000, 0.000000000000000000, -1.000000000000000000 ) ) ;
#234 = COLOUR_RGB ( '',1.000000000000000000, 0.000000000000000000, 0.000000000000000000 ) ;
#235 =( LENGTH_UNIT ( ) NAMED_UNIT ( * ) SI_UNIT ( $, .METRE. ) );
#236 = VERTEX_POINT ( 'NONE', #24 ) ;
#237 =( NAMED_UNIT ( * ) SI_UNIT ( $, .STERADIAN. ) SOLID_ANGLE_UNIT ( ) );
#238 = SURFACE_STYLE_USAGE ( .BOTH. , #260 ) ;
#239 = AXIS2_PLACEMENT_3D ( 'NONE', #290, #261, #177 ) ;
#240 = EDGE_LOOP ( 'NONE', ( #272, #279, #228, #133 ) ) ;
#241 =( NAMED_UNIT ( * ) SI_UNIT ( $, .STERADIAN. ) SOLID_ANGLE_UNIT ( ) );
#242 =( GEOMETRIC_REPRESENTATION_CONTEXT ( 3 ) GLOBAL_UNCERTAINTY_ASSIGNED_CONTEXT ( ( #200 ) ) GLOBAL_UNIT_ASSIGNED_CONTEXT ( ( #190, #321, #95 ) ) REPRESENTATION_CONTEXT ( 'NONE', 'WORKASPACE' ) );
#243 = AXIS2_PLACEMENT_3D ( 'NONE', #331, #344, #283 ) ;
#244 = EDGE_CURVE ( 'NONE', #236, #248, #7, .T. ) ;
#245 = DIRECTION ( 'NONE',  ( -1.000000000000000000, 0.000000000000000000, 0.000000000000000000 ) ) ;
#246 = ORIENTED_EDGE ( 'NONE', *, *, #255, .T. ) ;
#247 = LINE ( 'NONE', #162, #297 ) ;
#248 = VERTEX_POINT ( 'NONE', #78 ) ;
#249 = DIRECTION ( 'NONE',  ( 0.000000000000000000, 0.000000000000000000, -1.000000000000000000 ) ) ;
#250 = DIRECTION ( 'NONE',  ( -3.265724797726275178E-17, 1.000000000000000000, -0.000000000000000000 ) ) ;
#251 = DIRECTION ( 'NONE',  ( 0.000000000000000000, 1.000000000000000000, 0.000000000000000000 ) ) ;
#252 = PRESENTATION_STYLE_ASSIGNMENT (( #204 ) ) ;
#253 = STYLED_ITEM ( 'NONE', ( #18 ), #6 ) ;
#254 = LINE ( 'NONE', #230, #36 ) ;
#255 = EDGE_CURVE ( 'NONE', #328, #57, #273, .T. ) ;
#256 = VECTOR ( 'NONE', #276, 39.37007874015748143 ) ;
#257 = DIMENSIONAL_EXPONENTS ( 1.000000000000000000, 0.000000000000000000, 0.000000000000000000, 0.000000000000000000, 0.000000000000000000, 0.000000000000000000, 0.000000000000000000 ) ;
#258 = CARTESIAN_POINT ( 'NONE',  ( -6.123233995736766036E-17, 2.500000000000000000, 0.000000000000000000 ) ) ;
#259 = EDGE_CURVE ( 'NONE', #164, #193, #195, .T. ) ;
#260 = SURFACE_SIDE_STYLE ('',( #9 ) ) ;
#261 = DIRECTION ( 'NONE',  ( -3.265724797726275178E-17, 1.000000000000000000, -0.000000000000000000 ) ) ;
#262 = DIRECTION ( 'NONE',  ( 1.000000000000000000, 0.000000000000000000, 0.000000000000000000 ) ) ;
#263 = EDGE_LOOP ( 'NONE', ( #15, #246, #291, #22 ) ) ;
#264 = CARTESIAN_POINT ( 'NONE',  ( -6.123233995736766036E-17, 2.500000000000000000, 0.000000000000000000 ) ) ;
#265 = STYLED_ITEM ( 'NONE', ( #252 ), #48 ) ;
#266 = AXIS2_PLACEMENT_3D ( 'NONE', #52, #169, #140 ) ;
#267 = EDGE_LOOP ( 'NONE', ( #102, #131 ) ) ;
#268 = EDGE_LOOP ( 'NONE', ( #129, #123, #47, #120 ) ) ;
#269 = FACE_OUTER_BOUND ( 'NONE', #267, .T. ) ;
#270 = ADVANCED_FACE ( 'NONE', ( #101 ), #28, .T. ) ;
#271 = DIRECTION ( 'NONE',  ( -1.000000000000000000, 0.000000000000000000, 0.000000000000000000 ) ) ;
#272 = ORIENTED_EDGE ( 'NONE', *, *, #194, .T. ) ;
#273 = CIRCLE ( 'NONE', #75, 0.1093500000000000028 ) ;
#274 = LINE ( 'NONE', #128, #316 ) ;
#275 = ORIENTED_EDGE ( 'NONE', *, *, #223, .F. ) ;
#276 = DIRECTION ( 'NONE',  ( -0.000000000000000000, -1.000000000000000000, -0.000000000000000000 ) ) ;
#277 = EDGE_CURVE ( 'NONE', #294, #68, #50, .T. ) ;
#278 = FACE_OUTER_BOUND ( 'NONE', #326, .T. ) ;
#279 = ORIENTED_EDGE ( 'NONE', *, *, #212, .T. ) ;
#280 = CYLINDRICAL_SURFACE ( 'NONE', #218, 0.1093500000000000028 ) ;
#281 = UNCERTAINTY_MEASURE_WITH_UNIT (LENGTH_MEASURE( 1.000000000000000082E-05 ), #229, 'distance_accuracy_value', 'NONE');
#282 = CIRCLE ( 'NONE', #351, 0.1093500000000000028 ) ;
#283 = DIRECTION ( 'NONE',  ( -1.000000000000000000, 0.000000000000000000, 0.000000000000000000 ) ) ;
#284 = SURFACE_SIDE_STYLE ('',( #27 ) ) ;
#285 = PRESENTATION_LAYER_ASSIGNMENT (  '', '', ( #265 ) ) ;
#286 =( GEOMETRIC_REPRESENTATION_CONTEXT ( 3 ) GLOBAL_UNCERTAINTY_ASSIGNED_CONTEXT ( ( #281 ) ) GLOBAL_UNIT_ASSIGNED_CONTEXT ( ( #229, #201, #172 ) ) REPRESENTATION_CONTEXT ( 'NONE', 'WORKASPACE' ) );
#287 = ADVANCED_FACE ( 'NONE', ( #232 ), #136, .F. ) ;
#288 =( CONVERSION_BASED_UNIT ( 'INCH', #315 ) LENGTH_UNIT ( ) NAMED_UNIT ( #171 ) );
#289 = CIRCLE ( 'NONE', #125, 0.1093500000000000028 ) ;
#290 = CARTESIAN_POINT ( 'NONE',  ( 0.000000000000000000, 0.6250000000000000000, 0.000000000000000000 ) ) ;
#291 = ORIENTED_EDGE ( 'NONE', *, *, #32, .T. ) ;
#292 = APPLICATION_PROTOCOL_DEFINITION ( 'draft international standard', 'automotive_design', 1998, #34 ) ;
#293 = FILL_AREA_STYLE_COLOUR ( '', #234 ) ;
#294 = VERTEX_POINT ( 'NONE', #306 ) ;
#295 =( NAMED_UNIT ( * ) PLANE_ANGLE_UNIT ( ) SI_UNIT ( $, .RADIAN. ) );
#296 = CLOSED_SHELL ( 'NONE', ( #48, #270, #181, #89 ) ) ;
#297 = VECTOR ( 'NONE', #199, 39.37007874015748854 ) ;
#298 = CARTESIAN_POINT ( 'NONE',  ( 1.339151274867630787E-17, 0.000000000000000000, 0.1093500000000000028 ) ) ;
#299 = ORIENTED_EDGE ( 'NONE', *, *, #244, .T. ) ;
#300 = ADVANCED_FACE ( 'NONE', ( #49 ), #187, .T. ) ;
#301 = CARTESIAN_POINT ( 'NONE',  ( 0.000000000000000000, 0.000000000000000000, -0.1093500000000000028 ) ) ;
#302 = ORIENTED_EDGE ( 'NONE', *, *, #1, .T. ) ;
#303 =( GEOMETRIC_REPRESENTATION_CONTEXT ( 3 ) GLOBAL_UNCERTAINTY_ASSIGNED_CONTEXT ( ( #105 ) ) GLOBAL_UNIT_ASSIGNED_CONTEXT ( ( #25, #23, #45 ) ) REPRESENTATION_CONTEXT ( 'NONE', 'WORKASPACE' ) );
#304 = LINE ( 'NONE', #100, #256 ) ;
#305 = ORIENTED_EDGE ( 'NONE', *, *, #277, .F. ) ;
#306 = CARTESIAN_POINT ( 'NONE',  ( -0.1250000000000001388, 2.500000000000000000, 0.000000000000000000 ) ) ;
#307 = MECHANICAL_DESIGN_GEOMETRIC_PRESENTATION_REPRESENTATION (  '', ( #115 ), #242 ) ;
#308 = DIRECTION ( 'NONE',  ( -3.265724797726275178E-17, 1.000000000000000000, -0.000000000000000000 ) ) ;
#309 = CYLINDRICAL_SURFACE ( 'NONE', #266, 0.1250000000000000278 ) ;
#310 = DIRECTION ( 'NONE',  ( 0.000000000000000000, 0.000000000000000000, -1.000000000000000000 ) ) ;
#311 = FILL_AREA_STYLE_COLOUR ( '', #87 ) ;
#312 = CARTESIAN_POINT ( 'NONE',  ( 0.000000000000000000, 0.000000000000000000, 0.000000000000000000 ) ) ;
#313 = FILL_AREA_STYLE_COLOUR ( '', #26 ) ;
#314 = ADVANCED_BREP_SHAPE_REPRESENTATION ( '84630', ( #6, #121, #17 ), #126 ) ;
#315 = LENGTH_MEASURE_WITH_UNIT ( LENGTH_MEASURE( 0.02539999999999999897 ), #114 );
#316 = VECTOR ( 'NONE', #354, 39.37007874015748854 ) ;
#317 = PRODUCT_CONTEXT ( 'NONE', #34, 'mechanical' ) ;
#318 = ORIENTED_EDGE ( 'NONE', *, *, #259, .F. ) ;
#319 = DIRECTION ( 'NONE',  ( 0.000000000000000000, -1.000000000000000000, -0.000000000000000000 ) ) ;
#320 = EDGE_CURVE ( 'NONE', #236, #294, #74, .T. ) ;
#321 =( NAMED_UNIT ( * ) PLANE_ANGLE_UNIT ( ) SI_UNIT ( $, .RADIAN. ) );
#322 = PRODUCT_DEFINITION ( 'UNKNOWN', '', #182, #54 ) ;
#323 = PRESENTATION_LAYER_ASSIGNMENT (  '', '', ( #115 ) ) ;
#324 = CIRCLE ( 'NONE', #3, 0.1250000000000000555 ) ;
#325 =( CONVERSION_BASED_UNIT ( 'INCH', #42 ) LENGTH_UNIT ( ) NAMED_UNIT ( #231 ) );
#326 = EDGE_LOOP ( 'NONE', ( #96, #13, #43, #275 ) ) ;
#327 = FILL_AREA_STYLE_COLOUR ( '', #225 ) ;
#328 = VERTEX_POINT ( 'NONE', #51 ) ;
#329 = EDGE_CURVE ( 'NONE', #248, #236, #152, .T. ) ;
#330 =( GEOMETRIC_REPRESENTATION_CONTEXT ( 3 ) GLOBAL_UNCERTAINTY_ASSIGNED_CONTEXT ( ( #170 ) ) GLOBAL_UNIT_ASSIGNED_CONTEXT ( ( #325, #99, #241 ) ) REPRESENTATION_CONTEXT ( 'NONE', 'WORKASPACE' ) );
#331 = CARTESIAN_POINT ( 'NONE',  ( -1.404197054395280421E-18, 0.6679980216144647542, 0.000000000000000000 ) ) ;
#332 = ORIENTED_EDGE ( 'NONE', *, *, #137, .T. ) ;
#333 = CARTESIAN_POINT ( 'NONE',  ( 0.000000000000000000, 0.6250000000000000000, 0.000000000000000000 ) ) ;
#334 = ORIENTED_EDGE ( 'NONE', *, *, #1, .F. ) ;
#335 = DIRECTION ( 'NONE',  ( -1.000000000000000000, 0.000000000000000000, 0.000000000000000000 ) ) ;
#336 = ADVANCED_FACE ( 'NONE', ( #205 ), #309, .T. ) ;
#337 = SURFACE_SIDE_STYLE ('',( #103 ) ) ;
#338 = STYLED_ITEM ( 'NONE', ( #345 ), #89 ) ;
#339 = CIRCLE ( 'NONE', #97, 0.1093500000000000028 ) ;
#340 = DIRECTION ( 'NONE',  ( -1.000000000000000000, 0.000000000000000000, 0.000000000000000000 ) ) ;
#341 = DIRECTION ( 'NONE',  ( -0.000000000000000000, -1.000000000000000000, -0.000000000000000000 ) ) ;
#342 = EDGE_CURVE ( 'NONE', #193, #220, #254, .T. ) ;
#343 = DIMENSIONAL_EXPONENTS ( 1.000000000000000000, 0.000000000000000000, 0.000000000000000000, 0.000000000000000000, 0.000000000000000000, 0.000000000000000000, 0.000000000000000000 ) ;
#344 = DIRECTION ( 'NONE',  ( -3.265724797726275178E-17, 1.000000000000000000, -0.000000000000000000 ) ) ;
#345 = PRESENTATION_STYLE_ASSIGNMENT (( #238 ) ) ;
#346 = PLANE ( 'NONE',  #79 ) ;
#347 = DIRECTION ( 'NONE',  ( -1.000000000000000000, 0.000000000000000000, 0.000000000000000000 ) ) ;
#348 = ORIENTED_EDGE ( 'NONE', *, *, #255, .F. ) ;
#349 = CARTESIAN_POINT ( 'NONE',  ( 0.000000000000000000, 0.000000000000000000, 0.000000000000000000 ) ) ;
#350 = ORIENTED_EDGE ( 'NONE', *, *, #61, .F. ) ;
#351 = AXIS2_PLACEMENT_3D ( 'NONE', #215, #117, #86 ) ;
#352 = AXIS2_PLACEMENT_3D ( 'NONE', #206, #208, #310 ) ;
#353 = PRESENTATION_LAYER_ASSIGNMENT (  '', '', ( #109 ) ) ;
#354 = DIRECTION ( 'NONE',  ( 0.3420201433256689350, 0.9396926207859082059, 4.188538737676994230E-17 ) ) ;
#355 = CARTESIAN_POINT ( 'NONE',  ( -6.123233995736766036E-17, 2.500000000000000000, 0.000000000000000000 ) ) ;
#356 = EDGE_LOOP ( 'NONE', ( #334, #184, #155, #124 ) ) ;
#357 = PRESENTATION_LAYER_ASSIGNMENT (  '', '', ( #338 ) ) ;
#358 = PRESENTATION_LAYER_ASSIGNMENT (  '', '', ( #166 ) ) ;
#359 = ORIENTED_EDGE ( 'NONE', *, *, #194, .F. ) ;
ENDSEC;
END-ISO-10303-21;
