ISO-10303-21;
HEADER;
FILE_DESCRIPTION (( 'STEP AP214' ),
    '1' );
FILE_NAME ('Micro_EMSM-060-4X.STEP',
    '2022-03-15T14:39:02',
    ( '' ),
    ( '' ),
    'SwSTEP 2.0',
    'SolidWorks 2022',
    '' );
FILE_SCHEMA (( 'AUTOMOTIVE_DESIGN' ));
ENDSEC;

DATA;
#1 = CIRCLE ( 'NONE', #164, 0.1179918899999999882 ) ;
#2 =( GEOMETRIC_REPRESENTATION_CONTEXT ( 3 ) GLOBAL_UNCERTAINTY_ASSIGNED_CONTEXT ( ( #88 ) ) GLOBAL_UNIT_ASSIGNED_CONTEXT ( ( #21, #116, #111 ) ) REPRESENTATION_CONTEXT ( 'NONE', 'WORKASPACE' ) );
#3 = ORIENTED_EDGE ( 'NONE', *, *, #242, .T. ) ;
#4 = ADVANCED_FACE ( 'NONE', ( #262 ), #220, .T. ) ;
#5 = CARTESIAN_POINT ( 'NONE',  ( -0.1181100000000000066, 0.000000000000000000, 2.229093999999999465 ) ) ;
#6 = STYLED_ITEM ( 'NONE', ( #87 ), #148 ) ;
#7 = DIRECTION ( 'NONE',  ( -1.000000000000000000, 0.000000000000000000, 0.000000000000000000 ) ) ;
#8 = ORIENTED_EDGE ( 'NONE', *, *, #181, .T. ) ;
#9 = LINE ( 'NONE', #193, #124 ) ;
#10 = DIRECTION ( 'NONE',  ( -1.000000000000000000, 0.000000000000000000, 0.000000000000000000 ) ) ;
#11 = FACE_OUTER_BOUND ( 'NONE', #147, .T. ) ;
#12 = DIRECTION ( 'NONE',  ( 1.000000000000000000, 0.000000000000000000, -0.000000000000000000 ) ) ;
#13 = DIRECTION ( 'NONE',  ( 0.000000000000000000, 0.000000000000000000, 1.000000000000000000 ) ) ;
#14 = ADVANCED_FACE ( 'NONE', ( #154 ), #213, .T. ) ;
#15 = ORIENTED_EDGE ( 'NONE', *, *, #286, .T. ) ;
#16 = CARTESIAN_POINT ( 'NONE',  ( -0.1179918899999999049, 1.444983904138465938E-17, 0.7086609999999999854 ) ) ;
#17 = FACE_OUTER_BOUND ( 'NONE', #73, .T. ) ;
#18 = AXIS2_PLACEMENT_3D ( 'NONE', #31, #284, #192 ) ;
#19 = ORIENTED_EDGE ( 'NONE', *, *, #86, .F. ) ;
#20 = CARTESIAN_POINT ( 'NONE',  ( 0.000000000000000000, 0.000000000000000000, 2.229093999999999465 ) ) ;
#21 =( CONVERSION_BASED_UNIT ( 'INCH', #270 ) LENGTH_UNIT ( ) NAMED_UNIT ( #254 ) );
#22 = ORIENTED_EDGE ( 'NONE', *, *, #33, .F. ) ;
#23 = VECTOR ( 'NONE', #299, 39.37007874015748854 ) ;
#24 = EDGE_LOOP ( 'NONE', ( #216, #215 ) ) ;
#25 = CARTESIAN_POINT ( 'NONE',  ( 1.769594913022618037E-33, 0.000000000000000000, 1.444983904138465938E-17 ) ) ;
#26 = VERTEX_POINT ( 'NONE', #283 ) ;
#27 = DIRECTION ( 'NONE',  ( 0.1736481776669314137, 0.000000000000000000, 0.9848077530122077983 ) ) ;
#28 = LINE ( 'NONE', #238, #118 ) ;
#29 = ORIENTED_EDGE ( 'NONE', *, *, #242, .F. ) ;
#30 = CARTESIAN_POINT ( 'NONE',  ( 0.1181100000000000066, 1.446430334472939084E-17, 2.229093999999999465 ) ) ;
#31 = CARTESIAN_POINT ( 'NONE',  ( 0.000000000000000000, 0.000000000000000000, 2.229093999999999465 ) ) ;
#32 = DIRECTION ( 'NONE',  ( -1.000000000000000000, 0.000000000000000000, 1.224646799147353454E-16 ) ) ;
#33 = EDGE_CURVE ( 'NONE', #236, #272, #239, .T. ) ;
#34 = DIRECTION ( 'NONE',  ( 0.000000000000000000, 0.000000000000000000, -1.000000000000000000 ) ) ;
#35 = CARTESIAN_POINT ( 'NONE',  ( 0.000000000000000000, 0.000000000000000000, 0.000000000000000000 ) ) ;
#36 = LENGTH_MEASURE_WITH_UNIT ( LENGTH_MEASURE( 0.02539999999999999897 ), #82 );
#37 = FACE_OUTER_BOUND ( 'NONE', #24, .T. ) ;
#38 = VECTOR ( 'NONE', #197, 39.37007874015748143 ) ;
#39 = VERTEX_POINT ( 'NONE', #102 ) ;
#40 = APPLICATION_PROTOCOL_DEFINITION ( 'draft international standard', 'automotive_design', 1998, #138 ) ;
#41 = DIMENSIONAL_EXPONENTS ( 1.000000000000000000, 0.000000000000000000, 0.000000000000000000, 0.000000000000000000, 0.000000000000000000, 0.000000000000000000, 0.000000000000000000 ) ;
#42 = DIRECTION ( 'NONE',  ( 0.000000000000000000, 0.000000000000000000, 1.000000000000000000 ) ) ;
#43 = EDGE_CURVE ( 'NONE', #233, #39, #253, .T. ) ;
#44 = AXIS2_PLACEMENT_3D ( 'NONE', #177, #152, #198 ) ;
#45 = DIRECTION ( 'NONE',  ( 1.000000000000000000, 0.000000000000000000, 0.000000000000000000 ) ) ;
#46 = EDGE_LOOP ( 'NONE', ( #69, #211, #209, #94 ) ) ;
#47 = ORIENTED_EDGE ( 'NONE', *, *, #184, .T. ) ;
#48 = PRODUCT ( 'Micro_EMSM-060-4X', 'Micro_EMSM-060-4X', '', ( #65 ) ) ;
#49 = ORIENTED_EDGE ( 'NONE', *, *, #212, .F. ) ;
#50 =( GEOMETRIC_REPRESENTATION_CONTEXT ( 3 ) GLOBAL_UNCERTAINTY_ASSIGNED_CONTEXT ( ( #202 ) ) GLOBAL_UNIT_ASSIGNED_CONTEXT ( ( #291, #179, #235 ) ) REPRESENTATION_CONTEXT ( 'NONE', 'WORKASPACE' ) );
#51 = AXIS2_PLACEMENT_3D ( 'NONE', #89, #142, #63 ) ;
#52 = DIRECTION ( 'NONE',  ( -1.224646799147353207E-16, -0.000000000000000000, -1.000000000000000000 ) ) ;
#53 = CARTESIAN_POINT ( 'NONE',  ( 0.000000000000000000, 0.000000000000000000, 2.244094000000000033 ) ) ;
#54 = ADVANCED_FACE ( 'NONE', ( #107 ), #240, .T. ) ;
#55 = VERTEX_POINT ( 'NONE', #146 ) ;
#56 = AXIS2_PLACEMENT_3D ( 'NONE', #35, #222, #12 ) ;
#57 = DIRECTION ( 'NONE',  ( 1.000000000000000000, 0.000000000000000000, 0.000000000000000000 ) ) ;
#58 = DIRECTION ( 'NONE',  ( -0.000000000000000000, -0.000000000000000000, -1.000000000000000000 ) ) ;
#59 = CARTESIAN_POINT ( 'NONE',  ( 0.000000000000000000, 0.000000000000000000, 2.244094000000000033 ) ) ;
#60 = ORIENTED_EDGE ( 'NONE', *, *, #61, .F. ) ;
#61 = EDGE_CURVE ( 'NONE', #79, #186, #178, .T. ) ;
#62 = EDGE_CURVE ( 'NONE', #55, #79, #265, .T. ) ;
#63 = DIRECTION ( 'NONE',  ( -1.000000000000000000, 0.000000000000000000, 0.000000000000000000 ) ) ;
#64 = PRODUCT_DEFINITION ( 'UNKNOWN', '', #229, #285 ) ;
#65 = PRODUCT_CONTEXT ( 'NONE', #138, 'mechanical' ) ;
#66 = APPLICATION_PROTOCOL_DEFINITION ( 'draft international standard', 'automotive_design', 1998, #167 ) ;
#67 = ORIENTED_EDGE ( 'NONE', *, *, #62, .T. ) ;
#68 = FILL_AREA_STYLE ('',( #204 ) ) ;
#69 = ORIENTED_EDGE ( 'NONE', *, *, #150, .T. ) ;
#70 = COLOUR_RGB ( '',0.7921568627450980005, 0.8196078431372548767, 0.9333333333333333481 ) ;
#71 = ADVANCED_FACE ( 'NONE', ( #81 ), #74, .T. ) ;
#72 = VERTEX_POINT ( 'NONE', #171 ) ;
#73 = EDGE_LOOP ( 'NONE', ( #151, #298, #293, #117 ) ) ;
#74 = CYLINDRICAL_SURFACE ( 'NONE', #282, 0.1179918899999999882 ) ;
#75 = DIRECTION ( 'NONE',  ( -1.224646799147353207E-16, -0.000000000000000000, -1.000000000000000000 ) ) ;
#76 = CARTESIAN_POINT ( 'NONE',  ( -0.1179918899999999882, 0.000000000000000000, 1.444983904138465938E-17 ) ) ;
#77 = CIRCLE ( 'NONE', #44, 0.1179918899999999882 ) ;
#78 = AXIS2_PLACEMENT_3D ( 'NONE', #104, #264, #128 ) ;
#79 = VERTEX_POINT ( 'NONE', #5 ) ;
#80 = CARTESIAN_POINT ( 'NONE',  ( -0.1179918899999999049, 1.445707119305702357E-17, 0.7086609999999999854 ) ) ;
#81 = FACE_OUTER_BOUND ( 'NONE', #263, .T. ) ;
#82 =( LENGTH_UNIT ( ) NAMED_UNIT ( * ) SI_UNIT ( $, .METRE. ) );
#83 = PRESENTATION_LAYER_ASSIGNMENT (  '', '', ( #105 ) ) ;
#84 = EDGE_CURVE ( 'NONE', #79, #233, #28, .T. ) ;
#85 = PRESENTATION_STYLE_ASSIGNMENT (( #144 ) ) ;
#86 = EDGE_CURVE ( 'NONE', #236, #39, #9, .T. ) ;
#87 = PRESENTATION_STYLE_ASSIGNMENT (( #294 ) ) ;
#88 = UNCERTAINTY_MEASURE_WITH_UNIT (LENGTH_MEASURE( 1.000000000000000082E-05 ), #21, 'distance_accuracy_value', 'NONE');
#89 = CARTESIAN_POINT ( 'NONE',  ( 0.000000000000000000, 0.000000000000000000, 2.244094000000000033 ) ) ;
#90 = CIRCLE ( 'NONE', #78, 0.1181100000000000066 ) ;
#91 = ADVANCED_FACE ( 'NONE', ( #279 ), #149, .T. ) ;
#92 = PRESENTATION_LAYER_ASSIGNMENT (  '', '', ( #6 ) ) ;
#93 = CARTESIAN_POINT ( 'NONE',  ( 0.000000000000000000, 0.000000000000000000, 0.000000000000000000 ) ) ;
#94 = ORIENTED_EDGE ( 'NONE', *, *, #181, .F. ) ;
#95 = DIRECTION ( 'NONE',  ( -0.1736481776669312194, 2.126576849575783625E-17, 0.9848077530122080203 ) ) ;
#96 = ORIENTED_EDGE ( 'NONE', *, *, #185, .F. ) ;
#97 = ORIENTED_EDGE ( 'NONE', *, *, #61, .T. ) ;
#98 = EDGE_LOOP ( 'NONE', ( #143, #3, #60, #122 ) ) ;
#99 = CARTESIAN_POINT ( 'NONE',  ( 0.000000000000000000, 0.000000000000000000, 2.244094000000000033 ) ) ;
#100 = CIRCLE ( 'NONE', #260, 0.1031100000000002570 ) ;
#101 = CIRCLE ( 'NONE', #267, 0.1181100000000000066 ) ;
#102 = CARTESIAN_POINT ( 'NONE',  ( 0.1181100000000000899, 1.446430334472940009E-17, 0.7093308350957151509 ) ) ;
#103 = DIRECTION ( 'NONE',  ( 1.224646799147353207E-16, 0.000000000000000000, 1.000000000000000000 ) ) ;
#104 = CARTESIAN_POINT ( 'NONE',  ( 8.686797367364865710E-17, 0.000000000000000000, 0.7093308350957151509 ) ) ;
#105 = STYLED_ITEM ( 'NONE', ( #85 ), #190 ) ;
#106 = EDGE_CURVE ( 'NONE', #26, #55, #100, .T. ) ;
#107 = FACE_OUTER_BOUND ( 'NONE', #145, .T. ) ;
#108 = CLOSED_SHELL ( 'NONE', ( #191, #14, #237, #54, #4, #112, #91, #276, #71, #224 ) ) ;
#109 = CARTESIAN_POINT ( 'NONE',  ( 8.678594253305624695E-17, 0.000000000000000000, 0.7086609999999999854 ) ) ;
#110 = CARTESIAN_POINT ( 'NONE',  ( -0.1181099999999999234, 0.000000000000000000, 0.7093308350957151509 ) ) ;
#111 =( NAMED_UNIT ( * ) SI_UNIT ( $, .STERADIAN. ) SOLID_ANGLE_UNIT ( ) );
#112 = ADVANCED_FACE ( 'NONE', ( #37 ), #297, .T. ) ;
#113 = VECTOR ( 'NONE', #169, 39.37007874015748143 ) ;
#114 = FACE_OUTER_BOUND ( 'NONE', #98, .T. ) ;
#115 = DIRECTION ( 'NONE',  ( 0.000000000000000000, 0.000000000000000000, 1.000000000000000000 ) ) ;
#116 =( NAMED_UNIT ( * ) PLANE_ANGLE_UNIT ( ) SI_UNIT ( $, .RADIAN. ) );
#117 = ORIENTED_EDGE ( 'NONE', *, *, #212, .T. ) ;
#118 = VECTOR ( 'NONE', #125, 39.37007874015748143 ) ;
#119 = CONICAL_SURFACE ( 'NONE', #165, 0.1179918899999999882, 0.1745329251994339192 ) ;
#120 = PRODUCT_RELATED_PRODUCT_CATEGORY ( 'part', '', ( #48 ) ) ;
#121 = CARTESIAN_POINT ( 'NONE',  ( 8.678594253305624695E-17, 0.000000000000000000, 0.7086609999999999854 ) ) ;
#122 = ORIENTED_EDGE ( 'NONE', *, *, #62, .F. ) ;
#123 = DIRECTION ( 'NONE',  ( -1.000000000000000000, 0.000000000000000000, 0.000000000000000000 ) ) ;
#124 = VECTOR ( 'NONE', #27, 39.37007874015748143 ) ;
#125 = DIRECTION ( 'NONE',  ( -0.000000000000000000, -0.000000000000000000, -1.000000000000000000 ) ) ;
#126 = DIRECTION ( 'NONE',  ( -0.000000000000000000, -0.000000000000000000, -1.000000000000000000 ) ) ;
#127 = CARTESIAN_POINT ( 'NONE',  ( -0.1031100000000002570, 0.000000000000000000, 2.244094000000000033 ) ) ;
#128 = DIRECTION ( 'NONE',  ( 1.000000000000000000, 0.000000000000000000, 0.000000000000000000 ) ) ;
#129 = AXIS2_PLACEMENT_3D ( 'NONE', #93, #115, #180 ) ;
#130 = CARTESIAN_POINT ( 'NONE',  ( 8.678594253305624695E-17, 0.000000000000000000, 0.7086609999999999854 ) ) ;
#131 = DIRECTION ( 'NONE',  ( -0.000000000000000000, -0.000000000000000000, -1.000000000000000000 ) ) ;
#132 = DIRECTION ( 'NONE',  ( -1.224646799147353207E-16, -0.000000000000000000, -1.000000000000000000 ) ) ;
#133 = SURFACE_SIDE_STYLE ('',( #162 ) ) ;
#134 = AXIS2_PLACEMENT_3D ( 'NONE', #59, #13, #221 ) ;
#135 = VECTOR ( 'NONE', #95, 39.37007874015747433 ) ;
#136 = ORIENTED_EDGE ( 'NONE', *, *, #150, .F. ) ;
#137 = DIRECTION ( 'NONE',  ( 1.000000000000000000, 0.000000000000000000, 0.000000000000000000 ) ) ;
#138 = APPLICATION_CONTEXT ( 'automotive_design' ) ;
#139 = CIRCLE ( 'NONE', #172, 0.1179918899999999882 ) ;
#140 = CONICAL_SURFACE ( 'NONE', #51, 0.1031100000000002570, 0.7853981633974318477 ) ;
#141 = ORIENTED_EDGE ( 'NONE', *, *, #225, .F. ) ;
#142 = DIRECTION ( 'NONE',  ( 0.000000000000000000, 0.000000000000000000, -1.000000000000000000 ) ) ;
#143 = ORIENTED_EDGE ( 'NONE', *, *, #106, .F. ) ;
#144 = SURFACE_STYLE_USAGE ( .BOTH. , #278 ) ;
#145 = EDGE_LOOP ( 'NONE', ( #97, #174, #208, #187 ) ) ;
#146 = CARTESIAN_POINT ( 'NONE',  ( -0.1031100000000002570, 0.000000000000000000, 2.244094000000000033 ) ) ;
#147 = EDGE_LOOP ( 'NONE', ( #183, #47 ) ) ;
#148 = ADVANCED_BREP_SHAPE_REPRESENTATION ( 'Micro_EMSM-060-4X', ( #190, #129 ), #2 ) ;
#149 = CONICAL_SURFACE ( 'NONE', #228, 0.1031100000000002570, 0.7853981633974318477 ) ;
#150 = EDGE_CURVE ( 'NONE', #207, #236, #1, .T. ) ;
#151 = ORIENTED_EDGE ( 'NONE', *, *, #286, .F. ) ;
#152 = DIRECTION ( 'NONE',  ( -1.224646799147353207E-16, -0.000000000000000000, -1.000000000000000000 ) ) ;
#153 = DIRECTION ( 'NONE',  ( 1.000000000000000000, 0.000000000000000000, 0.000000000000000000 ) ) ;
#154 = FACE_OUTER_BOUND ( 'NONE', #168, .T. ) ;
#155 = FACE_OUTER_BOUND ( 'NONE', #46, .T. ) ;
#156 = CARTESIAN_POINT ( 'NONE',  ( 0.000000000000000000, 0.000000000000000000, 0.000000000000000000 ) ) ;
#157 =( CONVERSION_BASED_UNIT ( 'INCH', #227 ) LENGTH_UNIT ( ) NAMED_UNIT ( #232 ) );
#158 = LINE ( 'NONE', #252, #23 ) ;
#159 = SHAPE_DEFINITION_REPRESENTATION ( #217, #148 ) ;
#160 = CARTESIAN_POINT ( 'NONE',  ( 0.1179918900000000853, 0.000000000000000000, 0.7086609999999999854 ) ) ;
#161 = EDGE_LOOP ( 'NONE', ( #96, #241, #176, #49 ) ) ;
#162 = SURFACE_STYLE_FILL_AREA ( #68 ) ;
#163 = EDGE_CURVE ( 'NONE', #72, #272, #139, .T. ) ;
#164 = AXIS2_PLACEMENT_3D ( 'NONE', #121, #132, #219 ) ;
#165 = AXIS2_PLACEMENT_3D ( 'NONE', #109, #205, #45 ) ;
#166 = EDGE_LOOP ( 'NONE', ( #29, #251, #67, #141 ) ) ;
#167 = APPLICATION_CONTEXT ( 'automotive_design' ) ;
#168 = EDGE_LOOP ( 'NONE', ( #136, #15, #230, #19 ) ) ;
#169 = DIRECTION ( 'NONE',  ( -1.224646799147353207E-16, -0.000000000000000000, -1.000000000000000000 ) ) ;
#170 = CARTESIAN_POINT ( 'NONE',  ( 0.1179918899999999882, 1.444983904138465938E-17, -1.444983904138465938E-17 ) ) ;
#171 = CARTESIAN_POINT ( 'NONE',  ( -0.1179918899999999882, 0.000000000000000000, 2.889967808276931875E-17 ) ) ;
#172 = AXIS2_PLACEMENT_3D ( 'NONE', #25, #52, #32 ) ;
#173 = AXIS2_PLACEMENT_3D ( 'NONE', #203, #201, #182 ) ;
#174 = ORIENTED_EDGE ( 'NONE', *, *, #185, .T. ) ;
#175 = FILL_AREA_STYLE_COLOUR ( '', #255 ) ;
#176 = ORIENTED_EDGE ( 'NONE', *, *, #84, .T. ) ;
#177 = CARTESIAN_POINT ( 'NONE',  ( 1.769594913022618037E-33, 0.000000000000000000, 1.444983904138465938E-17 ) ) ;
#178 = CIRCLE ( 'NONE', #18, 0.1181100000000000066 ) ;
#179 =( NAMED_UNIT ( * ) PLANE_ANGLE_UNIT ( ) SI_UNIT ( $, .RADIAN. ) );
#180 = DIRECTION ( 'NONE',  ( 1.000000000000000000, 0.000000000000000000, 0.000000000000000000 ) ) ;
#181 = EDGE_CURVE ( 'NONE', #207, #72, #188, .T. ) ;
#182 = DIRECTION ( 'NONE',  ( -1.000000000000000000, 0.000000000000000000, 0.000000000000000000 ) ) ;
#183 = ORIENTED_EDGE ( 'NONE', *, *, #163, .T. ) ;
#184 = EDGE_CURVE ( 'NONE', #272, #72, #77, .T. ) ;
#185 = EDGE_CURVE ( 'NONE', #186, #39, #247, .T. ) ;
#186 = VERTEX_POINT ( 'NONE', #30 ) ;
#187 = ORIENTED_EDGE ( 'NONE', *, *, #84, .F. ) ;
#188 = LINE ( 'NONE', #76, #38 ) ;
#189 = DIRECTION ( 'NONE',  ( -1.224646799147353207E-16, -0.000000000000000000, -1.000000000000000000 ) ) ;
#190 = MANIFOLD_SOLID_BREP ( 'Cut-Revolve1', #108 ) ;
#191 = ADVANCED_FACE ( 'NONE', ( #155 ), #195, .T. ) ;
#192 = DIRECTION ( 'NONE',  ( 1.000000000000000000, 0.000000000000000000, 0.000000000000000000 ) ) ;
#193 = CARTESIAN_POINT ( 'NONE',  ( 0.1179918900000000853, 0.000000000000000000, 0.7086609999999999854 ) ) ;
#194 =( GEOMETRIC_REPRESENTATION_CONTEXT ( 3 ) GLOBAL_UNCERTAINTY_ASSIGNED_CONTEXT ( ( #246 ) ) GLOBAL_UNIT_ASSIGNED_CONTEXT ( ( #157, #250, #206 ) ) REPRESENTATION_CONTEXT ( 'NONE', 'WORKASPACE' ) );
#195 = CYLINDRICAL_SURFACE ( 'NONE', #290, 0.1179918899999999882 ) ;
#196 = DIRECTION ( 'NONE',  ( -1.000000000000000000, 0.000000000000000000, 1.224646799147353454E-16 ) ) ;
#197 = DIRECTION ( 'NONE',  ( -1.224646799147353207E-16, -0.000000000000000000, -1.000000000000000000 ) ) ;
#198 = DIRECTION ( 'NONE',  ( -1.000000000000000000, 0.000000000000000000, 1.224646799147353454E-16 ) ) ;
#199 = AXIS2_PLACEMENT_3D ( 'NONE', #130, #103, #57 ) ;
#200 = AXIS2_PLACEMENT_3D ( 'NONE', #231, #42, #295 ) ;
#201 = DIRECTION ( 'NONE',  ( -1.224646799147353207E-16, -0.000000000000000000, -1.000000000000000000 ) ) ;
#202 = UNCERTAINTY_MEASURE_WITH_UNIT (LENGTH_MEASURE( 1.000000000000000082E-05 ), #291, 'distance_accuracy_value', 'NONE');
#203 = CARTESIAN_POINT ( 'NONE',  ( 8.678594253305624695E-17, 0.000000000000000000, 0.7086609999999999854 ) ) ;
#204 = FILL_AREA_STYLE_COLOUR ( '', #70 ) ;
#205 = DIRECTION ( 'NONE',  ( 1.224646799147353207E-16, 0.000000000000000000, 1.000000000000000000 ) ) ;
#206 =( NAMED_UNIT ( * ) SI_UNIT ( $, .STERADIAN. ) SOLID_ANGLE_UNIT ( ) );
#207 = VERTEX_POINT ( 'NONE', #80 ) ;
#208 = ORIENTED_EDGE ( 'NONE', *, *, #43, .F. ) ;
#209 = ORIENTED_EDGE ( 'NONE', *, *, #163, .F. ) ;
#210 = DIRECTION ( 'NONE',  ( -1.000000000000000000, 0.000000000000000000, 1.224646799147353454E-16 ) ) ;
#211 = ORIENTED_EDGE ( 'NONE', *, *, #33, .T. ) ;
#212 = EDGE_CURVE ( 'NONE', #39, #233, #90, .T. ) ;
#213 = CONICAL_SURFACE ( 'NONE', #199, 0.1179918899999999882, 0.1745329251994339192 ) ;
#214 = MECHANICAL_DESIGN_GEOMETRIC_PRESENTATION_REPRESENTATION (  '', ( #6 ), #194 ) ;
#215 = ORIENTED_EDGE ( 'NONE', *, *, #106, .T. ) ;
#216 = ORIENTED_EDGE ( 'NONE', *, *, #274, .T. ) ;
#217 = PRODUCT_DEFINITION_SHAPE ( 'NONE', 'NONE',  #64 ) ;
#218 = DIRECTION ( 'NONE',  ( -0.7071067811865358044, 0.000000000000000000, -0.7071067811865590080 ) ) ;
#219 = DIRECTION ( 'NONE',  ( -1.000000000000000000, 0.000000000000000000, 0.000000000000000000 ) ) ;
#220 = CYLINDRICAL_SURFACE ( 'NONE', #266, 0.1181100000000000066 ) ;
#221 = DIRECTION ( 'NONE',  ( 1.000000000000000000, 0.000000000000000000, -0.000000000000000000 ) ) ;
#222 = DIRECTION ( 'NONE',  ( 0.000000000000000000, 0.000000000000000000, 1.000000000000000000 ) ) ;
#223 = SURFACE_STYLE_FILL_AREA ( #268 ) ;
#224 = ADVANCED_FACE ( 'NONE', ( #11 ), #245, .F. ) ;
#225 = EDGE_CURVE ( 'NONE', #186, #79, #101, .T. ) ;
#226 = DIRECTION ( 'NONE',  ( 0.000000000000000000, 0.000000000000000000, -1.000000000000000000 ) ) ;
#227 = LENGTH_MEASURE_WITH_UNIT ( LENGTH_MEASURE( 0.02539999999999999897 ), #269 );
#228 = AXIS2_PLACEMENT_3D ( 'NONE', #244, #34, #123 ) ;
#229 = PRODUCT_DEFINITION_FORMATION_WITH_SPECIFIED_SOURCE ( 'ANY', '', #48, .NOT_KNOWN. ) ;
#230 = ORIENTED_EDGE ( 'NONE', *, *, #43, .T. ) ;
#231 = CARTESIAN_POINT ( 'NONE',  ( 0.000000000000000000, 0.000000000000000000, 2.244094000000000033 ) ) ;
#232 = DIMENSIONAL_EXPONENTS ( 1.000000000000000000, 0.000000000000000000, 0.000000000000000000, 0.000000000000000000, 0.000000000000000000, 0.000000000000000000, 0.000000000000000000 ) ;
#233 = VERTEX_POINT ( 'NONE', #110 ) ;
#234 = VECTOR ( 'NONE', #131, 39.37007874015748143 ) ;
#235 =( NAMED_UNIT ( * ) SI_UNIT ( $, .STERADIAN. ) SOLID_ANGLE_UNIT ( ) );
#236 = VERTEX_POINT ( 'NONE', #160 ) ;
#237 = ADVANCED_FACE ( 'NONE', ( #114 ), #140, .T. ) ;
#238 = CARTESIAN_POINT ( 'NONE',  ( -0.1181100000000000066, 0.000000000000000000, 2.244094000000000033 ) ) ;
#239 = LINE ( 'NONE', #170, #113 ) ;
#240 = CYLINDRICAL_SURFACE ( 'NONE', #275, 0.1181100000000000066 ) ;
#241 = ORIENTED_EDGE ( 'NONE', *, *, #225, .T. ) ;
#242 = EDGE_CURVE ( 'NONE', #26, #186, #158, .T. ) ;
#243 = DIRECTION ( 'NONE',  ( -1.224646799147353207E-16, -0.000000000000000000, -1.000000000000000000 ) ) ;
#244 = CARTESIAN_POINT ( 'NONE',  ( 0.000000000000000000, 0.000000000000000000, 2.244094000000000033 ) ) ;
#245 = PLANE ( 'NONE',  #56 ) ;
#246 = UNCERTAINTY_MEASURE_WITH_UNIT (LENGTH_MEASURE( 1.000000000000000082E-05 ), #157, 'distance_accuracy_value', 'NONE');
#247 = LINE ( 'NONE', #287, #234 ) ;
#248 = EDGE_CURVE ( 'NONE', #236, #207, #256, .T. ) ;
#249 = MECHANICAL_DESIGN_GEOMETRIC_PRESENTATION_REPRESENTATION (  '', ( #105 ), #50 ) ;
#250 =( NAMED_UNIT ( * ) PLANE_ANGLE_UNIT ( ) SI_UNIT ( $, .RADIAN. ) );
#251 = ORIENTED_EDGE ( 'NONE', *, *, #274, .F. ) ;
#252 = CARTESIAN_POINT ( 'NONE',  ( 0.1031100000000002570, 1.262733314600838667E-17, 2.244094000000000033 ) ) ;
#253 = CIRCLE ( 'NONE', #277, 0.1181100000000000066 ) ;
#254 = DIMENSIONAL_EXPONENTS ( 1.000000000000000000, 0.000000000000000000, 0.000000000000000000, 0.000000000000000000, 0.000000000000000000, 0.000000000000000000, 0.000000000000000000 ) ;
#255 = COLOUR_RGB ( '',0.7921568627450980005, 0.8196078431372548767, 0.9333333333333333481 ) ;
#256 = CIRCLE ( 'NONE', #173, 0.1179918899999999882 ) ;
#257 = ORIENTED_EDGE ( 'NONE', *, *, #184, .F. ) ;
#258 = CARTESIAN_POINT ( 'NONE',  ( 0.000000000000000000, 0.000000000000000000, 2.244094000000000033 ) ) ;
#259 = CARTESIAN_POINT ( 'NONE',  ( 0.000000000000000000, 0.000000000000000000, 0.000000000000000000 ) ) ;
#260 = AXIS2_PLACEMENT_3D ( 'NONE', #99, #288, #292 ) ;
#261 = CIRCLE ( 'NONE', #200, 0.1031100000000002570 ) ;
#262 = FACE_OUTER_BOUND ( 'NONE', #161, .T. ) ;
#263 = EDGE_LOOP ( 'NONE', ( #22, #280, #8, #257 ) ) ;
#264 = DIRECTION ( 'NONE',  ( -1.224646799147353207E-16, -0.000000000000000000, -1.000000000000000000 ) ) ;
#265 = LINE ( 'NONE', #127, #289 ) ;
#266 = AXIS2_PLACEMENT_3D ( 'NONE', #53, #58, #10 ) ;
#267 = AXIS2_PLACEMENT_3D ( 'NONE', #20, #226, #137 ) ;
#268 = FILL_AREA_STYLE ('',( #175 ) ) ;
#269 =( LENGTH_UNIT ( ) NAMED_UNIT ( * ) SI_UNIT ( $, .METRE. ) );
#270 = LENGTH_MEASURE_WITH_UNIT ( LENGTH_MEASURE( 0.02539999999999999897 ), #296 );
#271 = CARTESIAN_POINT ( 'NONE',  ( 0.1179918899999999882, 1.444983904138465938E-17, 0.000000000000000000 ) ) ;
#272 = VERTEX_POINT ( 'NONE', #271 ) ;
#273 = LINE ( 'NONE', #16, #135 ) ;
#274 = EDGE_CURVE ( 'NONE', #55, #26, #261, .T. ) ;
#275 = AXIS2_PLACEMENT_3D ( 'NONE', #258, #126, #7 ) ;
#276 = ADVANCED_FACE ( 'NONE', ( #17 ), #119, .T. ) ;
#277 = AXIS2_PLACEMENT_3D ( 'NONE', #281, #189, #153 ) ;
#278 = SURFACE_SIDE_STYLE ('',( #223 ) ) ;
#279 = FACE_OUTER_BOUND ( 'NONE', #166, .T. ) ;
#280 = ORIENTED_EDGE ( 'NONE', *, *, #248, .T. ) ;
#281 = CARTESIAN_POINT ( 'NONE',  ( 8.686797367364865710E-17, 0.000000000000000000, 0.7093308350957151509 ) ) ;
#282 = AXIS2_PLACEMENT_3D ( 'NONE', #259, #75, #196 ) ;
#283 = CARTESIAN_POINT ( 'NONE',  ( 0.1031100000000002570, 1.354581824536888722E-17, 2.244094000000000033 ) ) ;
#284 = DIRECTION ( 'NONE',  ( 0.000000000000000000, 0.000000000000000000, -1.000000000000000000 ) ) ;
#285 = PRODUCT_DEFINITION_CONTEXT ( 'detailed design', #167, 'design' ) ;
#286 = EDGE_CURVE ( 'NONE', #207, #233, #273, .T. ) ;
#287 = CARTESIAN_POINT ( 'NONE',  ( 0.1181100000000000066, 1.446430334472939084E-17, 2.244094000000000033 ) ) ;
#288 = DIRECTION ( 'NONE',  ( 0.000000000000000000, 0.000000000000000000, 1.000000000000000000 ) ) ;
#289 = VECTOR ( 'NONE', #218, 39.37007874015748854 ) ;
#290 = AXIS2_PLACEMENT_3D ( 'NONE', #156, #243, #210 ) ;
#291 =( CONVERSION_BASED_UNIT ( 'INCH', #36 ) LENGTH_UNIT ( ) NAMED_UNIT ( #41 ) );
#292 = DIRECTION ( 'NONE',  ( 1.000000000000000000, 0.000000000000000000, 0.000000000000000000 ) ) ;
#293 = ORIENTED_EDGE ( 'NONE', *, *, #86, .T. ) ;
#294 = SURFACE_STYLE_USAGE ( .BOTH. , #133 ) ;
#295 = DIRECTION ( 'NONE',  ( 1.000000000000000000, 0.000000000000000000, 0.000000000000000000 ) ) ;
#296 =( LENGTH_UNIT ( ) NAMED_UNIT ( * ) SI_UNIT ( $, .METRE. ) );
#297 = PLANE ( 'NONE',  #134 ) ;
#298 = ORIENTED_EDGE ( 'NONE', *, *, #248, .F. ) ;
#299 = DIRECTION ( 'NONE',  ( 0.7071067811865358044, 8.659560562354788645E-17, -0.7071067811865590080 ) ) ;
ENDSEC;
END-ISO-10303-21;
