ISO-10303-21;
HEADER;
FILE_DESCRIPTION (( 'STEP AP214' ),
    '1' );
FILE_NAME ('Micro_SFP-375-69.STEP',
    '2021-09-02T06:25:46',
    ( '' ),
    ( '' ),
    'SwSTEP 2.0',
    'SolidWorks 2020',
    '' );
FILE_SCHEMA (( 'AUTOMOTIVE_DESIGN' ));
ENDSEC;

DATA;
#1 = CARTESIAN_POINT ( 'NONE',  ( 0.1873125000000001317, 0.0000000000000000000, 1.125000000000000000 ) ) ;
#2 = DIRECTION ( 'NONE',  ( 0.7071067811865459074, 8.659560562354913137E-17, -0.7071067811865491270 ) ) ;
#3 = CIRCLE ( 'NONE', #233, 0.1875000000000000278 ) ;
#4 = DIRECTION ( 'NONE',  ( 1.000000000000000000, 0.0000000000000000000, 0.0000000000000000000 ) ) ;
#5 = LINE ( 'NONE', #197, #168 ) ;
#6 = LINE ( 'NONE', #125, #122 ) ;
#7 = CIRCLE ( 'NONE', #136, 0.1875000000000000278 ) ;
#8 = CARTESIAN_POINT ( 'NONE',  ( 1.377727649040772882E-16, 0.0000000000000000000, 1.125000000000000000 ) ) ;
#9 = ORIENTED_EDGE ( 'NONE', *, *, #139, .F. ) ;
#10 = PRESENTATION_STYLE_ASSIGNMENT (( #198 ) ) ;
#11 = VERTEX_POINT ( 'NONE', #49 ) ;
#12 =( LENGTH_UNIT ( ) NAMED_UNIT ( * ) SI_UNIT ( $, .METRE. ) );
#13 = FILL_AREA_STYLE ('',( #175 ) ) ;
#14 = VECTOR ( 'NONE', #189, 39.37007874015748143 ) ;
#15 = SURFACE_SIDE_STYLE ('',( #130 ) ) ;
#16 = CYLINDRICAL_SURFACE ( 'NONE', #253, 0.1873124999999999929 ) ;
#17 = FACE_OUTER_BOUND ( 'NONE', #224, .T. ) ;
#18 = DIMENSIONAL_EXPONENTS ( 1.000000000000000000, 0.0000000000000000000, 0.0000000000000000000, 0.0000000000000000000, 0.0000000000000000000, 0.0000000000000000000, 0.0000000000000000000 ) ;
#19 = VECTOR ( 'NONE', #35, 39.37007874015748143 ) ;
#20 = ADVANCED_FACE ( 'NONE', ( #138 ), #16, .T. ) ;
#21 = ADVANCED_FACE ( 'NONE', ( #134 ), #96, .T. ) ;
#22 = CARTESIAN_POINT ( 'NONE',  ( 0.0000000000000000000, 0.0000000000000000000, 3.000000000000000444 ) ) ;
#23 = CIRCLE ( 'NONE', #298, 0.1873124999999999929 ) ;
#24 = DIRECTION ( 'NONE',  ( 0.0000000000000000000, 0.0000000000000000000, 1.000000000000000000 ) ) ;
#25 = EDGE_CURVE ( 'NONE', #57, #141, #43, .T. ) ;
#26 = ORIENTED_EDGE ( 'NONE', *, *, #190, .T. ) ;
#27 = CARTESIAN_POINT ( 'NONE',  ( 0.1875000000000000278, 2.296212748401286801E-17, 2.985000000000001208 ) ) ;
#28 = UNCERTAINTY_MEASURE_WITH_UNIT (LENGTH_MEASURE( 1.000000000000000082E-05 ), #221, 'distance_accuracy_value', 'NONE');
#29 =( GEOMETRIC_REPRESENTATION_CONTEXT ( 3 ) GLOBAL_UNCERTAINTY_ASSIGNED_CONTEXT ( ( #285 ) ) GLOBAL_UNIT_ASSIGNED_CONTEXT ( ( #127, #289, #60 ) ) REPRESENTATION_CONTEXT ( 'NONE', 'WORKASPACE' ) );
#30 = CARTESIAN_POINT ( 'NONE',  ( -0.1875000000000000278, 0.0000000000000000000, 3.000000000000000444 ) ) ;
#31 = CARTESIAN_POINT ( 'NONE',  ( 0.1875000000000000278, 2.296212748401286801E-17, 3.000000000000000444 ) ) ;
#32 = DIRECTION ( 'NONE',  ( -1.000000000000000000, 0.0000000000000000000, 0.0000000000000000000 ) ) ;
#33 = ADVANCED_FACE ( 'NONE', ( #17 ), #119, .T. ) ;
#34 = AXIS2_PLACEMENT_3D ( 'NONE', #80, #256, #4 ) ;
#35 = DIRECTION ( 'NONE',  ( -0.0000000000000000000, -0.0000000000000000000, -1.000000000000000000 ) ) ;
#36 = PRODUCT_DEFINITION_SHAPE ( 'NONE', 'NONE',  #66 ) ;
#37 = ORIENTED_EDGE ( 'NONE', *, *, #283, .T. ) ;
#38 = ORIENTED_EDGE ( 'NONE', *, *, #190, .F. ) ;
#39 = FACE_OUTER_BOUND ( 'NONE', #268, .T. ) ;
#40 = LINE ( 'NONE', #231, #200 ) ;
#41 = VERTEX_POINT ( 'NONE', #64 ) ;
#42 = EDGE_CURVE ( 'NONE', #61, #186, #115, .T. ) ;
#43 = CIRCLE ( 'NONE', #74, 0.1725000000000009304 ) ;
#44 = EDGE_CURVE ( 'NONE', #11, #41, #208, .T. ) ;
#45 = DIMENSIONAL_EXPONENTS ( 1.000000000000000000, 0.0000000000000000000, 0.0000000000000000000, 0.0000000000000000000, 0.0000000000000000000, 0.0000000000000000000, 0.0000000000000000000 ) ;
#46 = VERTEX_POINT ( 'NONE', #251 ) ;
#47 = ORIENTED_EDGE ( 'NONE', *, *, #139, .T. ) ;
#48 = CONICAL_SURFACE ( 'NONE', #103, 0.1873124999999999929, 0.1745329251994338360 ) ;
#49 = CARTESIAN_POINT ( 'NONE',  ( 0.1873124999999999929, 2.293916535652885596E-17, 0.0000000000000000000 ) ) ;
#50 = DIRECTION ( 'NONE',  ( 0.0000000000000000000, 0.0000000000000000000, -1.000000000000000000 ) ) ;
#51 = LINE ( 'NONE', #79, #131 ) ;
#52 = AXIS2_PLACEMENT_3D ( 'NONE', #86, #161, #73 ) ;
#53 = CARTESIAN_POINT ( 'NONE',  ( 1.379029896002171128E-16, 0.0000000000000000000, 1.126063365341178457 ) ) ;
#54 = ORIENTED_EDGE ( 'NONE', *, *, #142, .F. ) ;
#55 = FACE_OUTER_BOUND ( 'NONE', #163, .T. ) ;
#56 = FACE_OUTER_BOUND ( 'NONE', #290, .T. ) ;
#57 = VERTEX_POINT ( 'NONE', #211 ) ;
#58 = COLOUR_RGB ( '',0.7921568627450980005, 0.8196078431372548767, 0.9333333333333333481 ) ;
#59 = ORIENTED_EDGE ( 'NONE', *, *, #44, .F. ) ;
#60 =( NAMED_UNIT ( * ) SI_UNIT ( $, .STERADIAN. ) SOLID_ANGLE_UNIT ( ) );
#61 = VERTEX_POINT ( 'NONE', #1 ) ;
#62 = DIRECTION ( 'NONE',  ( -1.224646799147353454E-16, -0.0000000000000000000, -1.000000000000000000 ) ) ;
#63 = AXIS2_PLACEMENT_3D ( 'NONE', #297, #217, #244 ) ;
#64 = CARTESIAN_POINT ( 'NONE',  ( -0.1873124999999999929, 0.0000000000000000000, 4.587833071305773041E-17 ) ) ;
#65 = ADVANCED_BREP_SHAPE_REPRESENTATION ( 'Micro_SFP-375-69', ( #275, #228 ), #235 ) ;
#66 = PRODUCT_DEFINITION ( 'UNKNOWN', '', #258, #262 ) ;
#67 = AXIS2_PLACEMENT_3D ( 'NONE', #22, #24, #276 ) ;
#68 = APPLICATION_PROTOCOL_DEFINITION ( 'draft international standard', 'automotive_design', 1998, #295 ) ;
#69 = ORIENTED_EDGE ( 'NONE', *, *, #247, .T. ) ;
#70 = CARTESIAN_POINT ( 'NONE',  ( 0.0000000000000000000, 0.0000000000000000000, 0.0000000000000000000 ) ) ;
#71 = CARTESIAN_POINT ( 'NONE',  ( 0.0000000000000000000, 0.0000000000000000000, 3.000000000000000444 ) ) ;
#72 = ADVANCED_FACE ( 'NONE', ( #39 ), #48, .T. ) ;
#73 = DIRECTION ( 'NONE',  ( -1.000000000000000000, 0.0000000000000000000, 0.0000000000000000000 ) ) ;
#74 = AXIS2_PLACEMENT_3D ( 'NONE', #71, #207, #237 ) ;
#75 = DIRECTION ( 'NONE',  ( -1.000000000000000000, 0.0000000000000000000, 0.0000000000000000000 ) ) ;
#76 = EDGE_CURVE ( 'NONE', #186, #46, #293, .T. ) ;
#77 = CARTESIAN_POINT ( 'NONE',  ( 0.0000000000000000000, 0.0000000000000000000, 3.000000000000000444 ) ) ;
#78 = EDGE_CURVE ( 'NONE', #41, #11, #91, .T. ) ;
#79 = CARTESIAN_POINT ( 'NONE',  ( -0.1873124999999999929, 0.0000000000000000000, 2.293916535652886521E-17 ) ) ;
#80 = CARTESIAN_POINT ( 'NONE',  ( 1.379029896002171128E-16, 0.0000000000000000000, 1.126063365341178457 ) ) ;
#81 = CARTESIAN_POINT ( 'NONE',  ( 0.0000000000000000000, 0.0000000000000000000, 3.000000000000000444 ) ) ;
#82 =( LENGTH_UNIT ( ) NAMED_UNIT ( * ) SI_UNIT ( $, .METRE. ) );
#83 = STYLED_ITEM ( 'NONE', ( #111 ), #275 ) ;
#84 = EDGE_LOOP ( 'NONE', ( #185, #254, #151, #59 ) ) ;
#85 = EDGE_CURVE ( 'NONE', #269, #117, #278, .T. ) ;
#86 = CARTESIAN_POINT ( 'NONE',  ( 0.0000000000000000000, 0.0000000000000000000, 3.000000000000000444 ) ) ;
#87 =( CONVERSION_BASED_UNIT ( 'INCH', #288 ) LENGTH_UNIT ( ) NAMED_UNIT ( #159 ) );
#88 = APPLICATION_CONTEXT ( 'automotive_design' ) ;
#89 = DIRECTION ( 'NONE',  ( -0.1736481776669311639, 2.126576849575782392E-17, 0.9848077530122080203 ) ) ;
#90 = FILL_AREA_STYLE_COLOUR ( '', #110 ) ;
#91 = CIRCLE ( 'NONE', #245, 0.1873124999999999929 ) ;
#92 =( NAMED_UNIT ( * ) SI_UNIT ( $, .STERADIAN. ) SOLID_ANGLE_UNIT ( ) );
#93 = PRODUCT_CONTEXT ( 'NONE', #88, 'mechanical' ) ;
#94 = ORIENTED_EDGE ( 'NONE', *, *, #76, .F. ) ;
#95 =( GEOMETRIC_REPRESENTATION_CONTEXT ( 3 ) GLOBAL_UNCERTAINTY_ASSIGNED_CONTEXT ( ( #192 ) ) GLOBAL_UNIT_ASSIGNED_CONTEXT ( ( #87, #135, #92 ) ) REPRESENTATION_CONTEXT ( 'NONE', 'WORKASPACE' ) );
#96 = PLANE ( 'NONE',  #67 ) ;
#97 = ORIENTED_EDGE ( 'NONE', *, *, #283, .F. ) ;
#98 = CARTESIAN_POINT ( 'NONE',  ( 0.0000000000000000000, 0.0000000000000000000, 0.0000000000000000000 ) ) ;
#99 = LINE ( 'NONE', #170, #14 ) ;
#100 = DIRECTION ( 'NONE',  ( 1.224646799147353454E-16, 0.0000000000000000000, 1.000000000000000000 ) ) ;
#101 = DIRECTION ( 'NONE',  ( -1.224646799147353454E-16, -0.0000000000000000000, -1.000000000000000000 ) ) ;
#102 = ORIENTED_EDGE ( 'NONE', *, *, #263, .T. ) ;
#103 = AXIS2_PLACEMENT_3D ( 'NONE', #133, #113, #204 ) ;
#104 = FACE_OUTER_BOUND ( 'NONE', #148, .T. ) ;
#105 = EDGE_LOOP ( 'NONE', ( #169, #299 ) ) ;
#106 =( LENGTH_UNIT ( ) NAMED_UNIT ( * ) SI_UNIT ( $, .METRE. ) );
#107 = VERTEX_POINT ( 'NONE', #279 ) ;
#108 = ORIENTED_EDGE ( 'NONE', *, *, #164, .T. ) ;
#109 = ADVANCED_FACE ( 'NONE', ( #56 ), #146, .T. ) ;
#110 = COLOUR_RGB ( '',0.7921568627450980005, 0.8196078431372548767, 0.9333333333333333481 ) ;
#111 = PRESENTATION_STYLE_ASSIGNMENT (( #157 ) ) ;
#112 = ADVANCED_FACE ( 'NONE', ( #104 ), #259, .T. ) ;
#113 = DIRECTION ( 'NONE',  ( 1.224646799147353454E-16, 0.0000000000000000000, 1.000000000000000000 ) ) ;
#114 = DIRECTION ( 'NONE',  ( -1.000000000000000000, 0.0000000000000000000, 1.224646799147353454E-16 ) ) ;
#115 = CIRCLE ( 'NONE', #179, 0.1873124999999999929 ) ;
#116 = CIRCLE ( 'NONE', #248, 0.1725000000000009304 ) ;
#117 = VERTEX_POINT ( 'NONE', #27 ) ;
#118 = ORIENTED_EDGE ( 'NONE', *, *, #78, .F. ) ;
#119 = CYLINDRICAL_SURFACE ( 'NONE', #52, 0.1875000000000000278 ) ;
#120 = DIRECTION ( 'NONE',  ( -1.224646799147353454E-16, -0.0000000000000000000, -1.000000000000000000 ) ) ;
#121 = ADVANCED_FACE ( 'NONE', ( #165 ), #140, .T. ) ;
#122 = VECTOR ( 'NONE', #2, 39.37007874015748143 ) ;
#123 = STYLED_ITEM ( 'NONE', ( #10 ), #65 ) ;
#124 = DIRECTION ( 'NONE',  ( -0.0000000000000000000, -0.0000000000000000000, -1.000000000000000000 ) ) ;
#125 = CARTESIAN_POINT ( 'NONE',  ( 0.1725000000000009304, 2.112515728529195628E-17, 3.000000000000000444 ) ) ;
#126 = DIRECTION ( 'NONE',  ( -1.000000000000000000, 0.0000000000000000000, 0.0000000000000000000 ) ) ;
#127 =( CONVERSION_BASED_UNIT ( 'INCH', #203 ) LENGTH_UNIT ( ) NAMED_UNIT ( #45 ) );
#128 = CARTESIAN_POINT ( 'NONE',  ( -0.1875000000000000278, 0.0000000000000000000, 2.985000000000001208 ) ) ;
#129 = ORIENTED_EDGE ( 'NONE', *, *, #137, .F. ) ;
#130 = SURFACE_STYLE_FILL_AREA ( #180 ) ;
#131 = VECTOR ( 'NONE', #101, 39.37007874015748143 ) ;
#132 =( NAMED_UNIT ( * ) PLANE_ANGLE_UNIT ( ) SI_UNIT ( $, .RADIAN. ) );
#133 = CARTESIAN_POINT ( 'NONE',  ( 1.377727649040772882E-16, 0.0000000000000000000, 1.125000000000000000 ) ) ;
#134 = FACE_OUTER_BOUND ( 'NONE', #277, .T. ) ;
#135 =( NAMED_UNIT ( * ) PLANE_ANGLE_UNIT ( ) SI_UNIT ( $, .RADIAN. ) );
#136 = AXIS2_PLACEMENT_3D ( 'NONE', #53, #120, #195 ) ;
#137 = EDGE_CURVE ( 'NONE', #186, #41, #51, .T. ) ;
#138 = FACE_OUTER_BOUND ( 'NONE', #227, .T. ) ;
#139 = EDGE_CURVE ( 'NONE', #186, #61, #23, .T. ) ;
#140 = CONICAL_SURFACE ( 'NONE', #265, 0.1873124999999999929, 0.1745329251994338360 ) ;
#141 = VERTEX_POINT ( 'NONE', #167 ) ;
#142 = EDGE_CURVE ( 'NONE', #141, #117, #6, .T. ) ;
#143 = ORIENTED_EDGE ( 'NONE', *, *, #164, .F. ) ;
#144 = CARTESIAN_POINT ( 'NONE',  ( 0.0000000000000000000, 0.0000000000000000000, 3.000000000000000444 ) ) ;
#145 = LINE ( 'NONE', #30, #257 ) ;
#146 = CONICAL_SURFACE ( 'NONE', #226, 0.1725000000000009304, 0.7853981633974460586 ) ;
#147 = FACE_OUTER_BOUND ( 'NONE', #105, .T. ) ;
#148 = EDGE_LOOP ( 'NONE', ( #38, #172, #234, #292 ) ) ;
#149 = CYLINDRICAL_SURFACE ( 'NONE', #187, 0.1873124999999999929 ) ;
#150 = DIRECTION ( 'NONE',  ( -1.224646799147353454E-16, -0.0000000000000000000, -1.000000000000000000 ) ) ;
#151 = ORIENTED_EDGE ( 'NONE', *, *, #137, .T. ) ;
#152 = AXIS2_PLACEMENT_3D ( 'NONE', #98, #240, #213 ) ;
#153 = ORIENTED_EDGE ( 'NONE', *, *, #212, .F. ) ;
#154 = DIRECTION ( 'NONE',  ( 0.1736481776669313304, 0.0000000000000000000, 0.9848077530122077983 ) ) ;
#155 = DIRECTION ( 'NONE',  ( -1.000000000000000000, 0.0000000000000000000, 1.224646799147353454E-16 ) ) ;
#156 = MECHANICAL_DESIGN_GEOMETRIC_PRESENTATION_REPRESENTATION (  '', ( #83 ), #29 ) ;
#157 = SURFACE_STYLE_USAGE ( .BOTH. , #267 ) ;
#158 = ORIENTED_EDGE ( 'NONE', *, *, #202, .T. ) ;
#159 = DIMENSIONAL_EXPONENTS ( 1.000000000000000000, 0.0000000000000000000, 0.0000000000000000000, 0.0000000000000000000, 0.0000000000000000000, 0.0000000000000000000, 0.0000000000000000000 ) ;
#160 = CARTESIAN_POINT ( 'NONE',  ( 1.377727649040772882E-16, 0.0000000000000000000, 1.125000000000000000 ) ) ;
#161 = DIRECTION ( 'NONE',  ( -0.0000000000000000000, -0.0000000000000000000, -1.000000000000000000 ) ) ;
#162 = CIRCLE ( 'NONE', #34, 0.1875000000000000278 ) ;
#163 = EDGE_LOOP ( 'NONE', ( #54, #264, #287, #153 ) ) ;
#164 = EDGE_CURVE ( 'NONE', #46, #107, #7, .T. ) ;
#165 = FACE_OUTER_BOUND ( 'NONE', #241, .T. ) ;
#166 = CARTESIAN_POINT ( 'NONE',  ( 0.0000000000000000000, 0.0000000000000000000, 2.985000000000001208 ) ) ;
#167 = CARTESIAN_POINT ( 'NONE',  ( 0.1725000000000009304, 2.204364238465241369E-17, 3.000000000000000444 ) ) ;
#168 = VECTOR ( 'NONE', #62, 39.37007874015748143 ) ;
#169 = ORIENTED_EDGE ( 'NONE', *, *, #78, .T. ) ;
#170 = CARTESIAN_POINT ( 'NONE',  ( -0.1725000000000009304, 0.0000000000000000000, 3.000000000000000444 ) ) ;
#171 = DIRECTION ( 'NONE',  ( -1.224646799147353454E-16, -0.0000000000000000000, -1.000000000000000000 ) ) ;
#172 = ORIENTED_EDGE ( 'NONE', *, *, #212, .T. ) ;
#173 = ORIENTED_EDGE ( 'NONE', *, *, #142, .T. ) ;
#174 = PRESENTATION_LAYER_ASSIGNMENT (  '', '', ( #83 ) ) ;
#175 = FILL_AREA_STYLE_COLOUR ( '', #58 ) ;
#176 = ORIENTED_EDGE ( 'NONE', *, *, #85, .F. ) ;
#177 = CARTESIAN_POINT ( 'NONE',  ( 2.809237542898493243E-33, 0.0000000000000000000, 2.293916535652886521E-17 ) ) ;
#178 = CARTESIAN_POINT ( 'NONE',  ( 2.809237542898493243E-33, 0.0000000000000000000, 2.293916535652886521E-17 ) ) ;
#179 = AXIS2_PLACEMENT_3D ( 'NONE', #160, #184, #230 ) ;
#180 = FILL_AREA_STYLE ('',( #90 ) ) ;
#181 = ADVANCED_FACE ( 'NONE', ( #147 ), #284, .F. ) ;
#182 = ADVANCED_FACE ( 'NONE', ( #55 ), #294, .T. ) ;
#183 = VECTOR ( 'NONE', #89, 39.37007874015747433 ) ;
#184 = DIRECTION ( 'NONE',  ( -1.224646799147353454E-16, -0.0000000000000000000, -1.000000000000000000 ) ) ;
#185 = ORIENTED_EDGE ( 'NONE', *, *, #263, .F. ) ;
#186 = VERTEX_POINT ( 'NONE', #239 ) ;
#187 = AXIS2_PLACEMENT_3D ( 'NONE', #242, #171, #281 ) ;
#188 = DIRECTION ( 'NONE',  ( -1.000000000000000000, 0.0000000000000000000, 0.0000000000000000000 ) ) ;
#189 = DIRECTION ( 'NONE',  ( -0.7071067811865459074, 0.0000000000000000000, -0.7071067811865491270 ) ) ;
#190 = EDGE_CURVE ( 'NONE', #117, #107, #238, .T. ) ;
#191 = DIRECTION ( 'NONE',  ( 0.0000000000000000000, 0.0000000000000000000, -1.000000000000000000 ) ) ;
#192 = UNCERTAINTY_MEASURE_WITH_UNIT (LENGTH_MEASURE( 1.000000000000000082E-05 ), #87, 'distance_accuracy_value', 'NONE');
#193 = CARTESIAN_POINT ( 'NONE',  ( 1.377727649040772882E-16, 0.0000000000000000000, 1.125000000000000000 ) ) ;
#194 = AXIS2_PLACEMENT_3D ( 'NONE', #144, #50, #188 ) ;
#195 = DIRECTION ( 'NONE',  ( 1.000000000000000000, 0.0000000000000000000, 0.0000000000000000000 ) ) ;
#196 = ORIENTED_EDGE ( 'NONE', *, *, #247, .F. ) ;
#197 = CARTESIAN_POINT ( 'NONE',  ( 0.1873124999999999929, 2.293916535652885596E-17, -2.293916535652886521E-17 ) ) ;
#198 = SURFACE_STYLE_USAGE ( .BOTH. , #15 ) ;
#199 = CLOSED_SHELL ( 'NONE', ( #20, #121, #109, #33, #112, #21, #182, #72, #220, #181 ) ) ;
#200 = VECTOR ( 'NONE', #154, 39.37007874015748143 ) ;
#201 = ORIENTED_EDGE ( 'NONE', *, *, #85, .T. ) ;
#202 = EDGE_CURVE ( 'NONE', #107, #46, #162, .T. ) ;
#203 = LENGTH_MEASURE_WITH_UNIT ( LENGTH_MEASURE( 0.02539999999999999897 ), #12 );
#204 = DIRECTION ( 'NONE',  ( 1.000000000000000000, 0.0000000000000000000, 0.0000000000000000000 ) ) ;
#205 = PRODUCT ( 'Micro_SFP-375-69', 'Micro_SFP-375-69', '', ( #93 ) ) ;
#206 = PRESENTATION_LAYER_ASSIGNMENT (  '', '', ( #123 ) ) ;
#207 = DIRECTION ( 'NONE',  ( 0.0000000000000000000, 0.0000000000000000000, 1.000000000000000000 ) ) ;
#208 = CIRCLE ( 'NONE', #272, 0.1873124999999999929 ) ;
#209 = CARTESIAN_POINT ( 'NONE',  ( 0.0000000000000000000, 0.0000000000000000000, 0.0000000000000000000 ) ) ;
#210 = SHAPE_DEFINITION_REPRESENTATION ( #36, #65 ) ;
#211 = CARTESIAN_POINT ( 'NONE',  ( -0.1725000000000009304, 0.0000000000000000000, 3.000000000000000444 ) ) ;
#212 = EDGE_CURVE ( 'NONE', #117, #269, #3, .T. ) ;
#213 = DIRECTION ( 'NONE',  ( 1.000000000000000000, 0.0000000000000000000, -0.0000000000000000000 ) ) ;
#214 = DIRECTION ( 'NONE',  ( 0.0000000000000000000, 0.0000000000000000000, -1.000000000000000000 ) ) ;
#215 = CARTESIAN_POINT ( 'NONE',  ( 0.0000000000000000000, 0.0000000000000000000, 3.000000000000000444 ) ) ;
#216 = EDGE_CURVE ( 'NONE', #57, #269, #99, .T. ) ;
#217 = DIRECTION ( 'NONE',  ( 0.0000000000000000000, 0.0000000000000000000, -1.000000000000000000 ) ) ;
#218 = DIRECTION ( 'NONE',  ( 0.0000000000000000000, 0.0000000000000000000, 1.000000000000000000 ) ) ;
#219 = ORIENTED_EDGE ( 'NONE', *, *, #42, .F. ) ;
#220 = ADVANCED_FACE ( 'NONE', ( #260 ), #149, .T. ) ;
#221 =( CONVERSION_BASED_UNIT ( 'INCH', #291 ) LENGTH_UNIT ( ) NAMED_UNIT ( #18 ) );
#222 = ORIENTED_EDGE ( 'NONE', *, *, #216, .F. ) ;
#223 = SURFACE_STYLE_FILL_AREA ( #13 ) ;
#224 = EDGE_LOOP ( 'NONE', ( #201, #26, #143, #236 ) ) ;
#225 =( NAMED_UNIT ( * ) SI_UNIT ( $, .STERADIAN. ) SOLID_ANGLE_UNIT ( ) );
#226 = AXIS2_PLACEMENT_3D ( 'NONE', #81, #191, #32 ) ;
#227 = EDGE_LOOP ( 'NONE', ( #47, #102, #118, #129 ) ) ;
#228 = AXIS2_PLACEMENT_3D ( 'NONE', #70, #273, #296 ) ;
#229 = APPLICATION_PROTOCOL_DEFINITION ( 'draft international standard', 'automotive_design', 1998, #88 ) ;
#230 = DIRECTION ( 'NONE',  ( -1.000000000000000000, 0.0000000000000000000, 0.0000000000000000000 ) ) ;
#231 = CARTESIAN_POINT ( 'NONE',  ( 0.1873125000000001317, 0.0000000000000000000, 1.125000000000000000 ) ) ;
#232 = DIRECTION ( 'NONE',  ( -1.224646799147353454E-16, -0.0000000000000000000, -1.000000000000000000 ) ) ;
#233 = AXIS2_PLACEMENT_3D ( 'NONE', #166, #214, #286 ) ;
#234 = ORIENTED_EDGE ( 'NONE', *, *, #246, .T. ) ;
#235 =( GEOMETRIC_REPRESENTATION_CONTEXT ( 3 ) GLOBAL_UNCERTAINTY_ASSIGNED_CONTEXT ( ( #28 ) ) GLOBAL_UNIT_ASSIGNED_CONTEXT ( ( #221, #132, #225 ) ) REPRESENTATION_CONTEXT ( 'NONE', 'WORKASPACE' ) );
#236 = ORIENTED_EDGE ( 'NONE', *, *, #246, .F. ) ;
#237 = DIRECTION ( 'NONE',  ( 1.000000000000000000, 0.0000000000000000000, 0.0000000000000000000 ) ) ;
#238 = LINE ( 'NONE', #31, #19 ) ;
#239 = CARTESIAN_POINT ( 'NONE',  ( -0.1873124999999998541, 2.295064642027086507E-17, 1.125000000000000000 ) ) ;
#240 = DIRECTION ( 'NONE',  ( 0.0000000000000000000, 0.0000000000000000000, 1.000000000000000000 ) ) ;
#241 = EDGE_LOOP ( 'NONE', ( #9, #250, #108, #97 ) ) ;
#242 = CARTESIAN_POINT ( 'NONE',  ( 0.0000000000000000000, 0.0000000000000000000, 0.0000000000000000000 ) ) ;
#243 = ORIENTED_EDGE ( 'NONE', *, *, #25, .T. ) ;
#244 = DIRECTION ( 'NONE',  ( 1.000000000000000000, 0.0000000000000000000, 0.0000000000000000000 ) ) ;
#245 = AXIS2_PLACEMENT_3D ( 'NONE', #178, #232, #114 ) ;
#246 = EDGE_CURVE ( 'NONE', #269, #46, #145, .T. ) ;
#247 = EDGE_CURVE ( 'NONE', #141, #57, #116, .T. ) ;
#248 = AXIS2_PLACEMENT_3D ( 'NONE', #215, #218, #261 ) ;
#249 = DIRECTION ( 'NONE',  ( -1.224646799147353454E-16, -0.0000000000000000000, -1.000000000000000000 ) ) ;
#250 = ORIENTED_EDGE ( 'NONE', *, *, #76, .T. ) ;
#251 = CARTESIAN_POINT ( 'NONE',  ( -0.1874999999999998890, 0.0000000000000000000, 1.126063365341178457 ) ) ;
#252 = DIRECTION ( 'NONE',  ( -1.224646799147353454E-16, -0.0000000000000000000, -1.000000000000000000 ) ) ;
#253 = AXIS2_PLACEMENT_3D ( 'NONE', #209, #249, #271 ) ;
#254 = ORIENTED_EDGE ( 'NONE', *, *, #42, .T. ) ;
#255 = DIRECTION ( 'NONE',  ( 1.000000000000000000, 0.0000000000000000000, 0.0000000000000000000 ) ) ;
#256 = DIRECTION ( 'NONE',  ( -1.224646799147353454E-16, -0.0000000000000000000, -1.000000000000000000 ) ) ;
#257 = VECTOR ( 'NONE', #124, 39.37007874015748143 ) ;
#258 = PRODUCT_DEFINITION_FORMATION_WITH_SPECIFIED_SOURCE ( 'ANY', '', #205, .NOT_KNOWN. ) ;
#259 = CYLINDRICAL_SURFACE ( 'NONE', #270, 0.1875000000000000278 ) ;
#260 = FACE_OUTER_BOUND ( 'NONE', #84, .T. ) ;
#261 = DIRECTION ( 'NONE',  ( 1.000000000000000000, 0.0000000000000000000, 0.0000000000000000000 ) ) ;
#262 = PRODUCT_DEFINITION_CONTEXT ( 'detailed design', #295, 'design' ) ;
#263 = EDGE_CURVE ( 'NONE', #61, #11, #5, .T. ) ;
#264 = ORIENTED_EDGE ( 'NONE', *, *, #25, .F. ) ;
#265 = AXIS2_PLACEMENT_3D ( 'NONE', #8, #100, #255 ) ;
#266 = MECHANICAL_DESIGN_GEOMETRIC_PRESENTATION_REPRESENTATION (  '', ( #123 ), #95 ) ;
#267 = SURFACE_SIDE_STYLE ('',( #223 ) ) ;
#268 = EDGE_LOOP ( 'NONE', ( #94, #219, #37, #158 ) ) ;
#269 = VERTEX_POINT ( 'NONE', #128 ) ;
#270 = AXIS2_PLACEMENT_3D ( 'NONE', #77, #282, #126 ) ;
#271 = DIRECTION ( 'NONE',  ( -1.000000000000000000, 0.0000000000000000000, 1.224646799147353454E-16 ) ) ;
#272 = AXIS2_PLACEMENT_3D ( 'NONE', #177, #252, #155 ) ;
#273 = DIRECTION ( 'NONE',  ( 0.0000000000000000000, 0.0000000000000000000, 1.000000000000000000 ) ) ;
#274 = CARTESIAN_POINT ( 'NONE',  ( -0.1873124999999998541, 2.293916535652885596E-17, 1.125000000000000000 ) ) ;
#275 = MANIFOLD_SOLID_BREP ( 'Cut-Revolve1', #199 ) ;
#276 = DIRECTION ( 'NONE',  ( 1.000000000000000000, 0.0000000000000000000, -0.0000000000000000000 ) ) ;
#277 = EDGE_LOOP ( 'NONE', ( #243, #69 ) ) ;
#278 = CIRCLE ( 'NONE', #63, 0.1875000000000000278 ) ;
#279 = CARTESIAN_POINT ( 'NONE',  ( 0.1875000000000001388, 2.296212748401288342E-17, 1.126063365341178457 ) ) ;
#280 = PRODUCT_RELATED_PRODUCT_CATEGORY ( 'part', '', ( #205 ) ) ;
#281 = DIRECTION ( 'NONE',  ( -1.000000000000000000, 0.0000000000000000000, 1.224646799147353454E-16 ) ) ;
#282 = DIRECTION ( 'NONE',  ( -0.0000000000000000000, -0.0000000000000000000, -1.000000000000000000 ) ) ;
#283 = EDGE_CURVE ( 'NONE', #61, #107, #40, .T. ) ;
#284 = PLANE ( 'NONE',  #152 ) ;
#285 = UNCERTAINTY_MEASURE_WITH_UNIT (LENGTH_MEASURE( 1.000000000000000082E-05 ), #127, 'distance_accuracy_value', 'NONE');
#286 = DIRECTION ( 'NONE',  ( 1.000000000000000000, 0.0000000000000000000, 0.0000000000000000000 ) ) ;
#287 = ORIENTED_EDGE ( 'NONE', *, *, #216, .T. ) ;
#288 = LENGTH_MEASURE_WITH_UNIT ( LENGTH_MEASURE( 0.02539999999999999897 ), #106 );
#289 =( NAMED_UNIT ( * ) PLANE_ANGLE_UNIT ( ) SI_UNIT ( $, .RADIAN. ) );
#290 = EDGE_LOOP ( 'NONE', ( #196, #173, #176, #222 ) ) ;
#291 = LENGTH_MEASURE_WITH_UNIT ( LENGTH_MEASURE( 0.02539999999999999897 ), #82 );
#292 = ORIENTED_EDGE ( 'NONE', *, *, #202, .F. ) ;
#293 = LINE ( 'NONE', #274, #183 ) ;
#294 = CONICAL_SURFACE ( 'NONE', #194, 0.1725000000000009304, 0.7853981633974460586 ) ;
#295 = APPLICATION_CONTEXT ( 'automotive_design' ) ;
#296 = DIRECTION ( 'NONE',  ( 1.000000000000000000, 0.0000000000000000000, 0.0000000000000000000 ) ) ;
#297 = CARTESIAN_POINT ( 'NONE',  ( 0.0000000000000000000, 0.0000000000000000000, 2.985000000000001208 ) ) ;
#298 = AXIS2_PLACEMENT_3D ( 'NONE', #193, #150, #75 ) ;
#299 = ORIENTED_EDGE ( 'NONE', *, *, #44, .T. ) ;
ENDSEC;
END-ISO-10303-21;
